0
SECTION
  2
HEADER
  9
$ACADVER
  1
AC1024
  9
$ACADMAINTVER
 70
     6
  9
$DWGCODEPAGE
  3
ANSI_1252
  9
$LASTSAVEDBY
  1
BirnerR
  9
$INSBASE
 10
0.0
 20
0.0
 30
0.0
  9
$EXTMIN
 10
10.833841
 20
0.858486
 30
10.833841
  9
$EXTMAX
 10
11.883851
 20
2.343471
 30
11.883851
  9
$LIMMIN
 10
10.833841
 20
0.858486
  9
$LIMMAX
 10
11.883851
 20
2.343471
  9
$ORTHOMODE
 70
     0
  9
$REGENMODE
 70
     1
  9
$FILLMODE
 70
     1
  9
$QTEXTMODE
 70
     0
  9
$MIRRTEXT
 70
     1
  9
$LTSCALE
 40
1.0
  9
$ATTMODE
 70
     1
  9
$TEXTSIZE
 40
0.2
  9
$TRACEWID
 40
0.05
  9
$TEXTSTYLE
  7
Standard
  9
$CLAYER
  8
0
  9
$CELTYPE
  6
ByLayer
  9
$CECOLOR
 62
   256
  9
$CELTSCALE
 40
1.0
  9
$DISPSILH
 70
     0
  9
$DIMSCALE
 40
1.0
  9
$DIMASZ
 40
0.18
  9
$DIMEXO
 40
0.0625
  9
$DIMDLI
 40
0.38
  9
$DIMRND
 40
0.0
  9
$DIMDLE
 40
0.0
  9
$DIMEXE
 40
0.18
  9
$DIMTP
 40
0.0
  9
$DIMTM
 40
0.0
  9
$DIMTXT
 40
0.18
  9
$DIMCEN
 40
0.09
  9
$DIMTSZ
 40
0.0
  9
$DIMTOL
 70
     0
  9
$DIMLIM
 70
     0
  9
$DIMTIH
 70
     1
  9
$DIMTOH
 70
     1
  9
$DIMSE1
 70
     0
  9
$DIMSE2
 70
     0
  9
$DIMTAD
 70
     0
  9
$DIMZIN
 70
     0
  9
$DIMBLK
  1

  9
$DIMASO
 70
     1
  9
$DIMSHO
 70
     1
  9
$DIMPOST
  1

  9
$DIMAPOST
  1

  9
$DIMALT
 70
     0
  9
$DIMALTD
 70
     2
  9
$DIMALTF
 40
25.4
  9
$DIMLFAC
 40
1.0
  9
$DIMTOFL
 70
     0
  9
$DIMTVP
 40
0.0
  9
$DIMTIX
 70
     0
  9
$DIMSOXD
 70
     0
  9
$DIMSAH
 70
     0
  9
$DIMBLK1
  1

  9
$DIMBLK2
  1

  9
$DIMSTYLE
  2
Standard
  9
$DIMCLRD
 70
     0
  9
$DIMCLRE
 70
     0
  9
$DIMCLRT
 70
     0
  9
$DIMTFAC
 40
1.0
  9
$DIMGAP
 40
0.09
  9
$DIMJUST
 70
     0
  9
$DIMSD1
 70
     0
  9
$DIMSD2
 70
     0
  9
$DIMTOLJ
 70
     1
  9
$DIMTZIN
 70
     0
  9
$DIMALTZ
 70
     0
  9
$DIMALTTZ
 70
     0
  9
$DIMUPT
 70
     0
  9
$DIMDEC
 70
     4
  9
$DIMTDEC
 70
     4
  9
$DIMALTU
 70
     2
  9
$DIMALTTD
 70
     2
  9
$DIMTXSTY
  7
Standard
  9
$DIMAUNIT
 70
     0
  9
$DIMADEC
 70
     0
  9
$DIMALTRND
 40
0.0
  9
$DIMAZIN
 70
     0
  9
$DIMDSEP
 70
    46
  9
$DIMATFIT
 70
     3
  9
$DIMFRAC
 70
     0
  9
$DIMLDRBLK
  1

  9
$DIMLUNIT
 70
     2
  9
$DIMLWD
 70
    -2
  9
$DIMLWE
 70
    -2
  9
$DIMTMOVE
 70
     0
  9
$DIMFXL
 40
1.0
  9
$DIMFXLON
 70
     0
  9
$DIMJOGANG
 40
0.785398
  9
$DIMTFILL
 70
     0
  9
$DIMTFILLCLR
 70
     0
  9
$DIMARCSYM
 70
     0
  9
$DIMLTYPE
  6

  9
$DIMLTEX1
  6

  9
$DIMLTEX2
  6

  9
$DIMTXTDIRECTION
 70
     0
  9
$LUNITS
 70
     2
  9
$LUPREC
 70
     4
  9
$SKETCHINC
 40
0.1
  9
$FILLETRAD
 40
0.5
  9
$AUNITS
 70
     0
  9
$AUPREC
 70
     0
  9
$MENU
  1
.
  9
$ELEVATION
 40
0.0
  9
$PELEVATION
 40
0.0
  9
$THICKNESS
 40
0.0
  9
$LIMCHECK
 70
     0
  9
$CHAMFERA
 40
0.0
  9
$CHAMFERB
 40
0.0
  9
$CHAMFERC
 40
0.0
  9
$CHAMFERD
 40
0.0
  9
$SKPOLY
 70
     0
  9
$TDCREATE
 40
2459143.594685799
  9
$TDUCREATE
 40
2459143.511352465
  9
$TDUPDATE
 40
2459143.594695139
  9
$TDUUPDATE
 40
2459143.511361806
  9
$TDINDWG
 40
0.0000000116
  9
$TDUSRTIMER
 40
0.0000000116
  9
$USRTIMER
 70
     1
  9
$ANGBASE
 50
0.0
  9
$ANGDIR
 70
     0
  9
$PDMODE
 70
    65
  9
$PDSIZE
 40
0.0
  9
$PLINEWID
 40
0.0
  9
$SPLFRAME
 70
     0
  9
$SPLINETYPE
 70
     6
  9
$SPLINESEGS
 70
     8
  9
$HANDSEED
  5
306
  9
$SURFTAB1
 70
     6
  9
$SURFTAB2
 70
     6
  9
$SURFTYPE
 70
     6
  9
$SURFU
 70
     6
  9
$SURFV
 70
     6
  9
$UCSBASE
  2

  9
$UCSNAME
  2

  9
$UCSORG
 10
0.0
 20
0.0
 30
0.0
  9
$UCSXDIR
 10
1.0
 20
0.0
 30
0.0
  9
$UCSYDIR
 10
0.0
 20
1.0
 30
0.0
  9
$UCSORTHOREF
  2

  9
$UCSORTHOVIEW
 70
     0
  9
$UCSORGTOP
 10
0.0
 20
0.0
 30
0.0
  9
$UCSORGBOTTOM
 10
0.0
 20
0.0
 30
0.0
  9
$UCSORGLEFT
 10
0.0
 20
0.0
 30
0.0
  9
$UCSORGRIGHT
 10
0.0
 20
0.0
 30
0.0
  9
$UCSORGFRONT
 10
0.0
 20
0.0
 30
0.0
  9
$UCSORGBACK
 10
0.0
 20
0.0
 30
0.0
  9
$PUCSBASE
  2

  9
$PUCSNAME
  2

  9
$PUCSORG
 10
0.0
 20
0.0
 30
0.0
  9
$PUCSXDIR
 10
1.0
 20
0.0
 30
0.0
  9
$PUCSYDIR
 10
0.0
 20
1.0
 30
0.0
  9
$PUCSORTHOREF
  2

  9
$PUCSORTHOVIEW
 70
     0
  9
$PUCSORGTOP
 10
0.0
 20
0.0
 30
0.0
  9
$PUCSORGBOTTOM
 10
0.0
 20
0.0
 30
0.0
  9
$PUCSORGLEFT
 10
0.0
 20
0.0
 30
0.0
  9
$PUCSORGRIGHT
 10
0.0
 20
0.0
 30
0.0
  9
$PUCSORGFRONT
 10
0.0
 20
0.0
 30
0.0
  9
$PUCSORGBACK
 10
0.0
 20
0.0
 30
0.0
  9
$USERI1
 70
     0
  9
$USERI2
 70
     0
  9
$USERI3
 70
     0
  9
$USERI4
 70
     0
  9
$USERI5
 70
     0
  9
$USERR1
 40
0.0
  9
$USERR2
 40
0.0
  9
$USERR3
 40
0.0
  9
$USERR4
 40
0.0
  9
$USERR5
 40
0.0
  9
$WORLDVIEW
 70
     1
  9
$SHADEDGE
 70
     3
  9
$SHADEDIF
 70
    70
  9
$TILEMODE
 70
     0
  9
$MAXACTVP
 70
    64
  9
$PINSBASE
 10
0.0
 20
0.0
 30
0.0
  9
$PLIMCHECK
 70
     0
  9
$PEXTMIN
 10
-0.0001
 20
-0.0001
 30
0.0
  9
$PEXTMAX
 10
0.210102
 20
0.297097
 30
0.0
  9
$PLIMMIN
 10
-0.0001
 20
-0.0001
  9
$PLIMMAX
 10
0.210102
 20
0.297097
  9
$UNITMODE
 70
     0
  9
$VISRETAIN
 70
     1
  9
$PLINEGEN
 70
     0
  9
$PSLTSCALE
 70
     0
  9
$TREEDEPTH
 70
  3020
  9
$CMLSTYLE
  2
Standard
  9
$CMLJUST
 70
     0
  9
$CMLSCALE
 40
1.0
  9
$PROXYGRAPHICS
 70
     1
  9
$MEASUREMENT
 70
     1
  9
$CELWEIGHT
370
    -1
  9
$ENDCAPS
280
     0
  9
$JOINSTYLE
280
     0
  9
$LWDISPLAY
290
     0
  9
$INSUNITS
 70
     6
  9
$HYPERLINKBASE
  1

  9
$STYLESHEET
  1

  9
$XEDIT
290
     1
  9
$CEPSNTYPE
380
     0
  9
$PSTYLEMODE
290
     1
  9
$FINGERPRINTGUID
  2
{c636dfbe-d0e2-403e-8b8b-e2cac79b8bc7}
  9
$VERSIONGUID
  2
{FAEB1C32-E019-11D5-929B-00C0DF256EC4}
  9
$EXTNAMES
290
     1
  9
$PSVPSCALE
 40
0.0
  9
$OLESTARTUP
290
     0
  9
$SORTENTS
280
   127
  9
$INDEXCTL
280
     0
  9
$HIDETEXT
280
     1
  9
$XCLIPFRAME
280
     2
  9
$HALOGAP
280
     0
  9
$OBSCOLOR
 70
   257
  9
$OBSLTYPE
280
     0
  9
$INTERSECTIONDISPLAY
280
     0
  9
$INTERSECTIONCOLOR
 70
   257
  9
$DIMASSOC
280
     2
  9
$PROJECTNAME
  1

  9
$CAMERADISPLAY
290
     0
  9
$LENSLENGTH
 40
50.0
  9
$CAMERAHEIGHT
 40
0.0
  9
$STEPSPERSEC
 40
2.0
  9
$STEPSIZE
 40
6.0
  9
$3DDWFPREC
 40
2.0
  9
$PSOLWIDTH
 40
0.25
  9
$PSOLHEIGHT
 40
4.0
  9
$LOFTANG1
 40
1.570796
  9
$LOFTANG2
 40
1.570796
  9
$LOFTMAG1
 40
0.0
  9
$LOFTMAG2
 40
0.0
  9
$LOFTPARAM
 70
     7
  9
$LOFTNORMALS
280
     1
  9
$LATITUDE
 40
37.795
  9
$LONGITUDE
 40
-122.394
  9
$NORTHDIRECTION
 40
0.0
  9
$TIMEZONE
 70
 -8000
  9
$LIGHTGLYPHDISPLAY
280
     1
  9
$TILEMODELIGHTSYNCH
280
     1
  9
$CMATERIAL
347
44
  9
$SOLIDHIST
280
     0
  9
$SHOWHIST
280
     1
  9
$DWFFRAME
280
     2
  9
$DGNFRAME
280
     2
  9
$REALWORLDSCALE
290
     1
  9
$INTERFERECOLOR
 62
   256
  9
$CSHADOW
280
     0
  9
$SHADOWPLANELOCATION
 40
0.0
  0
ENDSEC
  0
SECTION
  2
CLASSES
  0
CLASS
  1
ACDBDICTIONARYWDFLT
  2
AcDbDictionaryWithDefault
  3
ObjectDBX Classes
 90
        0
 91
        3
280
     0
281
     0
  0
CLASS
  1
VISUALSTYLE
  2
AcDbVisualStyle
  3
ObjectDBX Classes
 90
     4095
 91
        3
280
     0
281
     0
  0
CLASS
  1
MATERIAL
  2
AcDbMaterial
  3
ObjectDBX Classes
 90
     1153
 91
        3
280
     0
281
     0
  0
CLASS
  1
SCALE
  2
AcDbScale
  3
ObjectDBX Classes
 90
     1153
 91
        3
280
     0
281
     0
  0
CLASS
  1
TABLESTYLE
  2
AcDbTableStyle
  3
ObjectDBX Classes
 90
     4095
 91
        3
280
     0
281
     0
  0
CLASS
  1
MLEADERSTYLE
  2
AcDbMLeaderStyle
  3
ACDB_MLEADERSTYLE_CLASS
 90
     4095
 91
        3
280
     0
281
     0
  0
CLASS
  1
SUN
  2
AcDbSun
  3
SCENEOE
 90
     1153
 91
        3
280
     0
281
     0
  0
CLASS
  1
SORTENTSTABLE
  2
AcDbSortentsTable
  3
ObjectDBX Classes
 90
        0
 91
        3
280
     0
281
     0
  0
CLASS
  1
DICTIONARYVAR
  2
AcDbDictionaryVar
  3
ObjectDBX Classes
 90
        0
 91
        3
280
     0
281
     0
  0
CLASS
  1
CELLSTYLEMAP
  2
AcDbCellStyleMap
  3
ObjectDBX Classes
 90
     1152
 91
        3
280
     0
281
     0
  0
ENDSEC
  0
SECTION
  2
TABLES
  0
TABLE
  2
VPORT
  5
8
330
0
100
AcDbSymbolTable
 70
     1
  0
VPORT
  5
29
330
8
100
AcDbSymbolTableRecord
100
AcDbViewportTableRecord
  2
*Active
 70
     0
 10
0.0
 20
0.0
 11
1.0
 21
1.0
 12
11.358846
 22
1.600979
 13
0.0
 23
0.0
 14
0.5
 24
0.5
 15
0.5
 25
0.5
 16
0.0
 26
0.0
 36
1.0
 17
0.0
 27
0.0
 37
0.0
 40
1.781982
 41
0.848502
 42
50.0
 43
0.0
 44
0.0
 50
0.0
 51
0.0
 71
     0
 72
   100
 73
     1
 74
     3
 75
     0
 76
     0
 77
     0
 78
     0
281
     0
 65
     1
110
0.0
120
0.0
130
0.0
111
1.0
121
0.0
131
0.0
112
0.0
122
1.0
132
0.0
 79
     0
146
0.0
348
2F
 60
     3
 61
     5
292
     1
282
     1
141
0.0
142
0.0
 63
   250
361
6D
  0
ENDTAB
  0
TABLE
  2
LTYPE
  5
5
330
0
100
AcDbSymbolTable
 70
     5
  0
LTYPE
  5
14
330
5
100
AcDbSymbolTableRecord
100
AcDbLinetypeTableRecord
  2
ByBlock
 70
     0
  3

 72
    65
 73
     0
 40
0.0
  0
LTYPE
  5
15
330
5
100
AcDbSymbolTableRecord
100
AcDbLinetypeTableRecord
  2
ByLayer
 70
     0
  3

 72
    65
 73
     0
 40
0.0
  0
LTYPE
  5
16
330
5
100
AcDbSymbolTableRecord
100
AcDbLinetypeTableRecord
  2
Continuous
 70
     0
  3
Solid line
 72
    65
 73
     0
 40
0.0
  0
LTYPE
  5
74
330
5
100
AcDbSymbolTableRecord
100
AcDbLinetypeTableRecord
  2
AUSGEZOGEN
 70
     0
  3
durchgezogene Linie
 72
    65
 73
     0
 40
0.0
  0
LTYPE
  5
7A
330
5
100
AcDbSymbolTableRecord
100
AcDbLinetypeTableRecord
  2
STRICHLINIE_S4
 70
     0
  3
Langgestrichelt
 72
    65
 73
     2
 40
0.04
 49
0.03
 74
     0
 49
-0.01
 74
     0
  0
LTYPE
  5
7B
330
5
100
AcDbSymbolTableRecord
100
AcDbLinetypeTableRecord
  2
STRICHPUNKT2_S5
 70
     0
  3
Lang eng gestrichelt bzw. punktiert
 72
    65
 73
     4
 40
0.05
 49
0.035
 74
     0
 49
-0.005
 74
     0
 49
0.005
 74
     0
 49
-0.005
 74
     0
  0
LTYPE
  5
7C
330
5
100
AcDbSymbolTableRecord
100
AcDbLinetypeTableRecord
  2
VERDECKT2_S2
 70
     0
  3
Kurzgestrichelt
 72
    65
 73
     2
 40
0.015
 49
0.01
 74
     0
 49
-0.005
 74
     0
  0
ENDTAB
  0
TABLE
  2
LAYER
  5
2
330
0
100
AcDbSymbolTable
 70
     4
  0
LAYER
  5
10
330
2
100
AcDbSymbolTableRecord
100
AcDbLayerTableRecord
  2
0
 70
     0
 62
     7
  6
Continuous
370
    -3
390
F
347
46
  0
LAYER
  5
76
330
2
100
AcDbSymbolTableRecord
100
AcDbLayerTableRecord
  2
PLAN_313
 70
     0
 62
     7
  6
AUSGEZOGEN
370
    18
390
F
347
46
1001
AcCmTransparency
1071
 33554687
1001
AcAecLayerStandard
1000

1000
Dokument-Layer
  0
LAYER
  5
78
330
2
100
AcDbSymbolTableRecord
100
AcDbLayerTableRecord
  2
TB_313
 70
     0
 62
     7
  6
AUSGEZOGEN
370
    18
390
F
347
46
1001
AcCmTransparency
1071
 33554687
1001
AcAecLayerStandard
1000

1000
Dokument-Layer
  0
LAYER
  5
7D
330
2
100
AcDbSymbolTableRecord
100
AcDbLayerTableRecord
  2
XR$1$TB_313_1
 70
     0
 62
     7
  6
AUSGEZOGEN
370
    18
390
F
347
46
1001
AcCmTransparency
1071
 33554687
1001
AcAecLayerStandard
1000

1000
Dokument-Layer
  0
ENDTAB
  0
TABLE
  2
STYLE
  5
3
330
0
100
AcDbSymbolTable
 70
     2
  0
STYLE
  5
11
330
3
100
AcDbSymbolTableRecord
100
AcDbTextStyleTableRecord
  2
Standard
 70
     0
 40
0.0
 41
1.0
 50
0.0
 71
     0
 42
0.2
  3
txt
  4

  0
STYLE
  5
79
330
3
100
AcDbSymbolTableRecord
100
AcDbTextStyleTableRecord
  2
ARIAL
 70
     0
 40
0.0
 41
1.0
 50
0.0
 71
     0
 42
0.2
  3
ARIAL.TTF
  4

1001
ACAD
1000
Arial
1071
       34
  0
ENDTAB
  0
TABLE
  2
VIEW
  5
6
330
0
100
AcDbSymbolTable
 70
     0
  0
ENDTAB
  0
TABLE
  2
UCS
  5
7
330
0
100
AcDbSymbolTable
 70
     0
  0
ENDTAB
  0
TABLE
  2
APPID
  5
9
330
0
100
AcDbSymbolTable
 70
     4
  0
APPID
  5
12
330
9
100
AcDbSymbolTableRecord
100
AcDbRegAppTableRecord
  2
ACAD
 70
     0
  0
APPID
  5
75
330
9
100
AcDbSymbolTableRecord
100
AcDbRegAppTableRecord
  2
AcCmTransparency
 70
     0
  0
APPID
  5
77
330
9
100
AcDbSymbolTableRecord
100
AcDbRegAppTableRecord
  2
AcAecLayerStandard
 70
     0
  0
APPID
  5
7E
330
9
100
AcDbSymbolTableRecord
100
AcDbRegAppTableRecord
  2
NEM_ODX
 70
     0
  0
ENDTAB
  0
TABLE
  2
DIMSTYLE
  5
A
330
0
100
AcDbSymbolTable
 70
     1
100
AcDbDimStyleTable
  0
DIMSTYLE
105
27
330
A
100
AcDbSymbolTableRecord
100
AcDbDimStyleTableRecord
  2
Standard
 70
     0
178
     0
340
11
  0
ENDTAB
  0
TABLE
  2
BLOCK_RECORD
  5
1
330
0
100
AcDbSymbolTable
 70
     1
  0
BLOCK_RECORD
  5
1F
102
{ACAD_XDICTIONARY
360
2C9
102
}
330
1
100
AcDbSymbolTableRecord
100
AcDbBlockTableRecord
  2
*Model_Space
340
22
 70
     0
280
     1
281
     0
  0
BLOCK_RECORD
  5
6E
330
1
100
AcDbSymbolTableRecord
100
AcDbBlockTableRecord
  2
*Paper_Space
340
6F
 70
     0
280
     1
281
     0
  0
BLOCK_RECORD
  5
296
330
1
100
AcDbSymbolTableRecord
100
AcDbBlockTableRecord
  2
COMPLEXOBJECT_0
340
0
102
{BLKREFS
331
2B0
102
}
 70
     6
280
     1
281
     0
  0
ENDTAB
  0
ENDSEC
  0
SECTION
  2
BLOCKS
  0
BLOCK
  5
20
330
1F
100
AcDbEntity
  8
0
100
AcDbBlockBegin
  2
*Model_Space
 70
     0
 10
0.0
 20
0.0
 30
0.0
  3
*Model_Space
  1

  0
ENDBLK
  5
21
330
1F
100
AcDbEntity
  8
0
100
AcDbBlockEnd
  0
BLOCK
  5
70
330
6E
100
AcDbEntity
 67
     1
  8
0
100
AcDbBlockBegin
  2
*Paper_Space
 70
     0
 10
0.0
 20
0.0
 30
0.0
  3
*Paper_Space
  1

  0
ENDBLK
  5
71
330
6E
100
AcDbEntity
 67
     1
  8
0
100
AcDbBlockEnd
  0
BLOCK
  5
297
330
296
100
AcDbEntity
  8
0
100
AcDbBlockBegin
  2
COMPLEXOBJECT_0
 70
     0
 10
0.0
 20
0.0
 30
0.0
  3
COMPLEXOBJECT_0
  1

  0
LINE
  5
299
330
296
100
AcDbEntity
  8
XR$1$TB_313_1
  6
AUSGEZOGEN
 62
     7
440
 33554687
370
    25
100
AcDbLine
 10
11.065015
 20
1.422929
 30
0.0
 11
11.065015
 21
1.402929
 31
0.0
  0
LINE
  5
29A
330
296
100
AcDbEntity
  8
XR$1$TB_313_1
  6
AUSGEZOGEN
 62
     7
440
 33554687
370
    25
100
AcDbLine
 10
11.057015
 20
1.402929
 30
0.0
 11
11.057015
 21
1.422929
 31
0.0
  0
ARC
  5
29B
330
296
100
AcDbEntity
  8
XR$1$TB_313_1
  6
AUSGEZOGEN
 62
     7
440
 33554687
370
    18
100
AcDbCircle
 10
11.063139
 20
1.403583
 30
0.0
 40
0.0008
100
AcDbArc
 50
270.0
 51
0.658212
  0
LINE
  5
29C
330
296
100
AcDbEntity
  8
XR$1$TB_313_1
  6
AUSGEZOGEN
 62
     7
440
 33554687
370
    18
100
AcDbLine
 10
11.063139
 20
1.402783
 30
0.0
 11
11.058876
 21
1.402783
 31
0.0
  0
ARC
  5
29D
330
296
100
AcDbEntity
  8
XR$1$TB_313_1
  6
AUSGEZOGEN
 62
     7
440
 33554687
370
    18
100
AcDbCircle
 10
11.058876
 20
1.403583
 30
0.0
 40
0.0008
100
AcDbArc
 50
179.341788
 51
270.0
  0
LINE
  5
29E
330
296
100
AcDbEntity
  8
XR$1$TB_313_1
  6
AUSGEZOGEN
 62
     7
440
 33554687
370
    18
100
AcDbLine
 10
11.058076
 20
1.403592
 30
0.0
 11
11.058313
 21
1.424264
 31
0.0
  0
ARC
  5
29F
330
296
100
AcDbEntity
  8
XR$1$TB_313_1
  6
AUSGEZOGEN
 62
     7
440
 33554687
370
    18
100
AcDbCircle
 10
11.056713
 20
1.424283
 30
0.0
 40
0.0016
100
AcDbArc
 50
359.341788
 51
74.341788
  0
LINE
  5
2A0
330
296
100
AcDbEntity
  8
XR$1$TB_313_1
  6
AUSGEZOGEN
 62
     7
440
 33554687
370
    18
100
AcDbLine
 10
11.057145
 20
1.425823
 30
0.0
 11
11.053007
 21
1.426983
 31
0.0
  0
LINE
  5
2A1
330
296
100
AcDbEntity
  8
XR$1$TB_313_1
  6
AUSGEZOGEN
 62
     7
440
 33554687
370
    18
100
AcDbLine
 10
11.053007
 20
1.426983
 30
0.0
 11
11.052791
 21
1.426213
 31
0.0
  0
LINE
  5
2A2
330
296
100
AcDbEntity
  8
XR$1$TB_313_1
  6
AUSGEZOGEN
 62
     7
440
 33554687
370
    18
100
AcDbLine
 10
11.052791
 20
1.426213
 30
0.0
 11
11.056929
 21
1.425053
 31
0.0
  0
ARC
  5
2A3
330
296
100
AcDbEntity
  8
XR$1$TB_313_1
  6
AUSGEZOGEN
 62
     7
440
 33554687
370
    18
100
AcDbCircle
 10
11.056713
 20
1.424283
 30
0.0
 40
0.0008
100
AcDbArc
 50
359.341788
 51
74.341788
  0
LINE
  5
2A4
330
296
100
AcDbEntity
  8
XR$1$TB_313_1
  6
AUSGEZOGEN
 62
     7
440
 33554687
370
    18
100
AcDbLine
 10
11.057513
 20
1.424274
 30
0.0
 11
11.057276
 21
1.403602
 31
0.0
  0
ARC
  5
2A5
330
296
100
AcDbEntity
  8
XR$1$TB_313_1
  6
AUSGEZOGEN
 62
     7
440
 33554687
370
    18
100
AcDbCircle
 10
11.058876
 20
1.403583
 30
0.0
 40
0.0016
100
AcDbArc
 50
179.341788
 51
270.0
  0
LINE
  5
2A6
330
296
100
AcDbEntity
  8
XR$1$TB_313_1
  6
AUSGEZOGEN
 62
     7
440
 33554687
370
    18
100
AcDbLine
 10
11.058876
 20
1.401983
 30
0.0
 11
11.063139
 21
1.401983
 31
0.0
  0
ARC
  5
2A7
330
296
100
AcDbEntity
  8
XR$1$TB_313_1
  6
AUSGEZOGEN
 62
     7
440
 33554687
370
    18
100
AcDbCircle
 10
11.063139
 20
1.403583
 30
0.0
 40
0.0016
100
AcDbArc
 50
270.0
 51
0.658212
  0
LINE
  5
2A8
330
296
100
AcDbEntity
  8
XR$1$TB_313_1
  6
AUSGEZOGEN
 62
     7
440
 33554687
370
    18
100
AcDbLine
 10
11.064739
 20
1.403602
 30
0.0
 11
11.064501
 21
1.424274
 31
0.0
  0
ARC
  5
2A9
330
296
100
AcDbEntity
  8
XR$1$TB_313_1
  6
AUSGEZOGEN
 62
     7
440
 33554687
370
    18
100
AcDbCircle
 10
11.065301
 20
1.424283
 30
0.0
 40
0.0008
100
AcDbArc
 50
105.658212
 51
180.658212
  0
LINE
  5
2AA
330
296
100
AcDbEntity
  8
XR$1$TB_313_1
  6
AUSGEZOGEN
 62
     7
440
 33554687
370
    18
100
AcDbLine
 10
11.065085
 20
1.425053
 30
0.0
 11
11.069223
 21
1.426213
 31
0.0
  0
LINE
  5
2AB
330
296
100
AcDbEntity
  8
XR$1$TB_313_1
  6
AUSGEZOGEN
 62
     7
440
 33554687
370
    18
100
AcDbLine
 10
11.069223
 20
1.426213
 30
0.0
 11
11.069007
 21
1.426983
 31
0.0
  0
LINE
  5
2AC
330
296
100
AcDbEntity
  8
XR$1$TB_313_1
  6
AUSGEZOGEN
 62
     7
440
 33554687
370
    18
100
AcDbLine
 10
11.069007
 20
1.426983
 30
0.0
 11
11.064869
 21
1.425823
 31
0.0
  0
ARC
  5
2AD
330
296
100
AcDbEntity
  8
XR$1$TB_313_1
  6
AUSGEZOGEN
 62
     7
440
 33554687
370
    18
100
AcDbCircle
 10
11.065301
 20
1.424283
 30
0.0
 40
0.0016
100
AcDbArc
 50
105.658212
 51
180.658212
  0
LINE
  5
2AE
330
296
100
AcDbEntity
  8
XR$1$TB_313_1
  6
AUSGEZOGEN
 62
     7
440
 33554687
370
    18
100
AcDbLine
 10
11.063701
 20
1.424264
 30
0.0
 11
11.063939
 21
1.403592
 31
0.0
  0
ARC
  5
2AF
330
296
100
AcDbEntity
  8
XR$1$TB_313_1
  6
AUSGEZOGEN
 62
     7
440
 33554687
370
    18
100
AcDbCircle
 10
11.052778
 20
1.425386
 30
0.0
 40
0.0008
100
AcDbArc
 50
74.341788
 51
89.341788
  0
ENDBLK
  5
298
330
296
100
AcDbEntity
  8
0
100
AcDbBlockEnd
  0
ENDSEC
  0
SECTION
  2
ENTITIES
  0
HATCH
  5
7F
330
1F
100
AcDbEntity
  8
XR$1$TB_313_1
  6
AUSGEZOGEN
 62
     7
440
 33554687
370
    18
100
AcDbHatch
 10
0.0
 20
0.0
 30
0.0
210
0.0
220
0.0
230
1.0
  2
SCHRAFFUR_2
 70
     0
 71
     0
 91
        1
 92
        0
 93
        4
 72
     1
 10
11.55131657199327
 20
1.665130295224533
 11
10.92632074718136
 21
1.665130295224533
 72
     1
 10
10.92632074718136
 20
1.665130295224533
 11
10.92632074718136
 21
1.655130295224533
 72
     1
 10
10.92632074718136
 20
1.655130295224533
 11
11.55131657199327
 21
1.655130295224533
 72
     1
 10
11.55131657199327
 20
1.655130295224533
 11
11.55131657199327
 21
1.665130295224533
 97
        0
 75
     0
 76
     2
 52
45.0
 41
0.005
 77
     0
 78
     2
 53
135.0
 43
0.0
 44
0.0
 45
-0.0176776695296637
 46
-0.0176776695296637
 79
     0
 53
135.0
 43
-0.0088388347648318
 44
-0.0088388347648318
 45
-0.0176776695296637
 46
-0.0176776695296637
 79
     0
 98
        0
1001
ACAD
1010
0.0
1020
0.0
1030
0.0
1001
NEM_ODX
1002
{
1000
BZM_DEPEND
1070
     1
1000
BZM_SCALE
1040
5.0
1000
SCHRAFFUR_2
1002
}
  0
HATCH
  5
80
330
1F
100
AcDbEntity
  8
XR$1$TB_313_1
  6
AUSGEZOGEN
 62
     7
440
 33554687
370
    18
100
AcDbHatch
 10
0.0
 20
0.0
 30
0.0
210
0.0
220
0.0
230
1.0
  2
SCHRAFFUR_2
 70
     0
 71
     0
 91
        1
 92
        0
 93
        4
 72
     1
 10
11.55131657199327
 20
1.655130295224533
 11
10.92632074718136
 21
1.655130295224533
 72
     1
 10
10.92632074718136
 20
1.655130295224533
 11
10.92632074718136
 21
1.645130295224533
 72
     1
 10
10.92632074718136
 20
1.645130295224533
 11
11.55131657199327
 21
1.645130295224533
 72
     1
 10
11.55131657199327
 20
1.645130295224533
 11
11.55131657199327
 21
1.655130295224533
 97
        0
 75
     0
 76
     2
 52
315.0
 41
0.005
 77
     0
 78
     2
 53
44.99999999999999
 43
0.0
 44
0.0
 45
-0.0176776695296637
 46
0.0176776695296637
 79
     0
 53
44.99999999999999
 43
-0.0088388347648318
 44
0.0088388347648318
 45
-0.0176776695296637
 46
0.0176776695296637
 79
     0
 98
        0
1001
ACAD
1010
10515.746202
1020
1655.130295
1030
0.0
1001
NEM_ODX
1002
{
1000
BZM_DEPEND
1070
     1
1000
BZM_SCALE
1040
5.0
1000
SCHRAFFUR_2
1002
}
  0
HATCH
  5
81
330
1F
100
AcDbEntity
  8
XR$1$TB_313_1
  6
AUSGEZOGEN
 62
     7
440
 33554687
370
    18
100
AcDbHatch
 10
0.0
 20
0.0
 30
0.0
210
0.0
220
0.0
230
1.0
  2
SCHRAFFUR_2
 70
     0
 71
     0
 91
        1
 92
        0
 93
        4
 72
     1
 10
11.55131657199327
 20
1.485130295224533
 11
10.92632074718136
 21
1.485130295224533
 72
     1
 10
10.92632074718136
 20
1.485130295224533
 11
10.92632074718136
 21
1.475130295224533
 72
     1
 10
10.92632074718136
 20
1.475130295224533
 11
11.55131657199327
 21
1.475130295224533
 72
     1
 10
11.55131657199327
 20
1.475130295224533
 11
11.55131657199327
 21
1.485130295224533
 97
        0
 75
     0
 76
     2
 52
315.0
 41
0.005
 77
     0
 78
     2
 53
44.99999999999999
 43
0.0
 44
0.0
 45
-0.0176776695296637
 46
0.0176776695296637
 79
     0
 53
44.99999999999999
 43
-0.0088388347648318
 44
0.0088388347648318
 45
-0.0176776695296637
 46
0.0176776695296637
 79
     0
 98
        0
1001
ACAD
1010
0.0
1020
0.0
1030
0.0
1001
NEM_ODX
1002
{
1000
BZM_DEPEND
1070
     1
1000
BZM_SCALE
1040
5.0
1000
SCHRAFFUR_2
1002
}
  0
HATCH
  5
82
330
1F
100
AcDbEntity
  8
XR$1$TB_313_1
  6
AUSGEZOGEN
 62
    18
420
        0
440
 33554687
370
    35
100
AcDbHatch
 10
0.0
 20
0.0
 30
0.0
210
0.0
220
0.0
230
1.0
  2
SOLID
 70
     1
 71
     0
 91
       18
 92
        3
 72
     0
 73
     1
 93
       27
 10
10.95310725699455
 20
0.9964877867983992
 10
10.95710100045549
 20
0.9964877867983992
 10
10.95767812684605
 20
0.9965151831792118
 10
10.95820911196366
 20
0.9965977328003456
 10
10.95870404921177
 20
0.996726063215735
 10
10.95915284518694
 20
0.9969091863927534
 10
10.95956487233522
 20
0.9971290783966524
 10
10.95993111868925
 20
0.9974037631621736
 10
10.96056339832013
 20
0.9980540667277901
 10
10.96081068670484
 20
0.9984296855278917
 10
10.96103057870872
 20
0.9988417126761752
 10
10.96136942868194
 20
0.9997396651052013
 10
10.96156156382634
 20
1.000737830611421
 10
10.96162572903403
 20
1.001809533771392
 10
10.96156156382634
 20
1.00295477458513
 10
10.96136942868194
 20
1.003989708918223
 10
10.96121370188575
 20
1.004456889306827
 10
10.96103057870872
 20
1.00489631283593
 10
10.96081068670484
 20
1.005299688495536
 10
10.96056339832013
 20
1.005665934849564
 10
10.95993111868925
 20
1.006288842034373
 10
10.95956487233522
 20
1.006536130419082
 10
10.95915284518694
 20
1.006746649976904
 10
10.95870404921177
 20
1.006911749219183
 10
10.95820911196366
 20
1.007030707188505
 10
10.95710100045549
 20
1.007131641223082
 10
10.95310725699455
 20
1.007131641223082
 97
        0
 92
        3
 72
     0
 73
     1
 93
       12
 10
10.96481344213315
 20
0.9964877867983992
 10
10.97253525625686
 20
0.9964877867983992
 10
10.97253525625686
 20
0.9978161507891523
 10
10.96641649088942
 20
0.9978161507891523
 10
10.96641649088942
 20
1.001278548653786
 10
10.97146355309688
 20
1.001278548653786
 10
10.97146355309688
 20
1.002606552165844
 10
10.96641649088942
 20
1.002606552165844
 10
10.96641649088942
 20
1.005803277232323
 10
10.97226958345871
 20
1.005803277232323
 10
10.97226958345871
 20
1.007131641223082
 10
10.96481344213315
 20
1.007131641223082
 97
        0
 92
        3
 72
     0
 73
     1
 93
       38
 10
10.98210704704287
 20
1.007131641223082
 10
10.98210704704287
 20
1.000215857461181
 10
10.98207027821599
 20
0.9995655538955652
 10
10.98196069269274
 20
0.9990158238858212
 10
10.98175882462359
 20
0.9985486434972136
 10
10.98147512789068
 20
0.9981823971431768
 10
10.98110852105796
 20
0.9979077123776556
 10
10.98065071311542
 20
0.9977062047872032
 10
10.98010098310568
 20
0.9975868863391829
 10
10.97945067954006
 20
0.9975504779910007
 10
10.97880037597444
 20
0.9975868863391829
 10
10.9782506459647
 20
0.9977062047872032
 10
10.97779283802216
 20
0.9979077123776556
 10
10.97741721922206
 20
0.9981823971431768
 10
10.97714253445653
 20
0.9985486434972136
 10
10.97694102686608
 20
0.9990158238858212
 10
10.97683108086413
 20
0.9995655538955652
 10
10.97678530006988
 20
1.000215857461181
 10
10.97678530006988
 20
1.007131641223082
 10
10.97545693607913
 20
1.007131641223082
 10
10.97545693607913
 20
0.9999501846630355
 10
10.9755304737329
 20
0.9990983735069576
 10
10.97574099329072
 20
0.9983565083528287
 10
10.97608921571
 20
0.9977152167545787
 10
10.97655639609861
 20
0.9971838711582718
 10
10.97713316201047
 20
0.9967718440099916
 10
10.97782023440297
 20
0.9964694023849621
 10
10.97858985641661
 20
0.9962862792079437
 10
10.97945067954006
 20
0.9962221140002475
 10
10.98031186314221
 20
0.9962862792079437
 10
10.98108112467714
 20
0.9964694023849621
 10
10.98176819706965
 20
0.9967718440099916
 10
10.98234532346021
 20
0.9971838711582718
 10
10.98281250384882
 20
0.9977152167545787
 10
10.98315135382204
 20
0.9983565083528287
 10
10.98337124582592
 20
0.9990983735069576
 10
10.98344442300099
 20
0.9999501846630355
 10
10.98344442300099
 20
1.007131641223082
 97
        0
 92
        3
 72
     0
 73
     1
 93
        8
 10
10.9861007905038
 20
1.007131641223082
 10
10.9861007905038
 20
1.005803277232323
 10
10.98929751557028
 20
1.005803277232323
 10
10.98929751557028
 20
0.9964877867983992
 10
10.99062551908234
 20
0.9964877867983992
 10
10.99062551908234
 20
1.005803277232323
 10
10.99381323218145
 20
1.005803277232323
 10
10.99381323218145
 20
1.007131641223082
 97
        0
 92
        3
 72
     0
 73
     1
 93
       96
 10
10.99681782210354
 20
1.003568309323875
 10
10.99702834166137
 20
1.003046336173636
 10
10.99735817966722
 20
1.002633948546654
 10
10.99777957926158
 20
1.002295098573439
 10
10.99828316799837
 20
1.002029425775294
 10
10.99885128242155
 20
1.001827918184832
 10
11.00006933993166
 20
1.001507452625055
 10
11.00128775792046
 20
1.001232407380844
 10
11.00185551186495
 20
1.001077041063328
 10
11.00235946108044
 20
1.000875533472872
 10
11.0027805001961
 20
1.000627884609471
 10
11.00311033820194
 20
1.000307419049694
 10
11.00332121823847
 20
0.9999134158361495
 10
11.00339439541353
 20
0.9994188390667291
 10
11.0033392421732
 20
0.9989516586781246
 10
11.00316549144226
 20
0.9985670279106539
 10
11.00289981864411
 20
0.9982371899048085
 10
11.0025609686709
 20
0.9979808895527277
 10
11.00215795348998
 20
0.9977883939296417
 10
11.00170879703612
 20
0.9976604239929466
 10
11.00123260468014
 20
0.9975778743718166
 10
11.00073802791073
 20
0.9975504779910007
 10
11.00006933993166
 20
0.9975868863391829
 10
10.99948320157373
 20
0.9977062047872032
 10
10.99897925235825
 20
0.9979077123776556
 10
10.99853982882915
 20
0.9981823971431768
 10
10.99818259444249
 20
0.9985486434972136
 10
10.99788916478483
 20
0.9990158238858212
 10
10.997678645227
 20
0.9995655538955652
 10
10.99754130284424
 20
1.000215857461181
 10
10.99621293885349
 20
0.9999501846630355
 10
10.99630486092069
 20
0.9990251963318856
 10
10.99642381889002
 20
0.9986128087049101
 10
10.99657954568622
 20
0.998246562350876
 10
10.99678105327667
 20
0.9979077123776556
 10
10.99700995724794
 20
0.9975962587852537
 10
10.99757807167112
 20
0.997083297602393
 10
10.99824639917149
 20
0.9966986668349255
 10
10.99901602118513
 20
0.9964329940367734
 10
10.99984944792777
 20
0.9962772672405709
 10
11.00073802791073
 20
0.9962221140002475
 10
11.00151666189173
 20
0.9962772672405709
 10
11.00225852704587
 20
0.9964236215907059
 10
11.0029362269923
 20
0.9966892943888516
 10
11.0035317377963
 20
0.9970559012215804
 10
11.00402631456571
 20
0.9975320935775603
 10
11.00440193336581
 20
0.9981276043815542
 10
11.00453927574858
 20
0.9984754663221475
 10
11.00464020978315
 20
0.9988417126761752
 10
11.00472239892559
 20
0.9996845118648839
 10
11.00464922175053
 20
1.000408353084264
 10
11.0044387021927
 20
1.001003503409566
 10
11.00410886418685
 20
1.001480056244248
 10
11.00368746459249
 20
1.001855314565648
 10
11.00318351537701
 20
1.002148383744612
 10
11.00262477339989
 20
1.002377648194567
 10
11.00139770392241
 20
1.002707486200421
 10
11.0001792859336
 20
1.002972798519875
 10
10.9996205439565
 20
1.003128525316074
 10
10.99911659474101
 20
1.003312008971788
 10
10.99868618317928
 20
1.003549924910431
 10
10.99835634517344
 20
1.003852366535461
 10
10.9981458256156
 20
1.004246009270304
 10
10.99807264844055
 20
1.00474094651842
 10
10.99813681364824
 20
1.005098180905077
 10
10.9983015524118
 20
1.005391250084043
 10
10.99854884079652
 20
1.005629166022683
 10
10.9988693063563
 20
1.005803277232323
 10
10.9992449251564
 20
1.005922235201651
 10
10.9996479403373
 20
1.006004784822784
 10
11.00047235511257
 20
1.006068950030478
 10
11.00104046953575
 20
1.006041553649665
 10
11.00155307023992
 20
1.005959004028531
 10
11.00201123866115
 20
1.005812289199705
 10
11.00239586942862
 20
1.005601769641868
 10
11.00270732302103
 20
1.005308700462906
 10
11.0029362269923
 20
1.004942454108875
 10
11.00308294182112
 20
1.00448428568764
 10
11.00312872261538
 20
1.003934555677903
 10
11.00472239892559
 20
1.003934555677903
 10
11.00447511054088
 20
1.004777354866608
 10
11.00413626056767
 20
1.005491823639924
 10
11.00370584900593
 20
1.006087334443918
 10
11.00319288782308
 20
1.006563526799898
 10
11.00260674946515
 20
1.006930133632624
 10
11.00195644589952
 20
1.007195445952078
 10
11.00124197712621
 20
1.007342160780904
 10
11.00047235511257
 20
1.007396953542533
 10
10.9997762707527
 20
1.007351172748283
 10
10.99909857080626
 20
1.007195445952078
 10
10.99847566362145
 20
1.006948157567366
 10
10.99790754919827
 20
1.006600295626779
 10
10.99743135684229
 20
1.006151499651611
 10
10.99706511048825
 20
1.005601769641868
 10
10.99682683407093
 20
1.004951466076242
 10
10.99674428444979
 20
1.004200228476048
 97
        0
 92
        3
 72
     0
 73
     1
 93
       78
 10
11.00904598039237
 20
1.002679729340913
 10
11.00922910356939
 20
1.003485759702735
 10
11.00954055716179
 20
1.004209600922122
 10
11.00998034116958
 20
1.004832508106932
 10
11.0105390831467
 20
1.005354481257159
 10
11.01122579506051
 20
1.005739112024629
 10
11.0120411978684
 20
1.005977388441972
 10
11.01297555864561
 20
1.006068950030478
 10
11.0134791473824
 20
1.006032181203595
 10
11.01399210856527
 20
1.005913223234272
 10
11.01449605778075
 20
1.005730100057263
 10
11.01497225013673
 20
1.005464427259102
 10
11.01539364973109
 20
1.005134589253263
 10
11.01574187215038
 20
1.004722562104976
 10
11.01600718446983
 20
1.004236997302932
 10
11.01616291126603
 20
1.00366924335844
 10
11.01750028722415
 20
1.003934555677903
 10
11.017234614426
 20
1.004777354866608
 10
11.01686836807197
 20
1.005491823639924
 10
11.01639217571599
 20
1.006087334443918
 10
11.01583343373887
 20
1.006563526799898
 10
11.015201154108
 20
1.006930133632624
 10
11.01450506974812
 20
1.007195445952078
 10
11.01375419262662
 20
1.007342160780904
 10
11.01297555864561
 20
1.007396953542533
 10
11.01234327901474
 20
1.007369557161726
 10
11.01174812868944
 20
1.007287368019284
 10
11.01119839867969
 20
1.007159037603898
 10
11.01068543749683
 20
1.00697591442688
 10
11.01020924514086
 20
1.006746649976904
 10
11.00976946113305
 20
1.006471965211386
 10
11.00937581839821
 20
1.006151499651611
 10
11.00901858401156
 20
1.005803277232323
 10
11.00869775797309
 20
1.005409274018784
 10
11.00842307320756
 20
1.004978862457064
 10
11.00819416923629
 20
1.004521054514521
 10
11.00800167361321
 20
1.004026477745103
 10
11.00773600081507
 20
1.002963786552496
 10
11.00765381167262
 20
1.001809533771392
 10
11.00773600081507
 20
1.000655641468979
 10
11.00800167361321
 20
0.999592950276372
 10
11.00819416923629
 20
0.9990983735069576
 10
11.00842307320756
 20
0.9986402050857259
 10
11.00869775797309
 20
0.9982097935239926
 10
11.00901858401156
 20
0.9978161507891523
 10
11.00937581839821
 20
0.9974679283698733
 10
11.00976946113305
 20
0.9971474628100833
 10
11.01020924514086
 20
0.9968724175658731
 10
11.01068543749683
 20
0.9966435135946017
 10
11.01119839867969
 20
0.9964603904175865
 10
11.01174812868944
 20
0.9963320600021999
 10
11.01234327901474
 20
0.9962495103810634
 10
11.01297555864561
 20
0.9962221140002475
 10
11.01377221656136
 20
0.996295651654008
 10
11.014541838575
 20
0.9965151831792118
 10
11.01528370372913
 20
0.9968634055984944
 10
11.01597077612163
 20
0.9973489704005387
 10
11.016575298893
 20
0.9979625051392873
 10
11.01708826007587
 20
0.9986953583260493
 10
11.01749127525678
 20
0.9995287850686814
 10
11.0177659600223
 20
1.000481530259333
 10
11.01616291126603
 20
1.000481530259333
 10
11.01601655691589
 20
0.9998218542476434
 10
11.01577828049856
 20
0.9992357158897166
 10
11.01545781493878
 20
0.9987321271529208
 10
11.01507318417131
 20
0.9983197395259485
 10
11.01461501575007
 20
0.997989901520094
 10
11.01411142701328
 20
0.9977519855814498
 10
11.01356169700354
 20
0.9976052707526324
 10
11.01297555864561
 20
0.9975504779910007
 10
11.0120411978684
 20
0.9976326671334419
 10
11.01122579506051
 20
0.997879955518154
 10
11.0105390831467
 20
0.9982649467643169
 10
11.00998034116958
 20
0.9987869199145498
 10
11.00954055716179
 20
0.9994098270993628
 10
11.00922910356939
 20
1.000133307840051
 10
11.00904598039237
 20
1.00093933820187
 10
11.00898181518468
 20
1.001809533771392
 97
        0
 92
        3
 72
     0
 73
     1
 93
       12
 10
11.02095367312142
 20
0.9964877867983992
 10
11.02228167663347
 20
0.9964877867983992
 10
11.02228167663347
 20
1.001278548653786
 10
11.02786909640461
 20
1.001278548653786
 10
11.02786909640461
 20
0.9964877867983992
 10
11.02947214516089
 20
0.9964877867983992
 10
11.02947214516089
 20
1.007131641223082
 10
11.02786909640461
 20
1.007131641223082
 10
11.02786909640461
 20
1.002606552165844
 10
11.02228167663347
 20
1.002606552165844
 10
11.02228167663347
 20
1.007131641223082
 10
11.02095367312142
 20
1.007131641223082
 97
        0
 92
        3
 72
     0
 73
     1
 93
       12
 10
11.03292553105815
 20
0.9964877867983992
 10
11.04038131190502
 20
0.9964877867983992
 10
11.04038131190502
 20
0.9978161507891523
 10
11.03426290701627
 20
0.9978161507891523
 10
11.03426290701627
 20
1.001278548653786
 10
11.03957528154319
 20
1.001278548653786
 10
11.03957528154319
 20
1.002606552165844
 10
11.03426290701627
 20
1.002606552165844
 10
11.03426290701627
 20
1.005803277232323
 10
11.04038131190502
 20
1.005803277232323
 10
11.04038131190502
 20
1.007131641223082
 10
11.03292553105815
 20
1.007131641223082
 97
        0
 92
        3
 72
     0
 73
     1
 93
       90
 10
10.95563529408198
 20
0.9889216994708823
 10
10.95533321293563
 20
0.9892151291285386
 10
10.95525967528188
 20
0.989379867892114
 10
10.95524165134713
 20
0.9895723635151967
 10
10.95528743214138
 20
0.9898470482807243
 10
10.95541540207808
 20
0.9900759522519925
 10
10.95559888573379
 20
0.9902590754290049
 10
10.95583680167243
 20
0.9904057902578407
 10
10.95635913530136
 20
0.990579901467474
 10
10.95683532765734
 20
0.9906346942291121
 10
10.95762297360572
 20
0.990543132640606
 10
10.9580076043732
 20
0.9904241746712719
 10
10.95836483875986
 20
0.9902684478750785
 10
10.9590061303581
 20
0.9898470482807243
 10
10.95949169516014
 20
0.9893066907170506
 10
10.96162572903403
 20
0.9906346942291121
 10
10.96111276785117
 20
0.9911108865850861
 10
10.96058178273357
 20
0.9915322861794402
 10
10.96003205272383
 20
0.991889520566092
 10
10.95946429877934
 20
0.9922009741585034
 10
10.95887779994271
 20
0.9924392505758393
 10
10.95829166158479
 20
0.9926223737528544
 10
10.95769615078079
 20
0.9927233077874343
 10
10.95710100045549
 20
0.9927597161356171
 10
10.95623080488598
 20
0.9927139353413577
 10
10.95542477452415
 20
0.9925582085451552
 10
10.95470093330476
 20
0.9923019081930743
 10
10.95407802611995
 20
0.9919353013603514
 10
10.95355605296973
 20
0.991450097036999
 10
10.95317142220225
 20
0.9908545862329988
 10
10.95303407981949
 20
0.9905157362597871
 10
10.95292413381754
 20
0.9901401174596886
 10
10.95284158419641
 20
0.9893066907170506
 10
10.95289673743673
 20
0.988729564326488
 10
10.95305246423293
 20
0.9882072306975688
 10
10.95329975261764
 20
0.9877404107876537
 10
10.95363860259085
 20
0.9873280231606778
 10
10.95406000218521
 20
0.9869801612200845
 10
10.954563590922
 20
0.9867051159758681
 10
10.95514972927993
 20
0.9864945964180343
 10
10.95579102087817
 20
0.9863572540352747
 10
10.95792541523076
 20
0.9859174700274862
 10
10.95839259561936
 20
0.985807524025534
 10
10.95871306117914
 20
0.9856334128158942
 10
10.95890555680222
 20
0.9853954968772468
 10
10.95896034956385
 20
0.9850472744579647
 10
10.95891456876959
 20
0.9847632172463755
 10
10.95878623835421
 20
0.9845069168942914
 10
10.95858473076374
 20
0.984278012923026
 10
10.95832843041167
 20
0.9840855172999341
 10
10.95804437320007
 20
0.983929790503732
 10
10.9577239076403
 20
0.9838108325344188
 10
10.95710100045549
 20
0.9837192709459032
 10
10.95619403605909
 20
0.9838108325344188
 10
10.95580039332425
 20
0.983929790503732
 10
10.95543378649152
 20
0.9840855172999341
 10
10.9547834829259
 20
0.9845069168942914
 10
10.95416994818716
 20
0.9850472744579647
 10
10.95204456580196
 20
0.9839845832653636
 10
10.95263106463858
 20
0.9834352137343176
 10
10.95320819102912
 20
0.9829770453130859
 10
10.95376693300624
 20
0.9826107989590491
 10
10.9543436989181
 20
0.9823177297800813
 10
10.95492082530866
 20
0.9821068497435613
 10
10.95552534808002
 20
0.9819604953934296
 10
10.9561576277109
 20
0.9818779457722958
 10
10.95683532765734
 20
0.98185054939148
 10
10.95757719281148
 20
0.9818873182183606
 10
10.95836483875986
 20
0.9819878917742422
 10
10.95917086912167
 20
0.9821893993647008
 10
10.95993111868925
 20
0.9825192373705431
 10
10.96027934110853
 20
0.9827391293744417
 10
10.96059980666831
 20
0.9829954297265231
 10
10.9608838638799
 20
0.983297871351555
 10
10.96114052471068
 20
0.9836551057382071
 10
10.96134203230113
 20
0.9840487484730566
 10
10.96149775909733
 20
0.9845069168942914
 10
10.96158932068585
 20
0.985010505631084
 10
10.96162572903403
 20
0.9855786200542652
 10
10.96158932068585
 20
0.9860090316159895
 10
10.96148838665127
 20
0.9863936623834662
 10
10.96133265985506
 20
0.9867235003893111
 10
10.96113115226461
 20
0.9870165695682672
 10
10.96087485191252
 20
0.9872732303990492
 10
10.96059079470094
 20
0.9874927619242498
 10
10.9599130947545
 20
0.9878409843435356
 10
10.95915284518694
 20
0.9880792607608746
 10
10.9583468148251
 20
0.9882533719705202
 10
10.95683532765734
 20
0.9885096723226016
 10
10.95613924329747
 20
0.9886927954996136
 97
        0
 92
        3
 72
     0
 73
     1
 93
        8
 10
10.96801016719962
 20
0.9903690214309573
 10
10.97066653470243
 20
0.9903690214309573
 10
10.97066653470243
 20
0.9924940433374677
 10
10.96268842022663
 20
0.9924940433374677
 10
10.96268842022663
 20
0.9903690214309573
 10
10.96534478772944
 20
0.9903690214309573
 10
10.96534478772944
 20
0.9821252341570044
 10
10.96801016719962
 20
0.9821252341570044
 97
        0
 92
        3
 72
     0
 73
     1
 93
       12
 10
10.97253525625686
 20
0.9821252341570044
 10
10.98051337073266
 20
0.9821252341570044
 10
10.98051337073266
 20
0.9839845832653636
 10
10.97492595096152
 20
0.9839845832653636
 10
10.97492595096152
 20
0.9863752779700262
 10
10.97971635233821
 20
0.9863752779700262
 10
10.97971635233821
 20
0.9885096723226016
 10
10.97492595096152
 20
0.9885096723226016
 10
10.97492595096152
 20
0.9903690214309573
 10
10.97998202513636
 20
0.9903690214309573
 10
10.97998202513636
 20
0.9924940433374677
 10
10.97253525625686
 20
0.9924940433374677
 97
        0
 92
        3
 72
     0
 73
     1
 93
        4
 10
10.98237271984102
 20
0.9821252341570044
 10
10.9850380993112
 20
0.9821252341570044
 10
10.9850380993112
 20
0.9924940433374677
 10
10.98237271984102
 20
0.9924940433374677
 97
        0
 92
        3
 72
     0
 73
     1
 93
       10
 10
10.98982886116659
 20
0.9821252341570044
 10
10.98982886116659
 20
0.9885096723226016
 10
10.9935475593833
 20
0.9821252341570044
 10
10.99621293885349
 20
0.9821252341570044
 10
10.99621293885349
 20
0.9924940433374677
 10
10.99381323218145
 20
0.9924940433374677
 10
10.99381323218145
 20
0.9858442928524109
 10
10.99009453396474
 20
0.9924940433374677
 10
10.98742879401586
 20
0.9924940433374677
 10
10.98742879401586
 20
0.9821252341570044
 97
        0
 92
        3
 72
     0
 73
     1
 93
       10
 10
11.00712246607632
 20
0.9903690214309573
 10
11.00712246607632
 20
0.9924940433374677
 10
10.99860363355815
 20
0.9924940433374677
 10
10.99860363355815
 20
0.9903690214309573
 10
11.00392574100983
 20
0.9903690214309573
 10
10.99833832123869
 20
0.9839845832653636
 10
10.99833832123869
 20
0.9821252341570044
 10
11.00712246607632
 20
0.9821252341570044
 10
11.00712246607632
 20
0.9839845832653636
 10
11.00153504630517
 20
0.9839845832653636
 97
        0
 92
        3
 72
     0
 73
     1
 93
       12
 10
11.00924748798282
 20
0.9821252341570044
 10
11.017234614426
 20
0.9821252341570044
 10
11.017234614426
 20
0.9839845832653636
 10
11.01191286745301
 20
0.9839845832653636
 10
11.01191286745301
 20
0.9863752779700262
 10
11.01642858406417
 20
0.9863752779700262
 10
11.01642858406417
 20
0.9885096723226016
 10
11.01191286745301
 20
0.9885096723226016
 10
11.01191286745301
 20
0.9903690214309573
 10
11.01695992966048
 20
0.9903690214309573
 10
11.01695992966048
 20
0.9924940433374677
 10
11.00924748798282
 20
0.9924940433374677
 97
        0
 92
        3
 72
     0
 73
     1
 93
       42
 10
11.02175069151587
 20
0.9924940433374677
 10
11.01909432401306
 20
0.9924940433374677
 10
11.01909432401306
 20
0.9855786200542652
 10
11.01912172039387
 20
0.9851020672195937
 10
11.019204270015
 20
0.9846532712444264
 10
11.01933223995169
 20
0.9842502560635121
 10
11.01949733919396
 20
0.9838749977421057
 10
11.01996451958257
 20
0.9832337061438589
 10
11.02055966990787
 20
0.9827207449610014
 10
11.02124674230038
 20
0.9823361141935306
 10
11.02200699186795
 20
0.9820610689493078
 10
11.02281302222977
 20
0.9819053421531116
 10
11.0236190525916
 20
0.98185054939148
 10
11.02433352136491
 20
0.9819053421531116
 10
11.02506637455167
 20
0.9820610689493078
 10
11.02578084332498
 20
0.9823361141935306
 10
11.02644015885797
 20
0.9827207449610014
 10
11.02701728524854
 20
0.9832337061438589
 10
11.0274660812237
 20
0.9838749977421057
 10
11.02764019243334
 20
0.9842502560635121
 10
11.02776852284872
 20
0.9846532712444264
 10
11.02784170002381
 20
0.9851020672195937
 10
11.02786909640461
 20
0.9855786200542652
 10
11.02786909640461
 20
0.9924940433374677
 10
11.02547840169995
 20
0.9924940433374677
 10
11.02547840169995
 20
0.9858442928524109
 10
11.02545100531914
 20
0.9854502896388758
 10
11.02537782814407
 20
0.9850656588714019
 10
11.02524048576131
 20
0.9847084244847502
 10
11.02504799013823
 20
0.9843785864789052
 10
11.02479168978614
 20
0.9841129136807532
 10
11.02447086374767
 20
0.9839023941229216
 10
11.02407722101283
 20
0.9837650517401626
 10
11.0236190525916
 20
0.9837192709459032
 10
11.02315187220299
 20
0.9837650517401626
 10
11.02276724143552
 20
0.9839023941229216
 10
11.02244677587574
 20
0.9841129136807532
 10
11.02219011504496
 20
0.9843785864789052
 10
11.02198860745451
 20
0.9847084244847502
 10
11.02186027703912
 20
0.9850656588714019
 10
11.02177808789667
 20
0.9854502896388758
 10
11.02175069151587
 20
0.9858442928524109
 97
        0
 92
        3
 72
     0
 73
     1
 93
       75
 10
11.03007666793226
 20
0.9860274160294326
 10
11.03029655993615
 20
0.9850014936637117
 10
11.03047067114579
 20
0.9845253013077317
 10
11.03067217873625
 20
0.9840855172999341
 10
11.03091946712097
 20
0.9836825021190262
 10
11.03120352433255
 20
0.9833162557649957
 10
11.03187221231162
 20
0.9826933485801888
 10
11.03226585504646
 20
0.9824460601954798
 10
11.03269626660819
 20
0.982235180158954
 10
11.03316344699679
 20
0.982070441395379
 10
11.03366739621228
 20
0.9819511229473588
 10
11.03479389213387
 20
0.98185054939148
 10
11.03573762535716
 20
0.9819053421531116
 10
11.03655266768635
 20
0.9820888258088221
 10
11.03690990207302
 20
0.982235180158954
 10
11.03722135566542
 20
0.982418303335975
 10
11.03749604043095
 20
0.9826475677859299
 10
11.03771593243484
 20
0.9829222525514569
 10
11.03771593243484
 20
0.9821252341570044
 10
11.03985032678741
 20
0.9821252341570044
 10
11.03985032678741
 20
0.987712653928149
 10
11.03532523773018
 20
0.987712653928149
 10
11.03532523773018
 20
0.9858442928524109
 10
11.03745025963669
 20
0.9858442928524109
 10
11.03739546687506
 20
0.9853861244311793
 10
11.03723036763279
 20
0.9849924816963394
 10
11.03699245169414
 20
0.9846716556578695
 10
11.03669001006912
 20
0.9844153553057795
 10
11.0363511600959
 20
0.9842228596827054
 10
11.03599392570925
 20
0.9840855172999341
 10
11.03532523773018
 20
0.9839845832653636
 10
11.03467493416456
 20
0.9840397365056842
 10
11.03412520415482
 20
0.9842228596827054
 10
11.03365838424491
 20
0.9845069168942914
 10
11.03329177741218
 20
0.9848825356943867
 10
11.03301709264666
 20
0.985349716082997
 10
11.0328155850562
 20
0.9858900736466676
 10
11.03269626660819
 20
0.986503608385413
 10
11.03265985826
 20
0.9871722963644698
 10
11.03271465102163
 20
0.9880150955531781
 10
11.03285199340438
 20
0.988729564326488
 10
11.03308125785436
 20
0.9893247146517934
 10
11.03339271144675
 20
0.989801267486474
 10
11.03377734221423
 20
0.990167513840499
 10
11.03423515015676
 20
0.9904331866386505
 10
11.03474811133962
 20
0.9905889134348527
 10
11.03532523773018
 20
0.9906346942291121
 10
11.03606710288431
 20
0.990543132640606
 10
11.03640631333623
 20
0.9904241746712719
 10
11.03671740644993
 20
0.9902684478750785
 10
11.03726713645967
 20
0.9898470482807243
 10
11.03771593243484
 20
0.9893066907170506
 10
11.03985032678741
 20
0.9901033486328051
 10
11.039419554747
 20
0.990753652198428
 10
11.03894336239101
 20
0.991303382208172
 10
11.03842138924078
 20
0.9917615506294037
 10
11.0378532748176
 20
0.9921277969834346
 10
11.03723036763279
 20
0.9924118541950202
 10
11.03655266768635
 20
0.9926133617854789
 10
11.03582918694567
 20
0.9927233077874343
 10
11.03505956493204
 20
0.9927597161356171
 10
11.03442764577985
 20
0.9927323197548013
 10
11.03385051938929
 20
0.9926497701336612
 10
11.03331016182562
 20
0.9925218001969729
 10
11.03280621261013
 20
0.9923383165412688
 10
11.03234840466759
 20
0.9921094125699911
 10
11.03193601704061
 20
0.9918347278044726
 10
11.03156075871922
 20
0.9915232742120615
 10
11.03123092071337
 20
0.9911660398254099
 10
11.0309378515344
 20
0.9907720366118711
 10
11.03069056314969
 20
0.9903506370175201
 10
11.03047968311316
 20
0.9898838171076013
 10
11.03030557190353
 20
0.989398252305557
 10
11.03007666793226
 20
0.9883355611129555
 10
11.03000349075719
 20
0.9871722963644698
 97
        0
 92
       18
 72
     0
 73
     1
 93
       19
 10
10.95683532765734
 20
1.005803277232323
 10
10.95766875439998
 20
1.005730100057263
 10
10.9583832231733
 20
1.005510208053361
 10
10.9589787339773
 20
1.005171358080143
 10
10.95946429877934
 20
1.004704177691536
 10
10.95983054513337
 20
1.004127051300989
 10
10.96008684548545
 20
1.003439978908479
 10
10.96024257228165
 20
1.00267071737354
 10
10.96028835307591
 20
1.001809533771392
 10
10.96024257228165
 20
1.000948710647947
 10
10.96008684548545
 20
1.000179088634298
 10
10.95983054513337
 20
0.9994923767204901
 10
10.95946429877934
 20
0.998915250329942
 10
10.9589787339773
 20
0.9984480699413348
 10
10.9583832231733
 20
0.9981092199681143
 10
10.95766875439998
 20
0.9978893279642216
 10
10.95683532765734
 20
0.9978161507891523
 10
10.95443526050662
 20
0.9978161507891523
 10
10.95443526050662
 20
1.005803277232323
 97
        0
 75
     0
 76
     1
 98
        0
  0
HATCH
  5
83
330
1F
100
AcDbEntity
  8
XR$1$TB_313_1
  6
AUSGEZOGEN
 62
    18
420
        0
440
 33554687
370
    35
100
AcDbHatch
 10
0.0
 20
0.0
 30
0.0
210
0.0
220
0.0
230
1.0
  2
SOLID
 70
     1
 71
     0
 91
       20
 92
        3
 72
     0
 73
     1
 93
        8
 10
11.08614372174546
 20
1.006865968424924
 10
11.07629688571523
 20
0.9821252341570044
 10
11.07868758041989
 20
0.9821252341570044
 10
11.08161863268822
 20
0.9895723635151967
 10
11.09252815991105
 20
0.9895723635151967
 10
11.09518452741386
 20
0.9821252341570044
 10
11.09784990688405
 20
0.9821252341570044
 10
11.08826874365196
 20
1.006865968424924
 97
        0
 92
        3
 72
     0
 73
     1
 93
      116
 10
11.10077194718501
 20
0.9943627648918946
 10
11.10080835553319
 20
0.9953155100825466
 10
11.1008999171217
 20
0.9962772672405709
 10
11.1010556439179
 20
0.9972480363659743
 10
11.10128490836786
 20
0.9982007815566263
 10
11.10157797754683
 20
0.9991257698877702
 10
11.10193521193349
 20
1.000032734284169
 10
11.10236562349521
 20
1.000893557407623
 10
11.10286957271071
 20
1.001708960215513
 10
11.10344633862256
 20
1.002459837337008
 10
11.10408763022081
 20
1.003146909729514
 10
11.10480209899412
 20
1.003760804946949
 10
11.10559911738858
 20
1.004273766129809
 10
11.1064693129581
 20
1.004694805245468
 10
11.10742169767006
 20
1.005006258837873
 10
11.10844762003577
 20
1.005198754460956
 10
11.10955609202263
 20
1.005271931636025
 10
11.11087508356731
 20
1.005189742493584
 10
11.11205673272924
 20
1.004960478043617
 10
11.11259709029292
 20
1.004786727312676
 10
11.11310067902971
 20
1.004566835308774
 10
11.11356785941831
 20
1.004310174478001
 10
11.1140076434261
 20
1.004008093331663
 10
11.11479528937449
 20
1.003266228177535
 10
11.11546397735355
 20
1.002350251813763
 10
11.11602271933067
 20
1.001241779826908
 10
11.11647151530583
 20
0.9999501846630355
 10
11.11886221001049
 20
1.001278548653786
 10
11.11812034485636
 20
1.002689101786981
 10
11.11725952173291
 20
1.003916531743154
 10
11.11629776457488
 20
1.004969850489691
 10
11.11576641897858
 20
1.005427658432228
 10
11.11520767700146
 20
1.005830673613144
 10
11.11462153864354
 20
1.006197280445867
 10
11.11399863145873
 20
1.006508734038263
 10
11.11333895544703
 20
1.006783418803797
 10
11.11265188305454
 20
1.00700331080769
 10
11.11117716471365
 20
1.007296379986651
 10
11.10955609202263
 20
1.007396953542533
 10
11.10815455085681
 20
1.007323776367467
 10
11.10686295569294
 20
1.007113256809639
 10
11.1056539101502
 20
1.006765034390353
 10
11.10455481060942
 20
1.006297854001746
 10
11.10354727265714
 20
1.005711715643817
 10
11.10263129629336
 20
1.005024643251317
 10
11.1018068815181
 20
1.004246009270304
 10
11.10107402833134
 20
1.003375813700786
 10
11.10043273673309
 20
1.002423428988826
 10
11.09988336720204
 20
1.001406518590477
 10
11.09941618681344
 20
1.000334815430504
 10
11.09904056801334
 20
0.9991989470628396
 10
11.09874749883439
 20
0.9980356823143561
 10
11.09854599124392
 20
0.9968266367716142
 10
11.09841766082854
 20
0.9955992068154373
 10
11.09838125248035
 20
0.9943627648918946
 10
11.09841766082854
 20
0.9930253889337687
 10
11.09854599124392
 20
0.9917337937699021
 10
11.09874749883439
 20
0.9904883398789711
 10
11.09903155604596
 20
0.9892883063036106
 10
11.0993978024
 20
0.9881524379359403
 10
11.09985597082123
 20
0.9870807347759633
 10
11.10038695593883
 20
0.9860731968236888
 10
11.10100986312365
 20
0.9851482084925383
 10
11.10170594748352
 20
0.9843054093038299
 10
11.1024939539106
 20
0.9835541717036367
 10
11.10337316144749
 20
0.9829038681380107
 10
11.10432590663814
 20
0.9823451261609034
 10
11.10536985293861
 20
0.9819147145991733
 10
11.10650572130628
 20
0.9815848765933343
 10
11.10771476684902
 20
0.9813923809702483
 10
11.10902474642633
 20
0.9813192037951821
 10
11.11012384596712
 20
0.9813833690028759
 10
11.11123231795398
 20
0.9815758646259556
 10
11.11231303308132
 20
0.9818963301857362
 10
11.1133483278931
 20
0.9823541381282667
 10
11.11430071260506
 20
0.9829496489322669
 10
11.11516189620722
 20
0.9836825021190262
 10
11.11589474939397
 20
0.9845526976885385
 10
11.11619683054031
 20
0.9850472744579647
 10
11.11647151530583
 20
0.9855786200542652
 10
11.11647151530583
 20
0.9821252341570044
 10
11.11859653721235
 20
0.9821252341570044
 10
11.11859653721235
 20
0.9948941104881924
 10
11.10742169767006
 20
0.9948941104881924
 10
11.10742169767006
 20
0.9927597161356171
 10
11.11647151530583
 20
0.9927597161356171
 10
11.11647151530583
 20
0.9914317126235619
 10
11.11637094174995
 20
0.9900943366654329
 10
11.11605948815755
 20
0.988729564326488
 10
11.11581219977283
 20
0.9880518643800588
 10
11.11551913059388
 20
0.987392188368368
 10
11.11516189620722
 20
0.9867508967701215
 10
11.11474049661286
 20
0.9861463739987548
 10
11.11426430425688
 20
0.9855786200542652
 10
11.11371457424714
 20
0.9850656588714019
 10
11.11311005147577
 20
0.9846074904501703
 10
11.11243235152934
 20
0.9842138477153267
 10
11.11169012589651
 20
0.9838930216768572
 10
11.11086571112125
 20
0.9836551057382071
 10
11.10998650358435
 20
0.9834993789420104
 10
11.10902474642633
 20
0.9834535981477575
 10
11.10796205523373
 20
0.9835177633554477
 10
11.10699128610833
 20
0.9837098984998388
 10
11.10608432171192
 20
0.984021352092244
 10
11.10526026741536
 20
0.9844427516865921
 10
11.10451804178254
 20
0.9849647248368311
 10
11.10384034183609
 20
0.9855692476082009
 10
11.10323581906473
 20
0.9862563200006981
 10
11.10270447346844
 20
0.9870075576008944
 10
11.10223729307982
 20
0.9878225999300949
 10
11.10184365034498
 20
0.988683783532244
 10
11.10150443989306
 20
0.9895903874499509
 10
11.10123912757361
 20
0.9905247482271625
 10
11.10103761998316
 20
0.9914774934178059
 10
11.10089090515433
 20
0.9924392505758393
 10
11.10079934356581
 20
0.993401007733864
 97
        0
 92
        3
 72
     0
 73
     1
 93
       37
 10
11.12205893507697
 20
0.9821252341570044
 10
11.12444962978164
 20
0.9821252341570044
 10
11.12444962978164
 20
0.9930253889337687
 10
11.13003741003147
 20
0.9930253889337687
 10
11.13802453647464
 20
0.9821252341570044
 10
11.14094657677561
 20
0.9821252341570044
 10
11.13296846229981
 20
0.9930253889337687
 10
11.13457151105608
 20
0.9932268965242242
 10
11.13531337621021
 20
0.993401007733864
 10
11.13600008812402
 20
0.9936208997377626
 10
11.13664137972226
 20
0.993895584503287
 10
11.1372275180802
 20
0.9942160500630643
 10
11.13776823612256
 20
0.9945826568957873
 10
11.13825344044591
 20
0.9949946840440708
 10
11.13869322445371
 20
0.9954528524653056
 10
11.13906884325381
 20
0.9959564412020981
 10
11.13939868125966
 20
0.9965061712118423
 10
11.13966399357911
 20
0.997110693983209
 10
11.13987487361563
 20
0.9977519855814498
 10
11.14003060041183
 20
0.9984386974952673
 10
11.14012216200034
 20
0.9991715506820238
 10
11.14014955838115
 20
0.9999501846630355
 10
11.14004898482527
 20
1.001241779826908
 10
11.13973753123287
 20
1.002487594196522
 10
11.13949925481553
 20
1.003082744521827
 10
11.13921519760394
 20
1.003659870912375
 10
11.13885796321728
 20
1.004200228476048
 10
11.13845494803637
 20
1.004704177691536
 10
11.13798776764777
 20
1.005171358080143
 10
11.13746579449753
 20
1.00558338522843
 10
11.13687028369354
 20
1.005959004028531
 10
11.13621998012791
 20
1.00627045762093
 10
11.13550551135459
 20
1.006526757973017
 10
11.13472687737359
 20
1.006710241628725
 10
11.13388443866358
 20
1.006829199598043
 10
11.13296846229981
 20
1.006865968424924
 10
11.12205893507697
 20
1.006865968424924
 97
        0
 92
        3
 72
     0
 73
     1
 93
       64
 10
11.14190833393363
 20
0.991889520566092
 10
11.14211885349146
 20
0.9906898474694299
 10
11.14240291070306
 20
0.9895172102748757
 10
11.14277852950315
 20
0.9883907143532793
 10
11.14323633744569
 20
0.9873096387472347
 10
11.14377705548806
 20
0.9862930888275787
 10
11.14440897464023
 20
0.985349716082997
 10
11.14512344341355
 20
0.9844795205134788
 10
11.14592947377538
 20
0.9836915140863984
 10
11.14682706572571
 20
0.9830048021725907
 10
11.14780720729718
 20
0.9824276757820372
 10
11.14888792242453
 20
0.9819604953934296
 10
11.15005118717301
 20
0.9816122729741473
 10
11.15130637398869
 20
0.9813923809702483
 10
11.15264302898943
 20
0.9813192037951821
 10
11.15395300856674
 20
0.9813923809702483
 10
11.15517142655554
 20
0.9816122729741473
 10
11.15629792247715
 20
0.9819604953934296
 10
11.1573422292563
 20
0.9824276757820372
 10
11.15829461396827
 20
0.9830048021725907
 10
11.15917418198385
 20
0.9836915140863984
 10
11.15996182793224
 20
0.9844795205134788
 10
11.16065791229211
 20
0.985349716082997
 10
11.16128081947691
 20
0.9862930888275787
 10
11.16181216507323
 20
0.9873096387472347
 10
11.16226997301576
 20
0.9883907143532793
 10
11.16263657984849
 20
0.9895172102748757
 10
11.16292027658138
 20
0.9906898474694299
 10
11.1631311566179
 20
0.991889520566092
 10
11.16325011458722
 20
0.9931169505222688
 10
11.1632868834141
 20
0.9943627648918946
 10
11.16325011458722
 20
0.9955992068154373
 10
11.1631311566179
 20
0.9968266367716142
 10
11.16292027658138
 20
0.9980356823143561
 10
11.16263657984849
 20
0.9991989470628396
 10
11.16226997301576
 20
1.000334815430504
 10
11.16181216507323
 20
1.001406518590477
 10
11.16128081947691
 20
1.002423428988826
 10
11.16065791229211
 20
1.003375813700786
 10
11.15996182793224
 20
1.004246009270304
 10
11.15917418198385
 20
1.005024643251317
 10
11.15829461396827
 20
1.005711715643817
 10
11.1573422292563
 20
1.006297854001746
 10
11.15629792247715
 20
1.006765034390353
 10
11.15517142655554
 20
1.007113256809639
 10
11.15395300856674
 20
1.007323776367467
 10
11.15264302898943
 20
1.007396953542533
 10
11.15130637398869
 20
1.007323776367467
 10
11.15005118717301
 20
1.007113256809639
 10
11.14888792242453
 20
1.006765034390353
 10
11.14780720729718
 20
1.006297854001746
 10
11.14682706572571
 20
1.005711715643817
 10
11.14592947377538
 20
1.005024643251317
 10
11.14512344341355
 20
1.004246009270304
 10
11.14440897464023
 20
1.003375813700786
 10
11.14377705548806
 20
1.002423428988826
 10
11.14323633744569
 20
1.001406518590477
 10
11.14277852950315
 20
1.000334815430504
 10
11.14240291070306
 20
0.9991989470628396
 10
11.14211885349146
 20
0.9980356823143561
 10
11.14190833393363
 20
0.9968266367716142
 10
11.14178937596431
 20
0.9955992068154373
 10
11.14175260713743
 20
0.9943627648918946
 10
11.14178937596431
 20
0.9931169505222688
 97
        0
 92
        3
 72
     0
 73
     1
 93
       57
 10
11.17712710242657
 20
0.9821252341570044
 10
11.17813464037885
 20
0.982162002983885
 10
11.17906900115607
 20
0.9822625765397633
 10
11.17993919672558
 20
0.9824366877494094
 10
11.18072720315267
 20
0.9826749641667484
 10
11.18145068389335
 20
0.9829680333457099
 10
11.18210999942635
 20
0.9833162557649957
 10
11.18269649826297
 20
0.9837098984998388
 10
11.18320945944583
 20
0.9841496825076301
 10
11.18366726738837
 20
0.9846352473096781
 10
11.18405189815584
 20
0.9851482084925383
 10
11.18438173616169
 20
0.9856975780235876
 10
11.18464740895984
 20
0.9862747044141379
 10
11.18484891655029
 20
0.986870215218135
 10
11.18499563137912
 20
0.9874927619242498
 10
11.18507782052156
 20
0.9881250415551245
 10
11.18510521690238
 20
0.9887753451207473
 10
11.18503203972731
 20
0.9900301714577395
 10
11.18480313575604
 20
0.9911934362062194
 10
11.18462001257903
 20
0.9917431662159666
 10
11.1844091325425
 20
0.9922561273988267
 10
11.18414345974435
 20
0.9927413317221735
 10
11.18384137859801
 20
0.9931995001434084
 10
11.18349315617873
 20
0.9936115272916922
 10
11.18310852541126
 20
0.9939965185378579
 10
11.18266874140346
 20
0.9943443804784511
 10
11.18219254904748
 20
0.9946468221034839
 10
11.18166120345118
 20
0.9949124949016296
 10
11.18108407706062
 20
0.9951230144594665
 10
11.18046153035452
 20
0.9952971256690999
 10
11.17978346992938
 20
0.9954254560844956
 10
11.18090095388361
 20
0.995681756436577
 10
11.18138651868565
 20
0.9958648796135954
 10
11.18183531466082
 20
0.9960757596501216
 10
11.18262296060921
 20
0.9965793483869057
 10
11.18324586779402
 20
0.9972206399851584
 10
11.18372242062869
 20
0.9979808895527277
 10
11.18390554380571
 20
0.9984113011144545
 10
11.18405189815584
 20
0.998869469535683
 10
11.18424439377893
 20
0.9998770074879667
 10
11.18430855898662
 20
1.001012875855637
 10
11.18426277819237
 20
1.001644795007816
 10
11.18407965501535
 20
1.002487594196522
 10
11.18392392821914
 20
1.00295477458513
 10
11.18370403621525
 20
1.003449351354553
 10
11.18342899097104
 20
1.003943928123967
 10
11.18308112903044
 20
1.00443850489339
 10
11.18265071746872
 20
1.00491469724937
 10
11.18213775628586
 20
1.005363493224538
 10
11.1815332335145
 20
1.005775880851513
 10
11.18082777670854
 20
1.006133115238171
 10
11.18001273437935
 20
1.006435196384511
 10
11.17908738556951
 20
1.006664460834475
 10
11.17804307879035
 20
1.006810815184604
 10
11.17686142962843
 20
1.006865968424924
 10
11.16621793568244
 20
1.006865968424924
 10
11.16621793568244
 20
0.9821252341570044
 97
        0
 92
        3
 72
     0
 73
     1
 93
       56
 10
11.19309270382425
 20
0.9821252341570044
 10
11.20426754336653
 20
0.9821252341570044
 10
11.2065299076558
 20
0.9822077837781381
 10
11.2075652024676
 20
0.9823267417474632
 10
11.20853597159298
 20
0.9824918409897301
 10
11.20943356354332
 20
0.9827113725149311
 10
11.21026735076465
 20
0.9829770453130859
 10
11.21102760033222
 20
0.983297871351555
 10
11.21171467272472
 20
0.9836825021190262
 10
11.21232820746347
 20
0.984122286126818
 10
11.21285955305977
 20
0.9846258748636137
 10
11.21331736100231
 20
0.9851939892867949
 10
11.2136929798024
 20
0.9858259084389802
 10
11.21398604898137
 20
0.9865219927988528
 10
11.2141969290179
 20
0.9872912543337975
 10
11.21433427140065
 20
0.9881250415551245
 10
11.21437067974884
 20
0.9890410179189021
 10
11.21434328336803
 20
0.9897097058979616
 10
11.21425172177952
 20
0.9903416250501473
 10
11.21410536742938
 20
0.990918751440695
 10
11.21390385983893
 20
0.991450097036999
 10
11.21365621097553
 20
0.9919353013603514
 10
11.21336314179656
 20
0.99237508536814
 10
11.21302429182334
 20
0.9927690885816814
 10
11.21264867302324
 20
0.9931263229683427
 10
11.21222727342889
 20
0.9934467885281137
 10
11.21177847745373
 20
0.9937214732936446
 10
11.21129327313038
 20
0.9939597497109771
 10
11.21078031194751
 20
0.9941612573014359
 10
11.2096902243741
 20
0.9944636989264622
 10
11.20851758717954
 20
0.994628437690043
 10
11.20851758717954
 20
0.9948941104881924
 10
11.20965345554721
 20
0.9952329604614097
 10
11.2106609934995
 20
0.9956543600557579
 10
11.21152217710164
 20
0.9961673212386213
 10
11.21224565784233
 20
0.9967902284234315
 10
11.21281377226551
 20
0.997522721131496
 10
11.21304267623678
 20
0.9979257363124039
 10
11.21323517185987
 20
0.9983748927662628
 10
11.21349147221195
 20
0.9993546738590416
 10
11.21357402183309
 20
1.000481530259333
 10
11.21353725300621
 20
1.001296572588531
 10
11.21341829503688
 20
1.002047810188728
 10
11.2132257994138
 20
1.002743894548606
 10
11.21296012661565
 20
1.003385186146853
 10
11.2126306490885
 20
1.003962312537407
 10
11.21222727342889
 20
1.00448428568764
 10
11.21176946548635
 20
1.004951466076242
 10
11.21124749233613
 20
1.005363493224538
 10
11.21067036594556
 20
1.005730100057263
 10
11.21003844679339
 20
1.006041553649665
 10
11.20936038636825
 20
1.006297854001746
 10
11.20863690562757
 20
1.006499361592202
 10
11.20706125325211
 20
1.006774406836421
 10
11.20533023455913
 20
1.006865968424924
 10
11.19309270382425
 20
1.006865968424924
 97
        0
 92
        3
 72
     0
 73
     1
 93
       58
 10
11.21863009600792
 20
0.9906346942291121
 10
11.21869426121562
 20
0.9894346606537392
 10
11.21887738439264
 20
0.9883265491455832
 10
11.21917982601766
 20
0.9873096387472347
 10
11.21958284119858
 20
0.9863752779700262
 10
11.220077417968
 20
0.9855234668139446
 10
11.22065454435855
 20
0.9847632172463755
 10
11.22130484792418
 20
0.9840855172999341
 10
11.22201931669749
 20
0.9834809945285733
 10
11.2227979506785
 20
0.9829590213783345
 10
11.22362236545377
 20
0.9825192373705431
 10
11.22447417660984
 20
0.9821436185704415
 10
11.22536239611411
 20
0.9818415374241135
 10
11.22626936051052
 20
0.9816122729741473
 10
11.22718533687429
 20
0.9814475342105689
 10
11.22810131323805
 20
0.9813559726220629
 10
11.22900827763445
 20
0.9813192037951821
 10
11.22991488155216
 20
0.9813559726220629
 10
11.23083085791593
 20
0.9814475342105689
 10
11.2317468342797
 20
0.9816122729741473
 10
11.23264442623003
 20
0.9818415374241135
 10
11.23353300621299
 20
0.9821436185704415
 10
11.23439418981515
 20
0.9825192373705431
 10
11.23521860459041
 20
0.9829590213783345
 10
11.23598786612534
 20
0.9834809945285733
 10
11.23671134686604
 20
0.9840855172999341
 10
11.23736201091036
 20
0.9847632172463755
 10
11.23793877682221
 20
0.9855234668139446
 10
11.23843371407033
 20
0.9863752779700262
 10
11.23883672925125
 20
0.9873096387472347
 10
11.23913881039758
 20
0.9883265491455832
 10
11.23932193357459
 20
0.9894346606537392
 10
11.23938609878229
 20
0.9906346942291121
 10
11.23938609878229
 20
1.006865968424924
 10
11.23326733341485
 20
1.006865968424924
 10
11.23326733341485
 20
0.9911660398254099
 10
11.23321254065322
 20
0.9901949102213176
 10
11.23304744141095
 20
0.9892973182709802
 10
11.23276374467805
 20
0.9884822759417825
 10
11.23233297263763
 20
0.9877768191358359
 10
11.23175620672577
 20
0.987190680777916
 10
11.23140798430648
 20
0.9869524043605797
 10
11.23102335353902
 20
0.9867508967701215
 10
11.23058356953122
 20
0.9865951699739189
 10
11.23010737717524
 20
0.9864762120045967
 10
11.22900827763445
 20
0.9863752779700262
 10
11.22790881761497
 20
0.9864762120045967
 10
11.22743262525899
 20
0.9865951699739189
 10
11.2269928412512
 20
0.9867508967701215
 10
11.22660821048373
 20
0.9869524043605797
 10
11.22626034854313
 20
0.987190680777916
 10
11.22568322215258
 20
0.9877768191358359
 10
11.22525281059086
 20
0.9884822759417825
 10
11.22496875337926
 20
0.9892973182709802
 10
11.224803654137
 20
0.9901949102213176
 10
11.22474886137537
 20
0.9911660398254099
 10
11.22474886137537
 20
1.006865968424924
 10
11.21863009600792
 20
1.006865968424924
 97
        0
 92
        3
 72
     0
 73
     1
 93
      105
 10
11.24976428040882
 20
0.9943627648918946
 10
11.24979167678964
 20
0.9953703028441724
 10
11.24988323837813
 20
0.9963046636213808
 10
11.25002995320696
 20
0.9971748591908991
 10
11.25023146079742
 20
0.9979625051392873
 10
11.25047874918213
 20
0.9986863463586706
 10
11.25078083032848
 20
0.9993366499242875
 10
11.25112905274776
 20
0.999922788282217
 10
11.2515226954826
 20
1.000444761432456
 10
11.25195346752303
 20
1.000902929853688
 10
11.25242064791163
 20
1.001287560621162
 10
11.25292423664842
 20
1.001617398627007
 10
11.25346459421209
 20
1.001883071425155
 10
11.25403270863528
 20
1.002084579015614
 10
11.25462785896059
 20
1.002230933365743
 10
11.25524175417801
 20
1.00231348298688
 10
11.25588304577626
 20
1.002340879367698
 10
11.25667970369201
 20
1.002267702192623
 10
11.25745833767303
 20
1.002056822156097
 10
11.25820020282715
 20
1.001727344628953
 10
11.2589056596331
 20
1.001278548653786
 10
11.25954695123135
 20
1.000728818644045
 10
11.26010569320847
 20
1.000096899491859
 10
11.26057251311837
 20
0.999391442685922
 10
11.2609391199511
 20
0.9986128087049101
 10
11.26598618215858
 20
1.001012875855637
 10
11.26505182138136
 20
1.002432440956205
 10
11.26403491098301
 20
1.003696639739262
 10
11.26291742702879
 20
1.004786727312676
 10
11.26232227670349
 20
1.005262919668656
 10
11.26169936951867
 20
1.005702703676444
 10
11.26104906595305
 20
1.006087334443918
 10
11.26037100552792
 20
1.006426184417139
 10
11.2596565367546
 20
1.0067192535961
 10
11.25891467160048
 20
1.006957530013439
 10
11.25814541006553
 20
1.007149665157824
 10
11.2573393797037
 20
1.007287368019284
 10
11.25649658051501
 20
1.007369557161726
 10
11.25561737297812
 20
1.007396953542533
 10
11.25420681984492
 20
1.007323776367467
 10
11.25288746782154
 20
1.007122268777011
 10
11.25164201393062
 20
1.006783418803797
 10
11.25048776114951
 20
1.006334622828633
 10
11.24941605798954
 20
1.005766508405445
 10
11.24843591641806
 20
1.005098180905077
 10
11.24753832446773
 20
1.004328558891444
 10
11.2467322941059
 20
1.003476747735363
 10
11.24601782533259
 20
1.002533374990772
 10
11.24539491814778
 20
1.001525837038495
 10
11.24486357255148
 20
1.000444761432456
 10
11.24442414902239
 20
0.9993182655108503
 10
11.24408493857047
 20
0.9981276043815542
 10
11.24383765018576
 20
0.9969091863927534
 10
11.24369129583563
 20
0.9956449876096968
 10
11.2436361425953
 20
0.9943627648918946
 10
11.24369129583563
 20
0.9930711697280217
 10
11.24384702263183
 20
0.9918163433910263
 10
11.24411269542998
 20
0.9905889134348527
 10
11.24446992981664
 20
0.9894072642729298
 10
11.24493711020524
 20
0.9882713959052589
 10
11.24549585218237
 20
0.987190680777916
 10
11.24614615574799
 20
0.9861831428256351
 10
11.24689703286948
 20
0.9852487820484176
 10
11.24774884402556
 20
0.9843879589249728
 10
11.24868320480277
 20
0.9836273488787024
 10
11.2497091271685
 20
0.9829496489322669
 10
11.25082661112272
 20
0.9823909069551564
 10
11.25202664469809
 20
0.9819330990126164
 10
11.25331823986196
 20
0.9816032610067714
 10
11.25469202416827
 20
0.9813923809702483
 10
11.25614835809572
 20
0.9813192037951821
 10
11.25689058372854
 20
0.9813466001759921
 10
11.2576230764366
 20
0.981429149797129
 10
11.25907039839668
 20
0.981758987802974
 10
11.25976648275656
 20
0.981996903741615
 10
11.26045355514906
 20
0.9822903333992776
 10
11.26112224312811
 20
0.9826291833724927
 10
11.26176353472637
 20
0.9830228261073357
 10
11.26299096468255
 20
0.983929790503732
 10
11.26411746060415
 20
0.9850288900445212
 10
11.26511598658906
 20
0.9862837163815139
 10
11.26557379453159
 20
0.9869801612200845
 10
11.26598618215858
 20
0.987712653928149
 10
11.26120479274925
 20
0.9901033486328051
 10
11.26074662432803
 20
0.9892699218901703
 10
11.26018788235091
 20
0.9885554531168513
 10
11.25955596319873
 20
0.9879599423128543
 10
11.25886889080622
 20
0.987474737989508
 10
11.25816379447897
 20
0.9871081311567823
 10
11.25745833767303
 20
0.9868518308046978
 10
11.25678063772659
 20
0.9866961040084953
 10
11.25614835809572
 20
0.9866409507681719
 10
11.25524175417801
 20
0.9866961040084953
 10
11.25441733940275
 20
0.9868334463912547
 10
11.25367547424861
 20
0.9870623503625261
 10
11.25301579823693
 20
0.9873647919875557
 10
11.25242064791163
 20
0.9877404107876537
 10
11.25190768672877
 20
0.9881708223493806
 10
11.25144951830753
 20
0.9886653991188041
 10
11.25105551509399
 20
0.9892057566824742
 10
11.25072603756685
 20
0.989782883073031
 10
11.25045099232262
 20
0.9903964178117703
 10
11.25022208835136
 20
0.9910377094100205
 10
11.25004797714171
 20
0.9916973854217076
 10
11.24982844561651
 20
0.9930347613798304
 97
        0
 92
        3
 72
     0
 73
     1
 93
       12
 10
11.26944858002321
 20
0.9821252341570044
 10
11.27556734539065
 20
0.9821252341570044
 10
11.27556734539065
 20
0.9924940433374677
 10
11.28488283582458
 20
0.9924940433374677
 10
11.28488283582458
 20
0.9821252341570044
 10
11.29100124071332
 20
0.9821252341570044
 10
11.29100124071332
 20
1.006865968424924
 10
11.28488283582458
 20
1.006865968424924
 10
11.28488283582458
 20
0.9978161507891523
 10
11.27556734539065
 20
0.9978161507891523
 10
11.27556734539065
 20
1.006865968424924
 10
11.26944858002321
 20
1.006865968424924
 97
        0
 92
        3
 72
     0
 73
     1
 93
        8
 10
11.306966842111
 20
1.002075206569541
 10
11.31335128027658
 20
1.002075206569541
 10
11.31335128027658
 20
1.006865968424924
 10
11.29418895381244
 20
1.006865968424924
 10
11.29418895381244
 20
1.002075206569541
 10
11.30084807674355
 20
1.002075206569541
 10
11.30084807674355
 20
0.9821252341570044
 10
11.306966842111
 20
0.9821252341570044
 97
        0
 92
        3
 72
     0
 73
     1
 93
        8
 10
11.31148255872216
 20
0.9821252341570044
 10
11.31814168165328
 20
0.9821252341570044
 10
11.31947004564403
 20
0.9858442928524109
 10
11.32851049083374
 20
0.9858442928524109
 10
11.32984786679186
 20
0.9821252341570044
 10
11.3364979777556
 20
0.9821252341570044
 10
11.32718248732169
 20
1.006865968424924
 10
11.32079804915609
 20
1.006865968424924
 97
        0
 92
        3
 72
     0
 73
     1
 93
        6
 10
11.33915434525842
 20
0.9821252341570044
 10
11.3551195861774
 20
0.9821252341570044
 10
11.3551195861774
 20
0.9871722963644698
 10
11.34553878342401
 20
0.9871722963644698
 10
11.34553878342401
 20
1.006865968424924
 10
11.33915434525842
 20
1.006865968424924
 97
        0
 92
       18
 72
     0
 73
     1
 93
        3
 10
11.08720605245937
 20
1.00366924335844
 10
11.0917311415166
 20
0.9914317126235619
 10
11.08241565108267
 20
0.9914317126235619
 97
        0
 92
       18
 72
     0
 73
     1
 93
       29
 10
11.13217144390536
 20
1.004465901274203
 10
11.13364616224623
 20
1.004392724099134
 10
11.13488260416979
 20
1.004172832095242
 10
11.13541394976609
 20
1.004008093331663
 10
11.13589050260076
 20
1.003806585741211
 10
11.13632091416249
 20
1.003577321291241
 10
11.13669653296259
 20
1.003302636525717
 10
11.13701699852237
 20
1.003000555379389
 10
11.13729168328788
 20
1.002661344927467
 10
11.13752094773785
 20
1.002295098573439
 10
11.13770407091486
 20
1.001892083392531
 10
11.13794198685351
 20
1.000985118996129
 10
11.13802453647464
 20
0.9999501846630355
 10
11.13796037126695
 20
0.9990525927127014
 10
11.13774047926305
 20
0.9981914091105555
 10
11.13756672853211
 20
0.9977793819622689
 10
11.13734683652821
 20
0.997376366781361
 10
11.13708116373006
 20
0.9970007479812594
 10
11.13676069817028
 20
0.9966525255619713
 10
11.13638507937019
 20
0.9963320600021999
 10
11.13594529536238
 20
0.9960389908232351
 10
11.1354413461469
 20
0.9957826904711538
 10
11.13488260416979
 20
0.9955718104346306
 10
11.1342506850176
 20
0.995397699224985
 10
11.13354558869036
 20
0.9952697292882904
 10
11.13275758226328
 20
0.995187179667154
 10
11.1319057711072
 20
0.9951597832863381
 10
11.12444962978164
 20
0.9951597832863381
 10
11.12444962978164
 20
1.004465901274203
 97
        0
 92
       18
 72
     0
 73
     1
 93
       64
 10
11.1441706982229
 20
0.9953155100825466
 10
11.14427163225748
 20
0.9962772672405709
 10
11.14442735905368
 20
0.9972480363659743
 10
11.14464725105758
 20
0.9982007815566263
 10
11.14494032023654
 20
0.9991257698877702
 10
11.1452975546232
 20
1.000032734284169
 10
11.14571859373886
 20
1.000893557407623
 10
11.1462041585409
 20
1.001708960215513
 10
11.14676290051802
 20
1.002459837337008
 10
11.1473951801489
 20
1.003146909729514
 10
11.14809126450877
 20
1.003760804946949
 10
11.14886052604371
 20
1.004273766129809
 10
11.14969395278635
 20
1.004694805245468
 10
11.15060992915012
 20
1.005006258837873
 10
11.15158971024289
 20
1.005198754460956
 10
11.15264302898943
 20
1.005271931636025
 10
11.15370572018203
 20
1.005198754460956
 10
11.15468586175349
 20
1.005006258837873
 10
11.15558345370382
 20
1.004694805245468
 10
11.15640786847909
 20
1.004273766129809
 10
11.15714973363322
 20
1.003760804946949
 10
11.15782779405835
 20
1.003146909729514
 10
11.15843231682972
 20
1.002459837337008
 10
11.15896330194733
 20
1.001708960215513
 10
11.15943048233593
 20
1.000893557407623
 10
11.15982448554947
 20
1.000032734284169
 10
11.16016333552268
 20
0.9991257698877702
 10
11.16042900832085
 20
0.9982007815566263
 10
11.16063952787867
 20
0.9972480363659743
 10
11.16077723074013
 20
0.9962772672405709
 10
11.16086879232863
 20
0.9953155100825466
 10
11.16089618870945
 20
0.9943627648918946
 10
11.16086879232863
 20
0.993401007733864
 10
11.16077723074013
 20
0.9924392505758393
 10
11.16063952787867
 20
0.9914774934178059
 10
11.16042900832085
 20
0.9905247482271625
 10
11.16016333552268
 20
0.9895903874499509
 10
11.15982448554947
 20
0.988683783532244
 10
11.15943048233593
 20
0.9878225999300949
 10
11.15896330194733
 20
0.9870075576008944
 10
11.15843231682972
 20
0.9862563200006981
 10
11.15782779405835
 20
0.9855692476082009
 10
11.15714973363322
 20
0.9849647248368311
 10
11.15640786847909
 20
0.9844427516865921
 10
11.15558345370382
 20
0.984021352092244
 10
11.15468586175349
 20
0.9837098984998388
 10
11.15370572018203
 20
0.9835177633554477
 10
11.15264302898943
 20
0.9834535981477575
 10
11.15158971024289
 20
0.9835177633554477
 10
11.15060992915012
 20
0.9837098984998388
 10
11.14969395278635
 20
0.984021352092244
 10
11.14886052604371
 20
0.9844427516865921
 10
11.14809126450877
 20
0.9849647248368311
 10
11.1473951801489
 20
0.9855692476082009
 10
11.14676290051802
 20
0.9862563200006981
 10
11.1462041585409
 20
0.9870075576008944
 10
11.14571859373886
 20
0.9878225999300949
 10
11.1452975546232
 20
0.988683783532244
 10
11.14494032023654
 20
0.9895903874499509
 10
11.14464725105758
 20
0.9905247482271625
 10
11.14442735905368
 20
0.9914774934178059
 10
11.14427163225748
 20
0.9924392505758393
 10
11.1441706982229
 20
0.993401007733864
 10
11.14414330184209
 20
0.9943627648918946
 97
        0
 92
       18
 72
     0
 73
     1
 93
       26
 10
11.17633044451081
 20
1.004465901274203
 10
11.17764006360943
 20
1.004429492926014
 10
11.17876692000973
 20
1.004291790064554
 10
11.17972867716776
 20
1.00405387412592
 10
11.18015007676212
 20
1.003879762916274
 10
11.18051632311614
 20
1.00366924335844
 10
11.18084616112199
 20
1.003430966941103
 10
11.18113021833357
 20
1.003146909729514
 10
11.18136813427222
 20
1.002817071723673
 10
11.1815606298953
 20
1.002450825369642
 10
11.1817163566915
 20
1.002029425775294
 10
11.18182630269346
 20
1.001571617832751
 10
11.18191786428197
 20
1.000481530259333
 10
11.18181693024738
 20
0.9995287850686814
 10
11.18169797227806
 20
0.9990983735069576
 10
11.18152386106842
 20
0.9986953583260493
 10
11.18131334151059
 20
0.9983107275585758
 10
11.18105668067981
 20
0.9979625051392873
 10
11.18041574956026
 20
0.9973489704005387
 10
11.1796187311658
 20
0.9968634055984944
 10
11.17915155077721
 20
0.9966709099754116
 10
11.17865697400778
 20
0.9965151831792118
 10
11.17755787446699
 20
0.996295651654008
 10
11.17633044451081
 20
0.9962221140002475
 10
11.16860863038709
 20
0.9962221140002475
 10
11.16860863038709
 20
1.004465901274203
 97
        0
 92
       18
 72
     0
 73
     1
 93
       28
 10
11.17633044451081
 20
0.9940970920937366
 10
11.17782354726515
 20
0.9939965185378579
 10
11.17912415439639
 20
0.9937124613262686
 10
11.17969190834087
 20
0.9935015812897428
 10
11.1802142419698
 20
0.9932542929050342
 10
11.18069043432579
 20
0.9929612237260727
 10
11.18111183392013
 20
0.992631746198922
 10
11.18148745272023
 20
0.9922651393661936
 10
11.18181693024738
 20
0.9918621241852825
 10
11.1820919754916
 20
0.9914223401774848
 10
11.1823115070168
 20
0.9909551597888867
 10
11.18248561822645
 20
0.9904515710520909
 10
11.18261394864184
 20
0.9899202254557932
 10
11.18271452219771
 20
0.9887753451207473
 10
11.18263233305528
 20
0.9879693147589219
 10
11.18240342908401
 20
0.9871722963644698
 10
11.18200005342439
 20
0.9864030348295277
 10
11.18141391506647
 20
0.9857159624370279
 10
11.18105668067981
 20
0.9854045088446228
 10
11.18064465353153
 20
0.9851204516330335
 10
11.1801864851103
 20
0.9848731632483191
 10
11.1796828963735
 20
0.9846532712444264
 10
11.17912415439639
 20
0.9844885324808511
 10
11.17851025917896
 20
0.9843602020654644
 10
11.17784157119989
 20
0.984278012923026
 10
11.17712710242657
 20
0.9842502560635121
 10
11.16860863038709
 20
0.9842502560635121
 10
11.16860863038709
 20
0.9940970920937366
 97
        0
 92
       18
 72
     0
 73
     1
 93
       19
 10
11.20426754336653
 20
1.002075206569541
 10
11.20493623134559
 20
1.002047810188728
 10
11.20555012656303
 20
1.001965260567594
 10
11.2060904841267
 20
1.001809533771392
 10
11.20655766451531
 20
1.001580629800126
 10
11.20693328331541
 20
1.001260164240346
 10
11.20721698004831
 20
1.000838764645992
 10
11.20739109125795
 20
1.00031643101706
 10
11.20745525646564
 20
0.9996845118648839
 10
11.20739109125795
 20
0.9990342082992643
 10
11.20721698004831
 20
0.9984754663221475
 10
11.20693328331541
 20
0.9980176583796079
 10
11.20655766451531
 20
0.997651051546879
 10
11.2060904841267
 20
0.9973669943352934
 10
11.20555012656303
 20
0.9971748591908991
 10
11.20493623134559
 20
0.9970559012215804
 10
11.20426754336653
 20
0.9970191323947002
 10
11.19894579639355
 20
0.9970191323947002
 10
11.19894579639355
 20
1.002075206569541
 97
        0
 92
       18
 72
     0
 73
     1
 93
       19
 10
11.20533023455913
 20
0.9924940433374677
 10
11.20606308774589
 20
0.992448262543212
 10
11.206685634452
 20
0.9923019081930743
 10
11.20718958366749
 20
0.9920636317757408
 10
11.2075925988484
 20
0.9917337937699021
 10
11.20788566802736
 20
0.9913123941755416
 10
11.20809654806389
 20
0.9908178174061241
 10
11.2082155060332
 20
0.9902316790481919
 10
11.20825227486009
 20
0.9895723635151967
 10
11.2082155060332
 20
0.9889858646785815
 10
11.20807816365044
 20
0.9884364951475291
 10
11.20783087526574
 20
0.9879419183781093
 10
11.20745525646564
 20
0.9875111463376902
 10
11.20693328331541
 20
0.9871448999836594
 10
11.20623683847684
 20
0.9868792271855077
 10
11.20534861897257
 20
0.9867051159758681
 10
11.20426754336653
 20
0.9866409507681719
 10
11.19921146919169
 20
0.9866409507681719
 10
11.19921146919169
 20
0.9924940433374677
 97
        0
 92
       18
 72
     0
 73
     1
 93
        3
 10
11.32399477422257
 20
1.000747203057486
 10
11.32691681452353
 20
0.9903690214309573
 10
11.32079804915609
 20
0.9903690214309573
 97
        0
 75
     0
 76
     1
 98
        0
  0
HATCH
  5
85
102
{ACAD_REACTORS
330
84
102
}
330
1F
100
AcDbEntity
  8
XR$1$TB_313_1
  6
AUSGEZOGEN
 62
     3
440
 33554687
370
    35
100
AcDbHatch
 10
0.0
 20
0.0
 30
0.0
210
0.0
220
0.0
230
1.0
  2
SOLID
 70
     1
 71
     0
 91
        1
 92
        3
 72
     0
 73
     1
 93
       22
 10
11.04729709566692
 20
0.98185054939148
 10
11.06246567867014
 20
0.98185054939148
 10
11.06118345595233
 20
0.9826933485801888
 10
11.05993764158272
 20
0.9836093249439574
 10
11.05873760800735
 20
0.9846168628962377
 10
11.05760173963968
 20
0.9857159624370279
 10
11.05654842089316
 20
0.9869066235663235
 10
11.05557765176775
 20
0.9882166031436364
 10
11.05470745619824
 20
0.9896361682442012
 10
11.05394720663066
 20
0.9911660398254099
 10
11.05348002624206
 20
0.9921645658103116
 10
11.05307701106114
 20
0.9931721037625894
 10
11.05272878864185
 20
0.9941796417148763
 10
11.0524357194629
 20
0.995187179667154
 10
11.05203270428198
 20
0.9972116280177797
 10
11.05184958110496
 20
0.9992173314762768
 10
11.05188598945316
 20
1.001195999032652
 10
11.05211525390312
 20
1.003137897762148
 10
11.05253665349747
 20
1.005034015697384
 10
11.05282035023037
 20
1.005959004028531
 10
11.05315018823621
 20
1.006865968424924
 10
11.04729709566692
 20
1.006865968424924
 97
        0
 75
     0
 76
     1
 98
        0
  0
HATCH
  5
86
102
{ACAD_REACTORS
330
84
102
}
330
1F
100
AcDbEntity
  8
XR$1$TB_313_1
  6
AUSGEZOGEN
 62
     3
440
 33554687
370
    35
100
AcDbHatch
 10
0.0
 20
0.0
 30
0.0
210
0.0
220
0.0
230
1.0
  2
SOLID
 70
     1
 71
     0
 91
        1
 92
        3
 72
     0
 73
     1
 93
       24
 10
11.05986446440765
 20
0.9855692476082009
 10
11.06107350995038
 20
0.9844517636539708
 10
11.06240151346244
 20
0.9834442257016899
 10
11.06383946297645
 20
0.9825834025782424
 10
11.0653877189711
 20
0.98185054939148
 10
11.0723031422543
 20
0.98185054939148
 10
11.0723031422543
 20
1.006865968424924
 10
11.05873760800735
 20
1.006865968424924
 10
11.05817886603024
 20
1.006224676826677
 10
11.05770267367426
 20
1.005501196085988
 10
11.05687825889899
 20
1.003934555677903
 10
11.0565026400989
 20
1.003137897762148
 10
11.05617280209305
 20
1.002322494954249
 10
11.05589811732753
 20
1.001507452625055
 10
11.05566921335626
 20
1.000683037849795
 10
11.05534838731778
 20
0.9990342082992643
 10
11.05521104493502
 20
0.9973853787487333
 10
11.05524781376191
 20
0.9957365491981964
 10
11.05544932135236
 20
0.9941244884745556
 10
11.05581556770639
 20
0.992539824131718
 10
11.05633790133532
 20
0.991001301061835
 10
11.05701560128176
 20
0.9895265827209437
 10
11.05783100408964
 20
0.9881156691090569
 10
11.0587833888016
 20
0.9867966775643745
 97
        0
 75
     0
 76
     1
 98
        0
  0
HATCH
  5
87
330
1F
100
AcDbEntity
  8
XR$1$TB_313_1
  6
AUSGEZOGEN
 62
    18
420
        0
440
 33554687
370
    18
100
AcDbHatch
 10
0.0
 20
0.0
 30
0.0
210
0.0
220
0.0
230
1.0
  2
SOLID
 70
     1
 71
     0
 91
        1
 92
        3
 72
     0
 73
     1
 93
       14
 10
11.59931657199327
 20
1.576297695605545
 10
11.56331657199327
 20
1.576297695605545
 10
11.56331657199327
 20
1.573297695605544
 10
11.58631657199327
 20
1.573297695605544
 10
11.58631657199327
 20
1.546297695605545
 10
11.58931657199327
 20
1.546297695605545
 10
11.59131657199327
 20
1.549297695605545
 10
11.58931657199327
 20
1.549297695605545
 10
11.58931657199327
 20
1.573297695605544
 10
11.59631657199327
 20
1.573297695605544
 10
11.59631657199327
 20
1.549297695605545
 10
11.59431657199327
 20
1.549297695605545
 10
11.59631657199327
 20
1.546297695605545
 10
11.59931657199327
 20
1.546297695605545
 97
        0
 75
     0
 76
     1
 98
        0
  0
HATCH
  5
88
330
1F
100
AcDbEntity
  8
XR$1$TB_313_1
  6
AUSGEZOGEN
 62
   252
440
 33554687
370
    18
100
AcDbHatch
 10
0.0
 20
0.0
 30
0.0
210
0.0
220
0.0
230
1.0
  2
SOLID
 70
     1
 71
     0
 91
        1
 92
        3
 72
     0
 73
     1
 93
       18
 10
11.55431657199327
 20
1.515130295224562
 10
11.55131657199327
 20
1.515130295224562
 10
11.55131657199327
 20
1.488130295224562
 10
11.49731657199327
 20
1.488130295224562
 10
11.49731657199333
 20
1.559630295224613
 10
11.50431657199327
 20
1.566630295224544
 10
11.49731657199333
 20
1.573630295224482
 10
11.49731657199333
 20
1.639130295224533
 10
11.54531657199327
 20
1.639130295224533
 10
11.54531657199327
 20
1.615130295224533
 10
11.54831657199327
 20
1.615130295224533
 10
11.54831657199327
 20
1.642130295224562
 10
11.49431657199327
 20
1.642130295224562
 10
11.49431657199327
 20
1.572387654537432
 10
11.50007393130616
 20
1.566630295224544
 10
11.49431657199327
 20
1.560872935911664
 10
11.49431657199327
 20
1.485130295224562
 10
11.55431657199327
 20
1.485130295224562
 97
        0
 75
     0
 76
     1
 98
        0
  0
HATCH
  5
89
330
1F
100
AcDbEntity
  8
XR$1$TB_313_1
  6
AUSGEZOGEN
 62
   252
440
 33554687
370
    18
100
AcDbHatch
 10
0.0
 20
0.0
 30
0.0
210
0.0
220
0.0
230
1.0
  2
SOLID
 70
     1
 71
     0
 91
        1
 92
        3
 72
     0
 73
     1
 93
       18
 10
11.50031657199327
 20
1.515130295224562
 10
11.49731657199327
 20
1.515130295224562
 10
11.49731657199327
 20
1.488130295224562
 10
11.55131657199327
 20
1.488130295224562
 10
11.55131657199327
 20
1.560872935911664
 10
11.5455592126804
 20
1.566630295224544
 10
11.55131657199327
 20
1.572387654537432
 10
11.55131657199327
 20
1.645130295224533
 10
11.49131657199327
 20
1.645130295224533
 10
11.49131657199327
 20
1.615130295224533
 10
11.49431657199327
 20
1.615130295224533
 10
11.49431657199327
 20
1.642130295224562
 10
11.54831657199327
 20
1.642130295224562
 10
11.54831657199327
 20
1.573630295224544
 10
11.54131657199327
 20
1.566630295224544
 10
11.54831657199327
 20
1.559630295224544
 10
11.54831657199327
 20
1.491130295224562
 10
11.50031657199327
 20
1.491130295224562
 97
        0
 75
     0
 76
     1
 98
        0
  0
HATCH
  5
8A
330
1F
100
AcDbEntity
  8
XR$1$TB_313_1
  6
AUSGEZOGEN
 62
   254
440
 33554687
370
    18
100
AcDbHatch
 10
0.0
 20
0.0
 30
0.0
210
0.0
220
0.0
230
1.0
  2
SOLID
 70
     1
 71
     0
 91
        1
 92
        3
 72
     0
 73
     1
 93
        4
 10
11.55131657199327
 20
1.655130295224533
 10
10.92632074718136
 20
1.655130295224533
 10
10.92632074718136
 20
1.645130295224533
 10
11.55131657199327
 20
1.645130295224533
 97
        0
 75
     0
 76
     1
 98
        0
  0
HATCH
  5
8B
330
1F
100
AcDbEntity
  8
XR$1$TB_313_1
  6
AUSGEZOGEN
 62
   254
440
 33554687
370
    18
100
AcDbHatch
 10
0.0
 20
0.0
 30
0.0
210
0.0
220
0.0
230
1.0
  2
SOLID
 70
     1
 71
     0
 91
        1
 92
        3
 72
     0
 73
     1
 93
        4
 10
11.55131657199327
 20
1.655130295224533
 10
11.55131657199327
 20
1.665130295224533
 10
10.92632074718136
 20
1.665130295224533
 10
10.92632074718136
 20
1.655130295224533
 97
        0
 75
     0
 76
     1
 98
        0
  0
HATCH
  5
8C
330
1F
100
AcDbEntity
  8
XR$1$TB_313_1
  6
AUSGEZOGEN
 62
   254
440
 33554687
370
    18
100
AcDbHatch
 10
0.0
 20
0.0
 30
0.0
210
0.0
220
0.0
230
1.0
  2
SOLID
 70
     1
 71
     0
 91
        1
 92
        3
 72
     0
 73
     1
 93
        4
 10
10.92632074718136
 20
1.485130295224533
 10
10.92632074718136
 20
1.475130295224533
 10
11.55131657199327
 20
1.475130295224533
 10
11.55131657199327
 20
1.485130295224533
 97
        0
 75
     0
 76
     1
 98
        0
  0
HATCH
  5
8D
330
1F
100
AcDbEntity
  8
XR$1$TB_313_1
  6
AUSGEZOGEN
 62
     8
420
  7303023
440
 33554687
370
    18
100
AcDbHatch
 10
0.0
 20
0.0
 30
0.0
210
0.0
220
0.0
230
1.0
  2
SOLID
 70
     1
 71
     0
 91
        1
 92
        3
 72
     0
 73
     1
 93
        4
 10
11.53931657199327
 20
1.473130295224533
 10
11.50931657199327
 20
1.473130295224533
 10
11.50931657199327
 20
1.467130295224533
 10
11.53931657199327
 20
1.467130295224533
 97
        0
 75
     0
 76
     1
 98
        0
  0
MTEXT
  5
8E
330
1F
100
AcDbEntity
  8
XR$1$TB_313_1
  6
AUSGEZOGEN
 62
     7
440
 33554687
370
    18
100
AcDbMText
 10
10.951659
 20
0.925865
 30
0.0
 40
0.009
 41
0.89646
 46
0.0
 71
     7
 72
     5
  1
\W0.85;THESE ARE NOT BINDING CONSTRUCTION PROPOSALS WHICH HAVE TO BE VERIFIED FOR EACH INDIVIDUAL PROJECT AS REGARDS APPLICABILITY AND CORRECTNESS.
  7
ARIAL
 73
     1
 44
1.0
  0
MTEXT
  5
8F
330
1F
100
AcDbEntity
  8
XR$1$TB_313_1
  6
AUSGEZOGEN
 62
     7
440
 33554687
370
    18
100
AcDbMText
 10
10.951659
 20
0.943864
 30
0.0
 40
0.009
 41
0.8975
 46
0.0
 71
     7
 72
     5
  1
\W0.91;DIES SIND UNVERBINDLICHE KONSTRUKTIONSVORSCHLÄGE, DIE FÜR JEDES PROJEKT AUF ANWENDBARKEIT UND RICHTIGKEIT GEPRÜFT WERDEN MÜSSEN.
  7
ARIAL
 73
     1
 44
1.0
  0
MTEXT
  5
90
330
1F
100
AcDbEntity
  8
XR$1$TB_313_1
  6
AUSGEZOGEN
 62
     7
440
 33554687
370
    18
100
AcDbMText
 10
10.951659
 20
0.907865
 30
0.0
 40
0.009
 41
0.895804
 46
0.0
 71
     7
 72
     5
  1
\W0.80;IL S' AGIT DE PROPOSITIONS DE CONSTRUCTION SANS ENGAGEMENT DE NOTRE PART QUI DOIVENT ETRE VERIFIEES POUR CHAQUE PROJET A LEUR EXACTITUDE ET FAISABILITE.
  7
ARIAL
 73
     1
 44
1.0
  0
MTEXT
  5
91
330
1F
100
AcDbEntity
  8
XR$1$TB_313_1
  6
AUSGEZOGEN
 62
     7
440
 33554687
370
    18
100
AcDbMText
 10
11.36632
 20
0.981793
 30
0.0
 40
0.009
 41
0.348436
 46
0.0
 71
     7
 72
     5
  1
\W0.92;Tel. 09435 / 391 3238   e-mail: as.fassade@deutsche-steinzeug.de
  7
ARIAL
 73
     1
 44
1.0
  0
MTEXT
  5
92
330
1F
100
AcDbEntity
  8
XR$1$TB_313_1
  6
AUSGEZOGEN
 62
     7
440
 33554687
370
    18
100
AcDbMText
 10
10.952007
 20
2.229822
 30
0.0
 40
0.0175
 41
0.374509
 46
0.0
 71
     7
 72
     5
  1
\W1.00;EMBRASURE OF THE WINDOW
  7
ARIAL
 73
     1
 44
1.0
  0
MTEXT
  5
93
330
1F
100
AcDbEntity
  8
XR$1$TB_313_1
  6
AUSGEZOGEN
 62
     7
440
 33554687
370
    18
100
AcDbMText
 10
10.952007
 20
2.203572
 30
0.0
 40
0.0175
 41
0.326106
 46
0.0
 71
     7
 72
     5
  1
\W1.00;EMBRASURE DE FENETRE
  7
ARIAL
 73
     1
 44
1.0
  0
MTEXT
  5
94
330
1F
100
AcDbEntity
  8
XR$1$TB_313_1
  6
AUSGEZOGEN
 62
     7
440
 33554687
370
    18
100
AcDbMText
 10
10.952007
 20
2.264834
 30
0.0
 40
0.025
 41
0.525859
 46
0.0
 71
     7
 72
     5
  1
\W1.00;FENSTERLEIBUNG MIT BLECH
  7
ARIAL
 73
     1
 44
1.0
  0
MTEXT
  5
95
330
1F
100
AcDbEntity
  8
XR$1$TB_313_1
  6
AUSGEZOGEN
 62
     7
440
 33554687
370
    18
100
AcDbMText
 10
11.086723
 20
2.167424
 30
0.0
 40
0.01
 41
0.024254
 46
0.0
 71
     7
 72
     5
  1
\A1;{\fArial|i0|b0;\H0.017500;\W0.911111;\C7;®}\P
  7
ARIAL
 73
     1
 44
1.0
  0
MTEXT
  5
96
330
1F
100
AcDbEntity
  8
XR$1$TB_313_1
  6
AUSGEZOGEN
 62
     7
440
 33554687
370
    18
100
AcDbMText
 10
10.952007
 20
2.160069
 30
0.0
 40
0.0225
 41
0.244144
 46
0.0
 71
     7
 72
     5
  1
\W1.00;KeraTwin    K20 
  7
ARIAL
 73
     1
 44
1.0
  0
MTEXT
  5
97
330
1F
100
AcDbEntity
  8
XR$1$TB_313_1
  6
AUSGEZOGEN
 62
     7
440
 33554687
370
    18
100
AcDbMText
 10
10.951669
 20
2.125198
 30
0.0
 40
0.0175
 41
0.590635
 46
0.0
 71
     7
 72
     5
  1
\W1.00;OMEGAPROFIL AUF HORIZONTALEM HUTPROFIL
  7
ARIAL
 73
     1
 44
1.0
  0
MTEXT
  5
98
330
1F
100
AcDbEntity
  8
XR$1$TB_313_1
  6
AUSGEZOGEN
 62
     5
440
 33554687
370
    18
100
AcDbMText
 10
10.951669
 20
2.099757
 30
0.0
 40
0.0175
 41
0.643423
 46
0.0
 71
     7
 72
     5
  1
\W1.00;OMEGA SYSTEM RAIL ON HORIZONTAL HAT PROFILE
  7
ARIAL
 73
     1
 44
1.0
  0
MTEXT
  5
99
330
1F
100
AcDbEntity
  8
XR$1$TB_313_1
  6
AUSGEZOGEN
 62
     5
440
 33554687
370
    18
100
AcDbMText
 10
10.951669
 20
2.075262
 30
0.0
 40
0.0175
 41
0.710513
 46
0.0
 71
     7
 72
     5
  1
\W1.00;RAIL SYSTEME OMEGA SUR PROFILE CHAPE HORIZONTAL
  7
ARIAL
 73
     1
 44
1.0
  0
MTEXT
  5
9A
330
1F
100
AcDbEntity
  8
XR$1$TB_313_1
  6
AUSGEZOGEN
 62
     7
440
 33554687
370
    18
100
AcDbMText
 10
11.365868
 20
0.998035
 30
0.0
 40
0.009
 41
0.418059
 46
0.0
 71
     7
 72
     5
  1
\W1.00;AGROB BUCHTAL GmbH   Architektenservice   D - 92521 Schwarzenfeld
  7
ARIAL
 73
     1
 44
1.0
  0
LINE
  5
9B
330
1F
100
AcDbEntity
  8
XR$1$TB_313_1
  6
AUSGEZOGEN
 62
    35
440
 33554687
370
    70
100
AcDbLine
 10
10.833851
 20
0.858486
 30
0.0
 11
11.883851
 21
0.858486
 31
0.0
  0
LINE
  5
9C
330
1F
100
AcDbEntity
  8
XR$1$TB_313_1
  6
AUSGEZOGEN
 62
     1
440
 33554687
370
    70
100
AcDbLine
 10
10.833841
 20
2.343471
 30
0.0
 11
10.833841
 21
0.858486
 31
0.0
  0
LINE
  5
9D
330
1F
100
AcDbEntity
  8
XR$1$TB_313_1
  6
AUSGEZOGEN
 62
     1
440
 33554687
370
    70
100
AcDbLine
 10
11.88383
 20
0.858486
 30
0.0
 11
11.88383
 21
2.343471
 31
0.0
  0
LINE
  5
9E
330
1F
100
AcDbEntity
  8
XR$1$TB_313_1
  6
AUSGEZOGEN
 62
     1
440
 33554687
370
    70
100
AcDbLine
 10
11.88383
 20
2.343471
 30
0.0
 11
10.833841
 21
2.343471
 31
0.0
  0
LINE
  5
9F
330
1F
100
AcDbEntity
  8
XR$1$TB_313_1
  6
AUSGEZOGEN
 62
     7
440
 33554687
370
    18
100
AcDbLine
 10
11.599317
 20
1.576298
 30
0.0
 11
11.599317
 21
1.546298
 31
0.0
  0
LINE
  5
A0
330
1F
100
AcDbEntity
  8
XR$1$TB_313_1
  6
AUSGEZOGEN
 62
     7
440
 33554687
370
    18
100
AcDbLine
 10
11.599317
 20
1.546298
 30
0.0
 11
11.596317
 21
1.546298
 31
0.0
  0
LINE
  5
A1
330
1F
100
AcDbEntity
  8
XR$1$TB_313_1
  6
AUSGEZOGEN
 62
     7
440
 33554687
370
    18
100
AcDbLine
 10
11.594317
 20
1.549298
 30
0.0
 11
11.596317
 21
1.546298
 31
0.0
  0
LINE
  5
A2
330
1F
100
AcDbEntity
  8
XR$1$TB_313_1
  6
AUSGEZOGEN
 62
     7
440
 33554687
370
    18
100
AcDbLine
 10
11.596317
 20
1.549298
 30
0.0
 11
11.594317
 21
1.549298
 31
0.0
  0
LINE
  5
A3
330
1F
100
AcDbEntity
  8
XR$1$TB_313_1
  6
AUSGEZOGEN
 62
     7
440
 33554687
370
    18
100
AcDbLine
 10
11.596317
 20
1.573298
 30
0.0
 11
11.596317
 21
1.549298
 31
0.0
  0
LINE
  5
A4
330
1F
100
AcDbEntity
  8
XR$1$TB_313_1
  6
AUSGEZOGEN
 62
     7
440
 33554687
370
    18
100
AcDbLine
 10
11.586317
 20
1.573298
 30
0.0
 11
11.586317
 21
1.546298
 31
0.0
  0
LINE
  5
A5
330
1F
100
AcDbEntity
  8
XR$1$TB_313_1
  6
AUSGEZOGEN
 62
     7
440
 33554687
370
    18
100
AcDbLine
 10
11.589317
 20
1.546298
 30
0.0
 11
11.586317
 21
1.546298
 31
0.0
  0
LINE
  5
A6
330
1F
100
AcDbEntity
  8
XR$1$TB_313_1
  6
AUSGEZOGEN
 62
     7
440
 33554687
370
    18
100
AcDbLine
 10
11.591317
 20
1.549298
 30
0.0
 11
11.589317
 21
1.546298
 31
0.0
  0
LINE
  5
A7
330
1F
100
AcDbEntity
  8
XR$1$TB_313_1
  6
AUSGEZOGEN
 62
     7
440
 33554687
370
    18
100
AcDbLine
 10
11.589317
 20
1.549298
 30
0.0
 11
11.591317
 21
1.549298
 31
0.0
  0
LINE
  5
A8
330
1F
100
AcDbEntity
  8
XR$1$TB_313_1
  6
AUSGEZOGEN
 62
     7
440
 33554687
370
    18
100
AcDbLine
 10
11.589317
 20
1.573298
 30
0.0
 11
11.589317
 21
1.549298
 31
0.0
  0
LINE
  5
A9
330
1F
100
AcDbEntity
  8
XR$1$TB_313_1
  6
AUSGEZOGEN
 62
     7
440
 33554687
370
    18
100
AcDbLine
 10
11.596317
 20
1.573298
 30
0.0
 11
11.589317
 21
1.573298
 31
0.0
  0
LINE
  5
AA
330
1F
100
AcDbEntity
  8
XR$1$TB_313_1
  6
AUSGEZOGEN
 62
     7
440
 33554687
370
    18
100
AcDbLine
 10
11.813317
 20
1.576298
 30
0.0
 11
11.636317
 21
1.576298
 31
0.0
  0
LINE
  5
AB
330
1F
100
AcDbEntity
  8
XR$1$TB_313_1
  6
AUSGEZOGEN
 62
     3
440
 33554687
370
    25
100
AcDbLine
 10
11.636317
 20
1.576298
 30
0.0
 11
11.551317
 21
1.576298
 31
0.0
  0
LINE
  5
AC
330
1F
100
AcDbEntity
  8
XR$1$TB_313_1
  6
AUSGEZOGEN
 62
     7
440
 33554687
370
    18
100
AcDbLine
 10
11.563317
 20
1.576298
 30
0.0
 11
11.563317
 21
1.573298
 31
0.0
  0
LINE
  5
AD
330
1F
100
AcDbEntity
  8
XR$1$TB_313_1
  6
AUSGEZOGEN
 62
     7
440
 33554687
370
    18
100
AcDbLine
 10
11.586317
 20
1.573298
 30
0.0
 11
11.563317
 21
1.573298
 31
0.0
  0
LINE
  5
AE
330
1F
100
AcDbEntity
  8
XR$1$TB_313_1
  6
AUSGEZOGEN
 62
     7
440
 33554687
370
    18
100
AcDbLine
 10
11.574317
 20
1.581298
 30
0.0
 11
11.574317
 21
1.568298
 31
0.0
  0
LINE
  5
AF
330
1F
100
AcDbEntity
  8
XR$1$TB_313_1
  6
AUSGEZOGEN
 62
     7
440
 33554687
370
    18
100
AcDbLine
 10
11.594317
 20
1.569298
 30
0.0
 11
11.591317
 21
1.569298
 31
0.0
  0
LINE
  5
B0
330
1F
100
AcDbEntity
  8
XR$1$TB_313_1
  6
AUSGEZOGEN
 62
    52
440
 33554687
370
    13
100
AcDbLine
 10
11.551317
 20
1.482298
 30
0.0
 11
11.591317
 21
1.492298
 31
0.0
  0
LINE
  5
B1
330
1F
100
AcDbEntity
  8
XR$1$TB_313_1
  6
AUSGEZOGEN
 62
    52
440
 33554687
370
    13
100
AcDbLine
 10
11.591317
 20
1.513038
 30
0.0
 11
11.551317
 21
1.523038
 31
0.0
  0
LINE
  5
B2
330
1F
100
AcDbEntity
  8
XR$1$TB_313_1
  6
AUSGEZOGEN
 62
    52
440
 33554687
370
    13
100
AcDbLine
 10
11.551317
 20
1.523038
 30
0.0
 11
11.591317
 21
1.533038
 31
0.0
  0
LINE
  5
B3
330
1F
100
AcDbEntity
  8
XR$1$TB_313_1
  6
AUSGEZOGEN
 62
    52
440
 33554687
370
    13
100
AcDbLine
 10
11.591317
 20
1.533038
 30
0.0
 11
11.551317
 21
1.543038
 31
0.0
  0
LINE
  5
B4
330
1F
100
AcDbEntity
  8
XR$1$TB_313_1
  6
AUSGEZOGEN
 62
    52
440
 33554687
370
    13
100
AcDbLine
 10
11.551317
 20
1.543038
 30
0.0
 11
11.586317
 21
1.551788
 31
0.0
  0
LINE
  5
B5
330
1F
100
AcDbEntity
  8
XR$1$TB_313_1
  6
AUSGEZOGEN
 62
    52
440
 33554687
370
    13
100
AcDbLine
 10
11.586317
 20
1.554288
 30
0.0
 11
11.551317
 21
1.563038
 31
0.0
  0
LINE
  5
B6
330
1F
100
AcDbEntity
  8
XR$1$TB_313_1
  6
AUSGEZOGEN
 62
    52
440
 33554687
370
    13
100
AcDbLine
 10
11.551317
 20
1.563038
 30
0.0
 11
11.586317
 21
1.571788
 31
0.0
  0
LINE
  5
B7
330
1F
100
AcDbEntity
  8
XR$1$TB_313_1
  6
VERDECKT2_S2
 62
    52
440
 33554687
370
    18
100
AcDbLine
 10
11.551308
 20
1.49813
 30
0.0
 11
11.551308
 21
1.52313
 31
0.0
  0
LINE
  5
B8
330
1F
100
AcDbEntity
  8
XR$1$TB_313_1
  6
AUSGEZOGEN
 62
     7
440
 33554687
370
    13
100
AcDbLine
 10
11.458126
 20
1.64513
 30
0.0
 11
11.437734
 21
1.484665
 31
0.0
  0
LINE
  5
B9
330
1F
100
AcDbEntity
  8
XR$1$TB_313_1
  6
AUSGEZOGEN
 62
     7
440
 33554687
370
    13
100
AcDbLine
 10
11.437734
 20
1.484665
 30
0.0
 11
11.398126
 21
1.64513
 31
0.0
  0
LINE
  5
BA
330
1F
100
AcDbEntity
  8
XR$1$TB_313_1
  6
AUSGEZOGEN
 62
     7
440
 33554687
370
    18
100
AcDbLine
 10
11.491317
 20
1.64513
 30
0.0
 11
11.491317
 21
1.61513
 31
0.0
  0
LINE
  5
BB
330
1F
100
AcDbEntity
  8
XR$1$TB_313_1
  6
AUSGEZOGEN
 62
     7
440
 33554687
370
    18
100
AcDbLine
 10
11.491317
 20
1.61513
 30
0.0
 11
11.494317
 21
1.61513
 31
0.0
  0
LINE
  5
BC
330
1F
100
AcDbEntity
  8
XR$1$TB_313_1
  6
AUSGEZOGEN
 62
     7
440
 33554687
370
    18
100
AcDbLine
 10
11.494317
 20
1.61513
 30
0.0
 11
11.494317
 21
1.64213
 31
0.0
  0
LINE
  5
BD
330
1F
100
AcDbEntity
  8
XR$1$TB_313_1
  6
AUSGEZOGEN
 62
     7
440
 33554687
370
    18
100
AcDbLine
 10
11.494317
 20
1.64213
 30
0.0
 11
11.548317
 21
1.64213
 31
0.0
  0
LINE
  5
BE
330
1F
100
AcDbEntity
  8
XR$1$TB_313_1
  6
AUSGEZOGEN
 62
     7
440
 33554687
370
    18
100
AcDbLine
 10
11.494317
 20
1.51813
 30
0.0
 11
11.494317
 21
1.49113
 31
0.0
  0
LINE
  5
BF
330
1F
100
AcDbEntity
  8
XR$1$TB_313_1
  6
AUSGEZOGEN
 62
     7
440
 33554687
370
    18
100
AcDbLine
 10
11.545317
 20
1.61513
 30
0.0
 11
11.545317
 21
1.63913
 31
0.0
  0
LINE
  5
C0
330
1F
100
AcDbEntity
  8
XR$1$TB_313_1
  6
AUSGEZOGEN
 62
     7
440
 33554687
370
    18
100
AcDbLine
 10
11.545317
 20
1.63913
 30
0.0
 11
11.497317
 21
1.63913
 31
0.0
  0
LINE
  5
C1
330
1F
100
AcDbEntity
  8
XR$1$TB_313_1
  6
AUSGEZOGEN
 62
     7
440
 33554687
370
    18
100
AcDbLine
 10
11.551317
 20
1.51513
 30
0.0
 11
11.554317
 21
1.51513
 31
0.0
  0
LINE
  5
C2
330
1F
100
AcDbEntity
  8
XR$1$TB_313_1
  6
AUSGEZOGEN
 62
     7
440
 33554687
370
    18
100
AcDbLine
 10
11.554317
 20
1.51513
 30
0.0
 11
11.554317
 21
1.48513
 31
0.0
  0
LINE
  5
C3
330
1F
100
AcDbEntity
  8
XR$1$TB_313_1
  6
AUSGEZOGEN
 62
     7
440
 33554687
370
    18
100
AcDbLine
 10
11.497317
 20
1.51813
 30
0.0
 11
11.497317
 21
1.48813
 31
0.0
  0
LINE
  5
C4
330
1F
100
AcDbEntity
  8
XR$1$TB_313_1
  6
AUSGEZOGEN
 62
     7
440
 33554687
370
    18
100
AcDbLine
 10
11.551317
 20
1.48813
 30
0.0
 11
11.497317
 21
1.48813
 31
0.0
  0
LINE
  5
C5
330
1F
100
AcDbEntity
  8
XR$1$TB_313_1
  6
AUSGEZOGEN
 62
     7
440
 33554687
370
    18
100
AcDbLine
 10
11.497317
 20
1.51513
 30
0.0
 11
11.500317
 21
1.51513
 31
0.0
  0
LINE
  5
C6
330
1F
100
AcDbEntity
  8
XR$1$TB_313_1
  6
AUSGEZOGEN
 62
     7
440
 33554687
370
    18
100
AcDbLine
 10
11.500317
 20
1.51513
 30
0.0
 11
11.500317
 21
1.49113
 31
0.0
  0
LINE
  5
C7
330
1F
100
AcDbEntity
  8
XR$1$TB_313_1
  6
AUSGEZOGEN
 62
     7
440
 33554687
370
    18
100
AcDbLine
 10
11.500317
 20
1.49113
 30
0.0
 11
11.548317
 21
1.49113
 31
0.0
  0
LINE
  5
C8
330
1F
100
AcDbEntity
  8
XR$1$TB_313_1
  6
AUSGEZOGEN
 62
     7
440
 33554687
370
    18
100
AcDbLine
 10
11.551317
 20
1.64513
 30
0.0
 11
11.551317
 21
1.572388
 31
0.0
  0
LINE
  5
C9
330
1F
100
AcDbEntity
  8
XR$1$TB_313_1
  6
AUSGEZOGEN
 62
     7
440
 33554687
370
    18
100
AcDbLine
 10
11.548317
 20
1.64213
 30
0.0
 11
11.548317
 21
1.57363
 31
0.0
  0
LINE
  5
CA
330
1F
100
AcDbEntity
  8
XR$1$TB_313_1
  6
AUSGEZOGEN
 62
     7
440
 33554687
370
    18
100
AcDbLine
 10
11.551317
 20
1.560873
 30
0.0
 11
11.551317
 21
1.48813
 31
0.0
  0
LINE
  5
CB
330
1F
100
AcDbEntity
  8
XR$1$TB_313_1
  6
AUSGEZOGEN
 62
     7
440
 33554687
370
    18
100
AcDbLine
 10
11.548317
 20
1.55963
 30
0.0
 11
11.548317
 21
1.49113
 31
0.0
  0
LINE
  5
CC
330
1F
100
AcDbEntity
  8
XR$1$TB_313_1
  6
AUSGEZOGEN
 62
     7
440
 33554687
370
    18
100
AcDbLine
 10
11.541317
 20
1.56663
 30
0.0
 11
11.548317
 21
1.55963
 31
0.0
  0
LINE
  5
CD
330
1F
100
AcDbEntity
  8
XR$1$TB_313_1
  6
AUSGEZOGEN
 62
     7
440
 33554687
370
    18
100
AcDbLine
 10
11.545559
 20
1.56663
 30
0.0
 11
11.551317
 21
1.560873
 31
0.0
  0
LINE
  5
CE
330
1F
100
AcDbEntity
  8
XR$1$TB_313_1
  6
AUSGEZOGEN
 62
     7
440
 33554687
370
    18
100
AcDbLine
 10
11.545559
 20
1.56663
 30
0.0
 11
11.551317
 21
1.572388
 31
0.0
  0
LINE
  5
CF
330
1F
100
AcDbEntity
  8
XR$1$TB_313_1
  6
AUSGEZOGEN
 62
     7
440
 33554687
370
    18
100
AcDbLine
 10
11.541317
 20
1.56663
 30
0.0
 11
11.548317
 21
1.57363
 31
0.0
  0
LINE
  5
D0
330
1F
100
AcDbEntity
  8
XR$1$TB_313_1
  6
AUSGEZOGEN
 62
     7
440
 33554687
370
    18
100
AcDbLine
 10
11.504317
 20
1.56663
 30
0.0
 11
11.497317
 21
1.55963
 31
0.0
  0
LINE
  5
D1
330
1F
100
AcDbEntity
  8
XR$1$TB_313_1
  6
AUSGEZOGEN
 62
     7
440
 33554687
370
    18
100
AcDbLine
 10
11.500074
 20
1.56663
 30
0.0
 11
11.494317
 21
1.560873
 31
0.0
  0
LINE
  5
D2
330
1F
100
AcDbEntity
  8
XR$1$TB_313_1
  6
AUSGEZOGEN
 62
     7
440
 33554687
370
    18
100
AcDbLine
 10
11.500074
 20
1.56663
 30
0.0
 11
11.494317
 21
1.572388
 31
0.0
  0
LINE
  5
D3
330
1F
100
AcDbEntity
  8
XR$1$TB_313_1
  6
AUSGEZOGEN
 62
     7
440
 33554687
370
    18
100
AcDbLine
 10
11.504317
 20
1.56663
 30
0.0
 11
11.497317
 21
1.57363
 31
0.0
  0
LINE
  5
D4
330
1F
100
AcDbEntity
  8
XR$1$TB_313_1
  6
AUSGEZOGEN
 62
     7
440
 33554687
370
    18
100
AcDbLine
 10
11.497317
 20
1.55963
 30
0.0
 11
11.497317
 21
1.51813
 31
0.0
  0
LINE
  5
D5
330
1F
100
AcDbEntity
  8
XR$1$TB_313_1
  6
AUSGEZOGEN
 62
     7
440
 33554687
370
    18
100
AcDbLine
 10
11.497317
 20
1.63913
 30
0.0
 11
11.497317
 21
1.57363
 31
0.0
  0
LINE
  5
D6
330
1F
100
AcDbEntity
  8
XR$1$TB_313_1
  6
AUSGEZOGEN
 62
     7
440
 33554687
370
    18
100
AcDbLine
 10
11.494317
 20
1.48513
 30
0.0
 11
11.494317
 21
1.560873
 31
0.0
  0
LINE
  5
D7
330
1F
100
AcDbEntity
  8
XR$1$TB_313_1
  6
AUSGEZOGEN
 62
     7
440
 33554687
370
    18
100
AcDbLine
 10
11.494317
 20
1.572388
 30
0.0
 11
11.494317
 21
1.61513
 31
0.0
  0
LINE
  5
D8
330
1F
100
AcDbEntity
  8
XR$1$TB_313_1
  6
AUSGEZOGEN
 62
     7
440
 33554687
370
    18
100
AcDbLine
 10
11.491317
 20
1.64513
 30
0.0
 11
11.551317
 21
1.64513
 31
0.0
  0
LINE
  5
D9
330
1F
100
AcDbEntity
  8
XR$1$TB_313_1
  6
AUSGEZOGEN
 62
     7
440
 33554687
370
    13
100
AcDbLine
 10
11.551317
 20
1.510665
 30
0.0
 11
11.551308
 21
1.5107
 31
0.0
  0
LINE
  5
DA
330
1F
100
AcDbEntity
  8
XR$1$TB_313_1
  6
AUSGEZOGEN
 62
    52
440
 33554687
370
    13
100
AcDbLine
 10
11.554317
 20
1.503048
 30
0.0
 11
11.591317
 21
1.512298
 31
0.0
  0
LINE
  5
DB
330
1F
100
AcDbEntity
  8
XR$1$TB_313_1
  6
AUSGEZOGEN
 62
    52
440
 33554687
370
    13
100
AcDbLine
 10
11.591317
 20
1.492298
 30
0.0
 11
11.554317
 21
1.501548
 31
0.0
  0
LINE
  5
DC
330
1F
100
AcDbEntity
  8
XR$1$TB_313_1
  6
AUSGEZOGEN
 62
     7
440
 33554687
370
    13
100
AcDbLine
 10
11.497734
 20
1.484665
 30
0.0
 11
11.497619
 21
1.48513
 31
0.0
  0
LINE
  5
DD
330
1F
100
AcDbEntity
  8
XR$1$TB_313_1
  6
AUSGEZOGEN
 62
     7
440
 33554687
370
    13
100
AcDbLine
 10
11.494317
 20
1.498511
 30
0.0
 11
11.458126
 21
1.64513
 31
0.0
  0
LINE
  5
DE
330
1F
100
AcDbEntity
  8
XR$1$TB_313_1
  6
AUSGEZOGEN
 62
     7
440
 33554687
370
    13
100
AcDbLine
 10
11.497793
 20
1.48513
 30
0.0
 11
11.497734
 21
1.484665
 31
0.0
  0
LINE
  5
DF
330
1F
100
AcDbEntity
  8
XR$1$TB_313_1
  6
AUSGEZOGEN
 62
    52
440
 33554687
370
    13
100
AcDbLine
 10
11.591317
 20
1.47313
 30
0.0
 11
11.551317
 21
1.482298
 31
0.0
  0
LINE
  5
E0
330
1F
100
AcDbEntity
  8
XR$1$TB_313_1
  6
AUSGEZOGEN
 62
     7
440
 33554687
370
    13
100
AcDbLine
 10
11.398126
 20
1.64513
 30
0.0
 11
11.377734
 21
1.484665
 31
0.0
  0
LINE
  5
E1
330
1F
100
AcDbEntity
  8
XR$1$TB_313_1
  6
AUSGEZOGEN
 62
     7
440
 33554687
370
    13
100
AcDbLine
 10
11.377734
 20
1.484665
 30
0.0
 11
11.338126
 21
1.64513
 31
0.0
  0
LINE
  5
E2
330
1F
100
AcDbEntity
  8
XR$1$TB_313_1
  6
AUSGEZOGEN
 62
     7
440
 33554687
370
    13
100
AcDbLine
 10
11.338126
 20
1.64513
 30
0.0
 11
11.317734
 21
1.484665
 31
0.0
  0
LINE
  5
E3
330
1F
100
AcDbEntity
  8
XR$1$TB_313_1
  6
AUSGEZOGEN
 62
     7
440
 33554687
370
    13
100
AcDbLine
 10
11.317734
 20
1.484665
 30
0.0
 11
11.278126
 21
1.64513
 31
0.0
  0
LINE
  5
E4
330
1F
100
AcDbEntity
  8
XR$1$TB_313_1
  6
AUSGEZOGEN
 62
     7
440
 33554687
370
    13
100
AcDbLine
 10
11.278126
 20
1.64513
 30
0.0
 11
11.257734
 21
1.484665
 31
0.0
  0
LINE
  5
E5
330
1F
100
AcDbEntity
  8
XR$1$TB_313_1
  6
AUSGEZOGEN
 62
     7
440
 33554687
370
    13
100
AcDbLine
 10
11.257734
 20
1.484665
 30
0.0
 11
11.218126
 21
1.64513
 31
0.0
  0
LINE
  5
E6
330
1F
100
AcDbEntity
  8
XR$1$TB_313_1
  6
AUSGEZOGEN
 62
     7
440
 33554687
370
    13
100
AcDbLine
 10
11.218126
 20
1.64513
 30
0.0
 11
11.197734
 21
1.484665
 31
0.0
  0
LINE
  5
E7
330
1F
100
AcDbEntity
  8
XR$1$TB_313_1
  6
AUSGEZOGEN
 62
     7
440
 33554687
370
    13
100
AcDbLine
 10
11.197734
 20
1.484665
 30
0.0
 11
11.158126
 21
1.64513
 31
0.0
  0
LINE
  5
E8
330
1F
100
AcDbEntity
  8
XR$1$TB_313_1
  6
AUSGEZOGEN
 62
     7
440
 33554687
370
    13
100
AcDbLine
 10
11.158126
 20
1.64513
 30
0.0
 11
11.137734
 21
1.484665
 31
0.0
  0
LINE
  5
E9
330
1F
100
AcDbEntity
  8
XR$1$TB_313_1
  6
AUSGEZOGEN
 62
     7
440
 33554687
370
    13
100
AcDbLine
 10
11.137734
 20
1.484665
 30
0.0
 11
11.098126
 21
1.64513
 31
0.0
  0
LINE
  5
EA
330
1F
100
AcDbEntity
  8
XR$1$TB_313_1
  6
AUSGEZOGEN
 62
     7
440
 33554687
370
    13
100
AcDbLine
 10
11.098126
 20
1.64513
 30
0.0
 11
11.077734
 21
1.484665
 31
0.0
  0
LINE
  5
EB
330
1F
100
AcDbEntity
  8
XR$1$TB_313_1
  6
AUSGEZOGEN
 62
     7
440
 33554687
370
    13
100
AcDbLine
 10
11.077734
 20
1.484665
 30
0.0
 11
11.038126
 21
1.64513
 31
0.0
  0
LINE
  5
EC
330
1F
100
AcDbEntity
  8
XR$1$TB_313_1
  6
AUSGEZOGEN
 62
     7
440
 33554687
370
    13
100
AcDbLine
 10
11.038126
 20
1.64513
 30
0.0
 11
11.017734
 21
1.484665
 31
0.0
  0
LINE
  5
ED
330
1F
100
AcDbEntity
  8
XR$1$TB_313_1
  6
AUSGEZOGEN
 62
     7
440
 33554687
370
    13
100
AcDbLine
 10
10.957793
 20
1.48513
 30
0.0
 11
10.957734
 21
1.484665
 31
0.0
  0
LINE
  5
EE
330
1F
100
AcDbEntity
  8
XR$1$TB_313_1
  6
AUSGEZOGEN
 62
     7
440
 33554687
370
    13
100
AcDbLine
 10
10.957734
 20
1.484665
 30
0.0
 11
10.957619
 21
1.48513
 31
0.0
  0
LINE
  5
EF
330
1F
100
AcDbEntity
  8
XR$1$TB_313_1
  6
AUSGEZOGEN
 62
    32
440
 33554687
370
    35
100
AcDbLine
 10
11.551317
 20
1.66513
 30
0.0
 11
10.926321
 21
1.66513
 31
0.0
  0
LINE
  5
F0
330
1F
100
AcDbEntity
  8
XR$1$TB_313_1
  6
AUSGEZOGEN
 62
    32
440
 33554687
370
    35
100
AcDbLine
 10
11.551317
 20
1.64513
 30
0.0
 11
10.926321
 21
1.64513
 31
0.0
  0
LINE
  5
F1
330
1F
100
AcDbEntity
  8
XR$1$TB_313_1
  6
AUSGEZOGEN
 62
     7
440
 33554687
370
    35
100
AcDbLine
 10
10.926321
 20
1.48513
 30
0.0
 11
11.551317
 21
1.48513
 31
0.0
  0
LINE
  5
F2
330
1F
100
AcDbEntity
  8
XR$1$TB_313_1
  6
AUSGEZOGEN
 62
     7
440
 33554687
370
    25
100
AcDbLine
 10
10.926321
 20
1.47513
 30
0.0
 11
11.551317
 21
1.47513
 31
0.0
  0
LINE
  5
F3
330
1F
100
AcDbEntity
  8
XR$1$TB_313_1
  6
VERDECKT2_S2
 62
     7
440
 33554687
370
    25
100
AcDbLine
 10
10.926321
 20
1.47413
 30
0.0
 11
11.551317
 21
1.47413
 31
0.0
  0
LINE
  5
F4
330
1F
100
AcDbEntity
  8
XR$1$TB_313_1
  6
AUSGEZOGEN
 62
     7
440
 33554687
370
    13
100
AcDbLine
 10
11.017734
 20
1.484665
 30
0.0
 11
10.978126
 21
1.64513
 31
0.0
  0
LINE
  5
F5
330
1F
100
AcDbEntity
  8
XR$1$TB_313_1
  6
AUSGEZOGEN
 62
     7
440
 33554687
370
    13
100
AcDbLine
 10
10.978126
 20
1.64513
 30
0.0
 11
10.957734
 21
1.484665
 31
0.0
  0
LINE
  5
F6
330
1F
100
AcDbEntity
  8
XR$1$TB_313_1
  6
AUSGEZOGEN
 62
     7
440
 33554687
370
    13
100
AcDbLine
 10
10.957793
 20
1.48513
 30
0.0
 11
10.926321
 21
1.612635
 31
0.0
  0
LINE
  5
F7
330
1F
100
AcDbEntity
  8
XR$1$TB_313_1
  6
AUSGEZOGEN
 62
     7
440
 33554687
370
    18
100
AcDbLine
 10
11.545317
 20
1.61513
 30
0.0
 11
11.548317
 21
1.61513
 31
0.0
  0
LINE
  5
F8
330
1F
100
AcDbEntity
  8
XR$1$TB_313_1
  6
AUSGEZOGEN
 62
     7
440
 33554687
370
    18
100
AcDbLine
 10
11.551317
 20
1.52313
 30
0.0
 11
11.551317
 21
1.48813
 31
0.0
  0
LINE
  5
F9
330
1F
100
AcDbEntity
  8
XR$1$TB_313_1
  6
AUSGEZOGEN
 62
    32
440
 33554687
370
    50
100
AcDbLine
 10
11.551317
 20
1.66513
 30
0.0
 11
11.551317
 21
1.48813
 31
0.0
  0
LINE
  5
FA
330
1F
100
AcDbEntity
  8
XR$1$TB_313_1
  6
AUSGEZOGEN
 62
    32
440
 33554687
370
    50
100
AcDbLine
 10
11.551317
 20
1.48513
 30
0.0
 11
11.551317
 21
1.47313
 31
0.0
  0
LINE
  5
FB
330
1F
100
AcDbEntity
  8
XR$1$TB_313_1
  6
AUSGEZOGEN
 62
     7
440
 33554687
370
    18
100
AcDbLine
 10
11.551317
 20
1.48513
 30
0.0
 11
11.554317
 21
1.48513
 31
0.0
  0
LINE
  5
FC
330
1F
100
AcDbEntity
  8
XR$1$TB_313_1
  6
AUSGEZOGEN
 62
     7
440
 33554687
370
    18
100
AcDbLine
 10
11.551317
 20
1.66513
 30
0.0
 11
11.551317
 21
1.66513
 31
0.0
  0
LINE
  5
FD
330
1F
100
AcDbEntity
  8
XR$1$TB_313_1
  6
AUSGEZOGEN
 62
     7
440
 33554687
370
    18
100
AcDbLine
 10
10.982718
 20
1.46713
 30
0.0
 11
10.95502
 21
1.46713
 31
0.0
  0
LINE
  5
FE
330
1F
100
AcDbEntity
  8
XR$1$TB_313_1
  6
AUSGEZOGEN
 62
     7
440
 33554687
370
    18
100
AcDbLine
 10
11.139312
 20
1.46713
 30
0.0
 11
11.167011
 21
1.46713
 31
0.0
  0
LINE
  5
FF
330
1F
100
AcDbEntity
  8
XR$1$TB_313_1
  6
AUSGEZOGEN
 62
     7
440
 33554687
370
    18
100
AcDbLine
 10
11.510418
 20
1.46713
 30
0.0
 11
11.538117
 21
1.46713
 31
0.0
  0
LINE
  5
100
330
1F
100
AcDbEntity
  8
XR$1$TB_313_1
  6
AUSGEZOGEN
 62
     7
440
 33554687
370
    35
100
AcDbLine
 10
11.353824
 20
1.46713
 30
0.0
 11
11.326125
 21
1.46713
 31
0.0
  0
LINE
  5
101
330
1F
100
AcDbEntity
  8
XR$1$TB_313_1
  6
AUSGEZOGEN
 62
    52
440
 33554687
370
    13
100
AcDbLine
 10
11.591317
 20
1.44713
 30
0.0
 11
11.551317
 21
1.44713
 31
0.0
  0
LINE
  5
102
330
1F
100
AcDbEntity
  8
XR$1$TB_313_1
  6
AUSGEZOGEN
 62
     7
440
 33554687
370
    18
100
AcDbLine
 10
10.926321
 20
1.44713
 30
0.0
 11
11.551317
 21
1.44713
 31
0.0
  0
LINE
  5
103
330
1F
100
AcDbEntity
  8
XR$1$TB_313_1
  6
AUSGEZOGEN
 62
     1
440
 33554687
370
    18
100
AcDbLine
 10
10.926321
 20
1.46513
 30
0.0
 11
11.551317
 21
1.46513
 31
0.0
  0
LINE
  5
104
330
1F
100
AcDbEntity
  8
XR$1$TB_313_1
  6
AUSGEZOGEN
 62
     7
440
 33554687
370
    18
100
AcDbLine
 10
10.926321
 20
1.46713
 30
0.0
 11
11.551317
 21
1.46713
 31
0.0
  0
LINE
  5
105
330
1F
100
AcDbEntity
  8
XR$1$TB_313_1
  6
AUSGEZOGEN
 62
     7
440
 33554687
370
    18
100
AcDbLine
 10
11.551317
 20
1.48513
 30
0.0
 11
11.551317
 21
1.46713
 31
0.0
  0
LINE
  5
106
330
1F
100
AcDbEntity
  8
XR$1$TB_313_1
  6
AUSGEZOGEN
 62
    52
440
 33554687
370
    13
100
AcDbLine
 10
11.551317
 20
1.46313
 30
0.0
 11
11.591317
 21
1.47313
 31
0.0
  0
LINE
  5
107
330
1F
100
AcDbEntity
  8
XR$1$TB_313_1
  6
AUSGEZOGEN
 62
    52
440
 33554687
370
    13
100
AcDbLine
 10
11.591317
 20
1.453963
 30
0.0
 11
11.551317
 21
1.46313
 31
0.0
  0
LINE
  5
108
330
1F
100
AcDbEntity
  8
XR$1$TB_313_1
  6
AUSGEZOGEN
 62
    52
440
 33554687
370
    13
100
AcDbLine
 10
11.567317
 20
1.44713
 30
0.0
 11
11.591317
 21
1.45313
 31
0.0
  0
LINE
  5
109
330
1F
100
AcDbEntity
  8
XR$1$TB_313_1
  6
AUSGEZOGEN
 62
     7
440
 33554687
370
    25
100
AcDbLine
 10
10.926321
 20
1.47313
 30
0.0
 11
11.551317
 21
1.47313
 31
0.0
  0
LINE
  5
10A
330
1F
100
AcDbEntity
  8
XR$1$TB_313_1
  6
AUSGEZOGEN
 62
     7
440
 33554687
370
    18
100
AcDbLine
 10
11.539317
 20
1.47313
 30
0.0
 11
11.539317
 21
1.46713
 31
0.0
  0
LINE
  5
10B
330
1F
100
AcDbEntity
  8
XR$1$TB_313_1
  6
AUSGEZOGEN
 62
     7
440
 33554687
370
    18
100
AcDbLine
 10
11.509317
 20
1.47313
 30
0.0
 11
11.509317
 21
1.46713
 31
0.0
  0
LINE
  5
10C
330
1F
100
AcDbEntity
  8
XR$1$TB_313_1
  6
STRICHPUNKT2_S5
 62
     7
440
 33554687
370
    18
100
AcDbLine
 10
11.525957
 20
1.458071
 30
0.0
 11
11.525957
 21
1.501217
 31
0.0
  0
LINE
  5
10D
330
1F
100
AcDbEntity
  8
XR$1$TB_313_1
  6
AUSGEZOGEN
 62
     3
440
 33554687
370
    25
100
AcDbLine
 10
11.561317
 20
1.636298
 30
0.0
 11
11.561317
 21
1.576298
 31
0.0
  0
LINE
  5
10E
330
1F
100
AcDbEntity
  8
XR$1$TB_313_1
  6
AUSGEZOGEN
 62
     3
440
 33554687
370
    25
100
AcDbLine
 10
11.611317
 20
1.656298
 30
0.0
 11
11.611317
 21
1.671298
 31
0.0
  0
LINE
  5
10F
330
1F
100
AcDbEntity
  8
XR$1$TB_313_1
  6
AUSGEZOGEN
 62
     3
440
 33554687
370
    25
100
AcDbLine
 10
11.691317
 20
1.671298
 30
0.0
 11
11.691317
 21
1.611298
 31
0.0
  0
LINE
  5
110
330
1F
100
AcDbEntity
  8
XR$1$TB_313_1
  6
AUSGEZOGEN
 62
     3
440
 33554687
370
    25
100
AcDbLine
 10
11.636317
 20
1.611298
 30
0.0
 11
11.691317
 21
1.611298
 31
0.0
  0
LINE
  5
111
330
1F
100
AcDbEntity
  8
XR$1$TB_313_1
  6
AUSGEZOGEN
 62
     3
440
 33554687
370
    25
100
AcDbLine
 10
11.611317
 20
1.671298
 30
0.0
 11
11.691317
 21
1.671298
 31
0.0
  0
LINE
  5
112
330
1F
100
AcDbEntity
  8
XR$1$TB_313_1
  6
AUSGEZOGEN
 62
     3
440
 33554687
370
    25
100
AcDbLine
 10
11.636317
 20
1.656298
 30
0.0
 11
11.551317
 21
1.656298
 31
0.0
  0
LINE
  5
113
330
1F
100
AcDbEntity
  8
XR$1$TB_313_1
  6
AUSGEZOGEN
 62
     3
440
 33554687
370
    25
100
AcDbLine
 10
11.561317
 20
1.656298
 30
0.0
 11
11.561317
 21
1.576298
 31
0.0
  0
LINE
  5
114
330
1F
100
AcDbEntity
  8
XR$1$TB_313_1
  6
AUSGEZOGEN
 62
     3
440
 33554687
370
    25
100
AcDbLine
 10
11.636317
 20
1.656298
 30
0.0
 11
11.636317
 21
1.576298
 31
0.0
  0
LINE
  5
115
330
1F
100
AcDbEntity
  8
XR$1$TB_313_1
  6
AUSGEZOGEN
 62
     7
440
 33554687
370
    18
100
AcDbLine
 10
11.813149
 20
1.671298
 30
0.0
 11
11.691317
 21
1.671298
 31
0.0
  0
LINE
  5
116
330
1F
100
AcDbEntity
  8
XR$1$TB_313_1
  6
AUSGEZOGEN
 62
     7
440
 33554687
370
    18
100
AcDbLine
 10
11.813149
 20
1.653298
 30
0.0
 11
11.691317
 21
1.653298
 31
0.0
  0
LINE
  5
117
330
1F
100
AcDbEntity
  8
XR$1$TB_313_1
  6
AUSGEZOGEN
 62
     7
440
 33554687
370
    18
100
AcDbLine
 10
11.813149
 20
1.649298
 30
0.0
 11
11.691317
 21
1.649298
 31
0.0
  0
LINE
  5
118
330
1F
100
AcDbEntity
  8
XR$1$TB_313_1
  6
AUSGEZOGEN
 62
     7
440
 33554687
370
    18
100
AcDbLine
 10
11.813149
 20
1.633298
 30
0.0
 11
11.691317
 21
1.633298
 31
0.0
  0
LINE
  5
119
330
1F
100
AcDbEntity
  8
XR$1$TB_313_1
  6
AUSGEZOGEN
 62
     7
440
 33554687
370
    18
100
AcDbLine
 10
11.813149
 20
1.629298
 30
0.0
 11
11.691317
 21
1.629298
 31
0.0
  0
LINE
  5
11A
330
1F
100
AcDbEntity
  8
XR$1$TB_313_1
  6
AUSGEZOGEN
 62
     7
440
 33554687
370
    18
100
AcDbLine
 10
11.813149
 20
1.611298
 30
0.0
 11
11.691317
 21
1.611298
 31
0.0
  0
LINE
  5
11B
330
1F
100
AcDbEntity
  8
XR$1$TB_313_1
  6
AUSGEZOGEN
 62
    32
440
 33554687
370
    35
100
AcDbLine
 10
11.551317
 20
1.65513
 30
0.0
 11
10.926321
 21
1.65513
 31
0.0
  0
LINE
  5
11C
330
1F
100
AcDbEntity
  8
XR$1$TB_313_1
  6
AUSGEZOGEN
 62
     7
440
 33554687
370
    18
100
AcDbLine
 10
11.551317
 20
1.714523
 30
0.0
 11
11.813149
 21
1.714523
 31
0.0
  0
LINE
  5
11D
330
1F
100
AcDbEntity
  8
XR$1$TB_313_1
  6
AUSGEZOGEN
 62
     7
440
 33554687
370
    18
100
AcDbLine
 10
11.551317
 20
1.66513
 30
0.0
 11
11.551317
 21
1.714523
 31
0.0
  0
LINE
  5
11E
330
1F
100
AcDbEntity
  8
XR$1$TB_313_1
  6
AUSGEZOGEN
 62
     1
440
 33554687
370
    18
100
AcDbLine
 10
11.551317
 20
1.44713
 30
0.0
 11
11.551317
 21
1.46713
 31
0.0
  0
HATCH
  5
120
102
{ACAD_REACTORS
330
11F
102
}
330
1F
100
AcDbEntity
  8
XR$1$TB_313_1
  6
AUSGEZOGEN
 62
     9
440
 33554687
370
    18
100
AcDbHatch
 10
0.0
 20
0.0
 30
0.0
210
0.0
220
0.0
230
1.0
  2
SOLID
 70
     1
 71
     0
 91
        1
 92
        3
 72
     0
 73
     1
 93
        4
 10
10.92632074718136
 20
1.422929246745582
 10
10.92632074718136
 20
1.402929246745654
 10
11.05701545969587
 20
1.402929246745654
 10
11.05701545969587
 20
1.422929246745582
 97
        0
 75
     0
 76
     1
 98
        0
  0
HATCH
  5
121
102
{ACAD_REACTORS
330
11F
102
}
330
1F
100
AcDbEntity
  8
XR$1$TB_313_1
  6
AUSGEZOGEN
 62
     9
440
 33554687
370
    18
100
AcDbHatch
 10
0.0
 20
0.0
 30
0.0
210
0.0
220
0.0
230
1.0
  2
SOLID
 70
     1
 71
     0
 91
        1
 92
        3
 72
     0
 73
     1
 93
        4
 10
11.06501545969587
 20
1.422929246745582
 10
11.06501545969587
 20
1.402929246745654
 10
11.55701545969587
 20
1.402929246745654
 10
11.55701545969587
 20
1.423132093516115
 97
        0
 75
     0
 76
     1
 98
        0
  0
MTEXT
  5
122
330
1F
100
AcDbEntity
  8
XR$1$TB_313_1
  6
AUSGEZOGEN
 62
     7
440
 33554687
370
    35
100
AcDbMText
 10
11.322532
 20
1.376752
 30
0.0
 40
0.0125
 41
0.13281
 46
0.0
 71
     7
 72
     5
  1
\W0.93;Art.-Nr.: 627-XXX
  7
ARIAL
 73
     1
 44
1.0
  0
LINE
  5
123
330
1F
100
AcDbEntity
  8
XR$1$TB_313_1
  6
AUSGEZOGEN
 62
     7
440
 33554687
370
    25
100
AcDbLine
 10
11.057015
 20
1.402929
 30
0.0
 11
11.057015
 21
1.422929
 31
0.0
  0
LINE
  5
124
330
1F
100
AcDbEntity
  8
XR$1$TB_313_1
  6
AUSGEZOGEN
 62
     7
440
 33554687
370
    25
100
AcDbLine
 10
11.065015
 20
1.402929
 30
0.0
 11
11.065015
 21
1.422929
 31
0.0
  0
LINE
  5
125
330
1F
100
AcDbEntity
  8
XR$1$TB_313_1
  6
AUSGEZOGEN
 62
     7
440
 33554687
370
    25
100
AcDbLine
 10
11.557015
 20
1.402929
 30
0.0
 11
11.065015
 21
1.402929
 31
0.0
  0
LINE
  5
126
330
1F
100
AcDbEntity
  8
XR$1$TB_313_1
  6
AUSGEZOGEN
 62
     7
440
 33554687
370
    25
100
AcDbLine
 10
11.557015
 20
1.422929
 30
0.0
 11
11.065015
 21
1.422929
 31
0.0
  0
LINE
  5
127
330
1F
100
AcDbEntity
  8
XR$1$TB_313_1
  6
VERDECKT2_S2
 62
     7
440
 33554687
370
    13
100
AcDbLine
 10
11.557015
 20
1.416924
 30
0.0
 11
11.065015
 21
1.416924
 31
0.0
  0
LINE
  5
128
330
1F
100
AcDbEntity
  8
XR$1$TB_313_1
  6
VERDECKT2_S2
 62
     7
440
 33554687
370
    13
100
AcDbLine
 10
11.557015
 20
1.408929
 30
0.0
 11
11.065015
 21
1.408929
 31
0.0
  0
LINE
  5
129
330
1F
100
AcDbEntity
  8
XR$1$TB_313_1
  6
AUSGEZOGEN
 62
     7
440
 33554687
370
    25
100
AcDbLine
 10
11.057015
 20
1.402929
 30
0.0
 11
10.926321
 21
1.402929
 31
0.0
  0
LINE
  5
12A
330
1F
100
AcDbEntity
  8
XR$1$TB_313_1
  6
AUSGEZOGEN
 62
     7
440
 33554687
370
    25
100
AcDbLine
 10
11.057015
 20
1.422929
 30
0.0
 11
10.926321
 21
1.422929
 31
0.0
  0
LINE
  5
12B
330
1F
100
AcDbEntity
  8
XR$1$TB_313_1
  6
VERDECKT2_S2
 62
     7
440
 33554687
370
    13
100
AcDbLine
 10
11.057015
 20
1.416924
 30
0.0
 11
10.926321
 21
1.416924
 31
0.0
  0
LINE
  5
12C
330
1F
100
AcDbEntity
  8
XR$1$TB_313_1
  6
VERDECKT2_S2
 62
     7
440
 33554687
370
    13
100
AcDbLine
 10
11.057015
 20
1.408929
 30
0.0
 11
10.926321
 21
1.408929
 31
0.0
  0
LINE
  5
12E
102
{ACAD_REACTORS
330
12D
102
}
330
1F
100
AcDbEntity
  8
XR$1$TB_313_1
  6
AUSGEZOGEN
 62
     7
440
 33554687
370
    18
100
AcDbLine
 10
11.449504
 20
1.382585
 30
0.0
 11
11.476539
 21
1.426078
 31
0.0
  0
LINE
  5
12F
102
{ACAD_REACTORS
330
12D
102
}
330
1F
100
AcDbEntity
  8
XR$1$TB_313_1
  6
AUSGEZOGEN
 62
     7
440
 33554687
370
    18
100
AcDbLine
 10
11.470996
 20
1.41716
 30
0.0
 11
11.4706
 21
1.416523
 31
0.0
  0
LINE
  5
130
102
{ACAD_REACTORS
330
12D
102
}
330
1F
100
AcDbEntity
  8
XR$1$TB_313_1
  6
AUSGEZOGEN
 62
     7
440
 33554687
370
    18
100
AcDbLine
 10
11.476539
 20
1.426078
 30
0.0
 11
11.476539
 21
1.426078
 31
0.0
  0
LINE
  5
131
102
{ACAD_REACTORS
330
12D
102
}
330
1F
100
AcDbEntity
  8
XR$1$TB_313_1
  6
AUSGEZOGEN
 62
     7
440
 33554687
370
    18
100
AcDbLine
 10
11.476539
 20
1.426078
 30
0.0
 11
11.476539
 21
1.426078
 31
0.0
  0
LINE
  5
132
102
{ACAD_REACTORS
330
12D
102
}
330
1F
100
AcDbEntity
  8
XR$1$TB_313_1
  6
AUSGEZOGEN
 62
     7
440
 33554687
370
    18
100
AcDbLine
 10
11.476539
 20
1.426078
 30
0.0
 11
11.476539
 21
1.426078
 31
0.0
  0
LINE
  5
133
102
{ACAD_REACTORS
330
12D
102
}
330
1F
100
AcDbEntity
  8
XR$1$TB_313_1
  6
AUSGEZOGEN
 62
     7
440
 33554687
370
    18
100
AcDbLine
 10
11.476539
 20
1.426078
 30
0.0
 11
11.469722
 21
1.417952
 31
0.0
  0
LINE
  5
134
102
{ACAD_REACTORS
330
12D
102
}
330
1F
100
AcDbEntity
  8
XR$1$TB_313_1
  6
AUSGEZOGEN
 62
     7
440
 33554687
370
    18
100
AcDbLine
 10
11.469722
 20
1.417952
 30
0.0
 11
11.47227
 21
1.416368
 31
0.0
  0
LINE
  5
135
102
{ACAD_REACTORS
330
12D
102
}
330
1F
100
AcDbEntity
  8
XR$1$TB_313_1
  6
AUSGEZOGEN
 62
     7
440
 33554687
370
    18
100
AcDbLine
 10
11.47227
 20
1.416368
 30
0.0
 11
11.476539
 21
1.426078
 31
0.0
  0
HATCH
  5
136
102
{ACAD_REACTORS
330
12D
102
}
330
1F
100
AcDbEntity
  8
XR$1$TB_313_1
  6
AUSGEZOGEN
 62
     7
440
 33554687
370
    18
100
AcDbHatch
 10
0.0
 20
0.0
 30
0.0
210
0.0
220
0.0
230
1.0
  2
SOLID
 70
     1
 71
     0
 91
        1
 92
        3
 72
     0
 73
     1
 93
        3
 10
11.47226965332031
 20
1.416368103027344
 10
11.47653881835937
 20
1.426077575683594
 10
11.4697216796875
 20
1.417951782226563
 97
        0
 75
     0
 76
     1
 98
        0
  0
ARC
  5
137
330
1F
100
AcDbEntity
  8
XR$1$TB_313_1
  6
AUSGEZOGEN
 62
     7
440
 33554687
370
    13
100
AcDbCircle
 10
11.053288
 20
1.42713
 30
0.0
 40
0.0015004495729133
100
AcDbArc
 50
195.0
 51
195.703284
  0
LWPOLYLINE
  5
138
330
1F
100
AcDbEntity
  8
XR$1$TB_313_1
  6
AUSGEZOGEN
 62
     7
440
 33554687
370
    13
100
AcDbPolyline
 90
        3
 70
     0
 43
0.0
 10
11.103298
 20
1.425456
 10
11.104589
 20
1.426993
 10
11.104779
 20
1.42713
  0
LWPOLYLINE
  5
139
330
1F
100
AcDbEntity
  8
XR$1$TB_313_1
  6
AUSGEZOGEN
 62
     7
440
 33554687
370
    13
100
AcDbPolyline
 90
        3
 70
     0
 43
0.0
 10
11.018732
 20
1.425456
 10
11.017442
 20
1.426993
 10
11.017252
 20
1.42713
  0
LWPOLYLINE
  5
13A
330
1F
100
AcDbEntity
  8
XR$1$TB_313_1
  6
AUSGEZOGEN
 62
     7
440
 33554687
370
    13
100
AcDbPolyline
 90
        3
 70
     0
 43
0.0
 10
11.047282
 20
1.425456
 10
11.048572
 20
1.426993
 10
11.048762
 20
1.42713
  0
ARC
  5
13B
330
1F
100
AcDbEntity
  8
XR$1$TB_313_1
  6
AUSGEZOGEN
 62
     7
440
 33554687
370
    18
100
AcDbCircle
 10
10.996576
 20
1.431131
 30
0.0
 40
0.002000599430541
100
AcDbArc
 50
210.0
 51
270.0
  0
ARC
  5
13C
330
1F
100
AcDbEntity
  8
XR$1$TB_313_1
  6
AUSGEZOGEN
 62
     7
440
 33554687
370
    18
100
AcDbCircle
 10
10.996576
 20
1.431131
 30
0.0
 40
0.0040011988610821
100
AcDbArc
 50
210.0
 51
270.0
  0
LWPOLYLINE
  5
13D
330
1F
100
AcDbEntity
  8
XR$1$TB_313_1
  6
AUSGEZOGEN
 62
     7
440
 33554687
370
    18
100
AcDbPolyline
 90
        3
 70
     0
 43
0.0
 10
11.012001
 20
1.42713
 10
11.014909
 20
1.426379
 10
11.01705
 20
1.424374
  0
LWPOLYLINE
  5
13E
330
1F
100
AcDbEntity
  8
XR$1$TB_313_1
  6
AUSGEZOGEN
 62
     7
440
 33554687
370
    18
100
AcDbPolyline
 90
       27
 70
     1
 43
0.0
 10
11.026781
 20
1.426631
 10
11.027381
 20
1.426389
 10
11.02776
 20
1.426104
 10
11.028005
 20
1.425477
 10
11.027751
 20
1.424833
 10
11.027278
 20
1.424425
 10
11.026728
 20
1.424215
 10
11.026434
 20
1.424173
 10
11.02627
 20
1.424167
 10
11.026133
 20
1.424171
 10
11.025972
 20
1.424185
 10
11.025688
 20
1.424232
 10
11.024719
 20
1.424569
 10
11.023681
 20
1.425148
 10
11.02269
 20
1.42585
 10
11.022158
 20
1.426337
 10
11.022004
 20
1.42665
 10
11.022178
 20
1.426833
 10
11.022601
 20
1.426926
 10
11.023073
 20
1.426961
 10
11.023364
 20
1.426969
 10
11.023572
 20
1.426971
 10
11.023778
 20
1.42697
 10
11.02406
 20
1.426965
 10
11.0247
 20
1.426938
 10
11.025771
 20
1.426837
 10
11.026781
 20
1.426631
  0
LWPOLYLINE
  5
13F
330
1F
100
AcDbEntity
  8
XR$1$TB_313_1
  6
AUSGEZOGEN
 62
     7
440
 33554687
370
    18
100
AcDbPolyline
 90
        7
 70
     0
 43
0.0
 10
11.024948
 20
1.426922
 10
11.025332
 20
1.426808
 10
11.025847
 20
1.426707
 10
11.026101
 20
1.426682
 10
11.026295
 20
1.426676
 10
11.026501
 20
1.426683
 10
11.026568
 20
1.426689
  0
LWPOLYLINE
  5
140
330
1F
100
AcDbEntity
  8
XR$1$TB_313_1
  6
AUSGEZOGEN
 62
     7
440
 33554687
370
    18
100
AcDbPolyline
 90
       27
 70
     1
 43
0.0
 10
11.041103
 20
1.426924
 10
11.041511
 20
1.426949
 10
11.042026
 20
1.426967
 10
11.042284
 20
1.42697
 10
11.042485
 20
1.426971
 10
11.042702
 20
1.426968
 10
11.043033
 20
1.426957
 10
11.04372
 20
1.426871
 10
11.044001
 20
1.426691
 10
11.043874
 20
1.426358
 10
11.043285
 20
1.42582
 10
11.042275
 20
1.425111
 10
11.041331
 20
1.424586
 10
11.040484
 20
1.424269
 10
11.040211
 20
1.424209
 10
11.039986
 20
1.424179
 10
11.039838
 20
1.424169
 10
11.0397
 20
1.424168
 10
11.039515
 20
1.424179
 10
11.039121
 20
1.424258
 10
11.038488
 20
1.4246
 10
11.038045
 20
1.425254
 10
11.038106
 20
1.425898
 10
11.038572
 20
1.426354
 10
11.039308
 20
1.426653
 10
11.040196
 20
1.426831
 10
11.041103
 20
1.426924
  0
LWPOLYLINE
  5
141
330
1F
100
AcDbEntity
  8
XR$1$TB_313_1
  6
AUSGEZOGEN
 62
     7
440
 33554687
370
    18
100
AcDbPolyline
 90
        7
 70
     0
 43
0.0
 10
11.039446
 20
1.426689
 10
11.039573
 20
1.42668
 10
11.03977
 20
1.426676
 10
11.039972
 20
1.426686
 10
11.040263
 20
1.426721
 10
11.040786
 20
1.426836
 10
11.041066
 20
1.426922
  0
LWPOLYLINE
  5
142
330
1F
100
AcDbEntity
  8
XR$1$TB_313_1
  6
AUSGEZOGEN
 62
     7
440
 33554687
370
    18
100
AcDbPolyline
 90
        3
 70
     0
 43
0.0
 10
11.054013
 20
1.42713
 10
11.051105
 20
1.426379
 10
11.048965
 20
1.424374
  0
LWPOLYLINE
  5
143
330
1F
100
AcDbEntity
  8
XR$1$TB_313_1
  6
AUSGEZOGEN
 62
     7
440
 33554687
370
    18
100
AcDbPolyline
 90
        3
 70
     0
 43
0.0
 10
11.068018
 20
1.42713
 10
11.070926
 20
1.426379
 10
11.073066
 20
1.424374
  0
LWPOLYLINE
  5
144
330
1F
100
AcDbEntity
  8
XR$1$TB_313_1
  6
AUSGEZOGEN
 62
     7
440
 33554687
370
    18
100
AcDbPolyline
 90
        3
 70
     0
 43
0.0
 10
11.11003
 20
1.42713
 10
11.107122
 20
1.426379
 10
11.104981
 20
1.424374
  0
LWPOLYLINE
  5
145
330
1F
100
AcDbEntity
  8
XR$1$TB_313_1
  6
AUSGEZOGEN
 62
     7
440
 33554687
370
    18
100
AcDbPolyline
 90
       27
 70
     1
 43
0.0
 10
11.082798
 20
1.426631
 10
11.083398
 20
1.426389
 10
11.083777
 20
1.426104
 10
11.084022
 20
1.425477
 10
11.083768
 20
1.424833
 10
11.083295
 20
1.424425
 10
11.082744
 20
1.424215
 10
11.082451
 20
1.424173
 10
11.082287
 20
1.424167
 10
11.08215
 20
1.424171
 10
11.081988
 20
1.424185
 10
11.081704
 20
1.424232
 10
11.080736
 20
1.424569
 10
11.079698
 20
1.425148
 10
11.078707
 20
1.42585
 10
11.078175
 20
1.426337
 10
11.078021
 20
1.42665
 10
11.078195
 20
1.426833
 10
11.078618
 20
1.426926
 10
11.079089
 20
1.426961
 10
11.079381
 20
1.426969
 10
11.079588
 20
1.426971
 10
11.079794
 20
1.42697
 10
11.080077
 20
1.426965
 10
11.080717
 20
1.426938
 10
11.081788
 20
1.426837
 10
11.082798
 20
1.426631
  0
LWPOLYLINE
  5
146
330
1F
100
AcDbEntity
  8
XR$1$TB_313_1
  6
AUSGEZOGEN
 62
     7
440
 33554687
370
    18
100
AcDbPolyline
 90
        7
 70
     0
 43
0.0
 10
11.080965
 20
1.426922
 10
11.081349
 20
1.426808
 10
11.081863
 20
1.426707
 10
11.082118
 20
1.426682
 10
11.082312
 20
1.426676
 10
11.082518
 20
1.426683
 10
11.082585
 20
1.426689
  0
LWPOLYLINE
  5
147
330
1F
100
AcDbEntity
  8
XR$1$TB_313_1
  6
AUSGEZOGEN
 62
     7
440
 33554687
370
    18
100
AcDbPolyline
 90
       27
 70
     1
 43
0.0
 10
11.09712
 20
1.426924
 10
11.097528
 20
1.426949
 10
11.098042
 20
1.426967
 10
11.098301
 20
1.42697
 10
11.098502
 20
1.426971
 10
11.098718
 20
1.426968
 10
11.09905
 20
1.426957
 10
11.099737
 20
1.426871
 10
11.100018
 20
1.426691
 10
11.099891
 20
1.426358
 10
11.099302
 20
1.42582
 10
11.098291
 20
1.425111
 10
11.097348
 20
1.424586
 10
11.096501
 20
1.424269
 10
11.096228
 20
1.424209
 10
11.096003
 20
1.424179
 10
11.095855
 20
1.424169
 10
11.095717
 20
1.424168
 10
11.095531
 20
1.424179
 10
11.095137
 20
1.424258
 10
11.094504
 20
1.4246
 10
11.094062
 20
1.425254
 10
11.094122
 20
1.425898
 10
11.094589
 20
1.426354
 10
11.095325
 20
1.426653
 10
11.096213
 20
1.426831
 10
11.09712
 20
1.426924
  0
LWPOLYLINE
  5
148
330
1F
100
AcDbEntity
  8
XR$1$TB_313_1
  6
AUSGEZOGEN
 62
     7
440
 33554687
370
    18
100
AcDbPolyline
 90
        7
 70
     0
 43
0.0
 10
11.095463
 20
1.426689
 10
11.09559
 20
1.42668
 10
11.095786
 20
1.426676
 10
11.095988
 20
1.426686
 10
11.09628
 20
1.426721
 10
11.096803
 20
1.426836
 10
11.097083
 20
1.426922
  0
ARC
  5
149
330
1F
100
AcDbEntity
  8
XR$1$TB_313_1
  6
AUSGEZOGEN
 62
     7
440
 33554687
370
    18
100
AcDbCircle
 10
11.125455
 20
1.431131
 30
0.0
 40
0.002000599430541
100
AcDbArc
 50
270.0
 51
330.0
  0
ARC
  5
14A
330
1F
100
AcDbEntity
  8
XR$1$TB_313_1
  6
AUSGEZOGEN
 62
     7
440
 33554687
370
    18
100
AcDbCircle
 10
11.125455
 20
1.431131
 30
0.0
 40
0.004001198861082
100
AcDbArc
 50
270.0
 51
330.0
  0
ARC
  5
14B
330
1F
100
AcDbEntity
  8
XR$1$TB_313_1
  6
AUSGEZOGEN
 62
     7
440
 33554687
370
    18
100
AcDbCircle
 10
10.982718
 20
1.443129
 30
0.0
 40
0.002000599430541
100
AcDbArc
 50
30.0
 51
90.0
  0
ARC
  5
14C
330
1F
100
AcDbEntity
  8
XR$1$TB_313_1
  6
AUSGEZOGEN
 62
     7
440
 33554687
370
    18
100
AcDbCircle
 10
10.982718
 20
1.443129
 30
0.0
 40
0.004001198861082
100
AcDbArc
 50
30.0
 51
90.0
  0
ARC
  5
14D
330
1F
100
AcDbEntity
  8
XR$1$TB_313_1
  6
AUSGEZOGEN
 62
     7
440
 33554687
370
    18
100
AcDbCircle
 10
11.139312
 20
1.443129
 30
0.0
 40
0.002000599430541
100
AcDbArc
 50
90.0
 51
150.0
  0
ARC
  5
14E
330
1F
100
AcDbEntity
  8
XR$1$TB_313_1
  6
AUSGEZOGEN
 62
     7
440
 33554687
370
    18
100
AcDbCircle
 10
11.139312
 20
1.443129
 30
0.0
 40
0.004001198861082
100
AcDbArc
 50
90.0
 51
150.0
  0
LWPOLYLINE
  5
14F
330
1F
100
AcDbEntity
  8
XR$1$TB_313_1
  6
AUSGEZOGEN
 62
     7
440
 33554687
370
    13
100
AcDbPolyline
 90
        3
 70
     0
 43
0.0
 10
11.020356
 20
1.422929
 10
11.019807
 20
1.423784
 10
11.018732
 20
1.425456
  0
LWPOLYLINE
  5
150
330
1F
100
AcDbEntity
  8
XR$1$TB_313_1
  6
AUSGEZOGEN
 62
     7
440
 33554687
370
    13
100
AcDbPolyline
 90
        3
 70
     0
 43
0.0
 10
11.045658
 20
1.422929
 10
11.046207
 20
1.423784
 10
11.047282
 20
1.425456
  0
LWPOLYLINE
  5
151
330
1F
100
AcDbEntity
  8
XR$1$TB_313_1
  6
AUSGEZOGEN
 62
     7
440
 33554687
370
    13
100
AcDbPolyline
 90
        3
 70
     0
 43
0.0
 10
11.101675
 20
1.422929
 10
11.102224
 20
1.423784
 10
11.103298
 20
1.425456
  0
LWPOLYLINE
  5
152
330
1F
100
AcDbEntity
  8
XR$1$TB_313_1
  6
AUSGEZOGEN
 62
     7
440
 33554687
370
    13
100
AcDbPolyline
 90
        3
 70
     0
 43
0.0
 10
11.085023
 20
1.414927
 10
11.084271
 20
1.416116
 10
11.084265
 20
1.416127
  0
LWPOLYLINE
  5
153
330
1F
100
AcDbEntity
  8
XR$1$TB_313_1
  6
AUSGEZOGEN
 62
     7
440
 33554687
370
    13
100
AcDbPolyline
 90
        3
 70
     0
 43
0.0
 10
11.084265
 20
1.416127
 10
11.084095
 20
1.416484
 10
11.084022
 20
1.416798
  0
LWPOLYLINE
  5
154
330
1F
100
AcDbEntity
  8
XR$1$TB_313_1
  6
AUSGEZOGEN
 62
     7
440
 33554687
370
    13
100
AcDbPolyline
 90
        3
 70
     0
 43
0.0
 10
11.094025
 20
1.416798
 10
11.093953
 20
1.416484
 10
11.093782
 20
1.416127
  0
LWPOLYLINE
  5
155
330
1F
100
AcDbEntity
  8
XR$1$TB_313_1
  6
AUSGEZOGEN
 62
     7
440
 33554687
370
    13
100
AcDbPolyline
 90
        3
 70
     0
 43
0.0
 10
11.093782
 20
1.416127
 10
11.093776
 20
1.416116
 10
11.093025
 20
1.414927
  0
ARC
  5
156
330
1F
100
AcDbEntity
  8
XR$1$TB_313_1
  6
AUSGEZOGEN
 62
     7
440
 33554687
370
    13
100
AcDbCircle
 10
11.088626
 20
1.416427
 30
0.0
 40
0.0008002397722164
100
AcDbArc
 50
223.432537
 51
270.0
  0
ARC
  5
157
330
1F
100
AcDbEntity
  8
XR$1$TB_313_1
  6
AUSGEZOGEN
 62
     7
440
 33554687
370
    13
100
AcDbCircle
 10
11.089422
 20
1.416427
 30
0.0
 40
0.0008002397722164
100
AcDbArc
 50
270.0
 51
316.567463
  0
ARC
  5
158
330
1F
100
AcDbEntity
  8
XR$1$TB_313_1
  6
AUSGEZOGEN
 62
     7
440
 33554687
370
    13
100
AcDbCircle
 10
11.087464
 20
1.415327
 30
0.0
 40
0.0008002397722164
100
AcDbArc
 50
43.432537
 51
90.0
  0
ARC
  5
159
330
1F
100
AcDbEntity
  8
XR$1$TB_313_1
  6
AUSGEZOGEN
 62
     7
440
 33554687
370
    13
100
AcDbCircle
 10
11.090584
 20
1.415327
 30
0.0
 40
0.0008002397722164
100
AcDbArc
 50
90.0
 51
136.567463
  0
LWPOLYLINE
  5
15A
330
1F
100
AcDbEntity
  8
XR$1$TB_313_1
  6
AUSGEZOGEN
 62
     7
440
 33554687
370
    13
100
AcDbPolyline
 90
        4
 70
     0
 43
0.0
 10
11.077291
 20
1.417802
 10
11.078581
 20
1.416264
 10
11.08021
 20
1.415093
 10
11.081021
 20
1.41471
  0
ARC
  5
15B
330
1F
100
AcDbEntity
  8
XR$1$TB_313_1
  6
AUSGEZOGEN
 62
     7
440
 33554687
370
    13
100
AcDbCircle
 10
11.090049
 20
1.414827
 30
0.0
 40
0.0012003596583246
100
AcDbArc
 50
270.0
 51
324.314665
  0
ARC
  5
15C
330
1F
100
AcDbEntity
  8
XR$1$TB_313_1
  6
AUSGEZOGEN
 62
     7
440
 33554687
370
    13
100
AcDbCircle
 10
11.087998
 20
1.414827
 30
0.0
 40
0.0012003596583246
100
AcDbArc
 50
215.685335
 51
270.0
  0
LWPOLYLINE
  5
15D
330
1F
100
AcDbEntity
  8
XR$1$TB_313_1
  6
AUSGEZOGEN
 62
     7
440
 33554687
370
    13
100
AcDbPolyline
 90
        4
 70
     0
 43
0.0
 10
11.100757
 20
1.417802
 10
11.099467
 20
1.416264
 10
11.097837
 20
1.415093
 10
11.097026
 20
1.41471
  0
LWPOLYLINE
  5
15E
330
1F
100
AcDbEntity
  8
XR$1$TB_313_1
  6
AUSGEZOGEN
 62
     7
440
 33554687
370
    13
100
AcDbPolyline
 90
        3
 70
     0
 43
0.0
 10
11.078974
 20
1.418884
 10
11.076957
 20
1.422021
 10
11.076373
 20
1.422929
  0
LWPOLYLINE
  5
15F
330
1F
100
AcDbEntity
  8
XR$1$TB_313_1
  6
AUSGEZOGEN
 62
     7
440
 33554687
370
    13
100
AcDbPolyline
 90
        3
 70
     0
 43
0.0
 10
11.099074
 20
1.418884
 10
11.101091
 20
1.422021
 10
11.101675
 20
1.422929
  0
LWPOLYLINE
  5
160
330
1F
100
AcDbEntity
  8
XR$1$TB_313_1
  6
AUSGEZOGEN
 62
     7
440
 33554687
370
    13
100
AcDbPolyline
 90
        4
 70
     0
 43
0.0
 10
11.073995
 20
1.422929
 10
11.074009
 20
1.422907
 10
11.075655
 20
1.420346
 10
11.077291
 20
1.417802
  0
LWPOLYLINE
  5
161
330
1F
100
AcDbEntity
  8
XR$1$TB_313_1
  6
AUSGEZOGEN
 62
     7
440
 33554687
370
    13
100
AcDbPolyline
 90
        4
 70
     0
 43
0.0
 10
11.104053
 20
1.422929
 10
11.104038
 20
1.422907
 10
11.102393
 20
1.420346
 10
11.100757
 20
1.417802
  0
LWPOLYLINE
  5
162
330
1F
100
AcDbEntity
  8
XR$1$TB_313_1
  6
AUSGEZOGEN
 62
     7
440
 33554687
370
    13
100
AcDbPolyline
 90
        4
 70
     0
 43
0.0
 10
11.029006
 20
1.414927
 10
11.028255
 20
1.416116
 10
11.028078
 20
1.416484
 10
11.028006
 20
1.416798
  0
LWPOLYLINE
  5
163
330
1F
100
AcDbEntity
  8
XR$1$TB_313_1
  6
AUSGEZOGEN
 62
     7
440
 33554687
370
    13
100
AcDbPolyline
 90
        4
 70
     0
 43
0.0
 10
11.038009
 20
1.416798
 10
11.037936
 20
1.416484
 10
11.03776
 20
1.416116
 10
11.037008
 20
1.414927
  0
ARC
  5
164
330
1F
100
AcDbEntity
  8
XR$1$TB_313_1
  6
AUSGEZOGEN
 62
     7
440
 33554687
370
    13
100
AcDbCircle
 10
11.032609
 20
1.416427
 30
0.0
 40
0.0008002397722164
100
AcDbArc
 50
223.432537
 51
270.0
  0
ARC
  5
165
330
1F
100
AcDbEntity
  8
XR$1$TB_313_1
  6
AUSGEZOGEN
 62
     7
440
 33554687
370
    13
100
AcDbCircle
 10
11.033405
 20
1.416427
 30
0.0
 40
0.0008002397722164
100
AcDbArc
 50
270.0
 51
316.567463
  0
ARC
  5
166
330
1F
100
AcDbEntity
  8
XR$1$TB_313_1
  6
AUSGEZOGEN
 62
     7
440
 33554687
370
    13
100
AcDbCircle
 10
11.031447
 20
1.415327
 30
0.0
 40
0.0008002397722164
100
AcDbArc
 50
43.432537
 51
90.0
  0
ARC
  5
167
330
1F
100
AcDbEntity
  8
XR$1$TB_313_1
  6
AUSGEZOGEN
 62
     7
440
 33554687
370
    13
100
AcDbCircle
 10
11.034567
 20
1.415327
 30
0.0
 40
0.0008002397722164
100
AcDbArc
 50
90.0
 51
136.567463
  0
LWPOLYLINE
  5
168
330
1F
100
AcDbEntity
  8
XR$1$TB_313_1
  6
AUSGEZOGEN
 62
     7
440
 33554687
370
    13
100
AcDbPolyline
 90
        4
 70
     0
 43
0.0
 10
11.021274
 20
1.417802
 10
11.022564
 20
1.416264
 10
11.024193
 20
1.415093
 10
11.025005
 20
1.41471
  0
ARC
  5
169
330
1F
100
AcDbEntity
  8
XR$1$TB_313_1
  6
AUSGEZOGEN
 62
     7
440
 33554687
370
    13
100
AcDbCircle
 10
11.034033
 20
1.414827
 30
0.0
 40
0.0012003596583246
100
AcDbArc
 50
270.0
 51
324.314665
  0
ARC
  5
16A
330
1F
100
AcDbEntity
  8
XR$1$TB_313_1
  6
AUSGEZOGEN
 62
     7
440
 33554687
370
    13
100
AcDbCircle
 10
11.031981
 20
1.414827
 30
0.0
 40
0.0012003596583246
100
AcDbArc
 50
215.685335
 51
270.0
  0
LWPOLYLINE
  5
16B
330
1F
100
AcDbEntity
  8
XR$1$TB_313_1
  6
AUSGEZOGEN
 62
     7
440
 33554687
370
    13
100
AcDbPolyline
 90
        4
 70
     0
 43
0.0
 10
11.04474
 20
1.417802
 10
11.04345
 20
1.416264
 10
11.041821
 20
1.415093
 10
11.041009
 20
1.41471
  0
LWPOLYLINE
  5
16C
330
1F
100
AcDbEntity
  8
XR$1$TB_313_1
  6
AUSGEZOGEN
 62
     7
440
 33554687
370
    13
100
AcDbPolyline
 90
        3
 70
     0
 43
0.0
 10
11.022957
 20
1.418884
 10
11.02094
 20
1.422021
 10
11.020356
 20
1.422929
  0
LWPOLYLINE
  5
16D
330
1F
100
AcDbEntity
  8
XR$1$TB_313_1
  6
AUSGEZOGEN
 62
     7
440
 33554687
370
    13
100
AcDbPolyline
 90
        3
 70
     0
 43
0.0
 10
11.043057
 20
1.418884
 10
11.045074
 20
1.422021
 10
11.045658
 20
1.422929
  0
LWPOLYLINE
  5
16E
330
1F
100
AcDbEntity
  8
XR$1$TB_313_1
  6
AUSGEZOGEN
 62
     7
440
 33554687
370
    13
100
AcDbPolyline
 90
        4
 70
     0
 43
0.0
 10
11.017978
 20
1.422929
 10
11.017993
 20
1.422907
 10
11.019638
 20
1.420346
 10
11.021274
 20
1.417802
  0
LWPOLYLINE
  5
16F
330
1F
100
AcDbEntity
  8
XR$1$TB_313_1
  6
AUSGEZOGEN
 62
     7
440
 33554687
370
    13
100
AcDbPolyline
 90
        4
 70
     0
 43
0.0
 10
11.048036
 20
1.422929
 10
11.048022
 20
1.422907
 10
11.046376
 20
1.420346
 10
11.04474
 20
1.417802
  0
LWPOLYLINE
  5
170
330
1F
100
AcDbEntity
  8
XR$1$TB_313_1
  6
AUSGEZOGEN
 62
     7
440
 33554687
370
    13
100
AcDbPolyline
 90
        3
 70
     0
 43
0.0
 10
11.076373
 20
1.422929
 10
11.075824
 20
1.423784
 10
11.073673
 20
1.42713
  0
ARC
  5
171
330
1F
100
AcDbEntity
  8
XR$1$TB_313_1
  6
AUSGEZOGEN
 62
     7
440
 33554687
370
    13
100
AcDbCircle
 10
11.048512
 20
1.42563
 30
0.0
 40
0.0015004495729057
100
AcDbArc
 50
81.307769
 51
90.0
  0
ARC
  5
172
330
1F
100
AcDbEntity
  8
XR$1$TB_313_1
  6
AUSGEZOGEN
 62
     7
440
 33554687
370
    18
100
AcDbCircle
 10
11.053288
 20
1.42713
 30
0.0
 40
0.0015004495729057
100
AcDbArc
 50
201.443925
 51
270.0
  0
ARC
  5
173
330
1F
100
AcDbEntity
  8
XR$1$TB_313_1
  6
AUSGEZOGEN
 62
     7
440
 33554687
370
    18
100
AcDbCircle
 10
11.053288
 20
1.42713
 30
0.0
 40
0.0035010490034467
100
AcDbArc
 50
207.494728
 51
270.0
  0
ARC
  5
174
330
1F
100
AcDbEntity
  8
XR$1$TB_313_1
  6
AUSGEZOGEN
 62
     7
440
 33554687
370
    18
100
AcDbCircle
 10
11.068743
 20
1.42713
 30
0.0
 40
0.0015004495729057
100
AcDbArc
 50
270.0
 51
338.556075
  0
ARC
  5
175
330
1F
100
AcDbEntity
  8
XR$1$TB_313_1
  6
AUSGEZOGEN
 62
     7
440
 33554687
370
    18
100
AcDbCircle
 10
11.068743
 20
1.42713
 30
0.0
 40
0.0035010490034467
100
AcDbArc
 50
270.0
 51
332.505272
  0
LINE
  5
176
330
1F
100
AcDbEntity
  8
XR$1$TB_313_1
  6
STRICHPUNKT2_S5
 62
     7
440
 33554687
370
    18
100
AcDbLine
 10
10.970014
 20
1.46017
 30
0.0
 11
10.970014
 21
1.443402
 31
0.0
  0
LINE
  5
177
330
1F
100
AcDbEntity
  8
XR$1$TB_313_1
  6
STRICHPUNKT2_S5
 62
     7
440
 33554687
370
    18
100
AcDbLine
 10
11.152151
 20
1.461037
 30
0.0
 11
11.152151
 21
1.440222
 31
0.0
  0
LINE
  5
178
330
1F
100
AcDbEntity
  8
XR$1$TB_313_1
  6
AUSGEZOGEN
 62
     7
440
 33554687
370
    25
100
AcDbLine
 10
11.048512
 20
1.423521
 30
0.0
 11
11.048512
 21
1.423669
 31
0.0
  0
LINE
  5
179
330
1F
100
AcDbEntity
  8
XR$1$TB_313_1
  6
AUSGEZOGEN
 62
     7
440
 33554687
370
    13
100
AcDbLine
 10
11.051838
 20
1.426742
 30
0.0
 11
11.051843
 21
1.426724
 31
0.0
  0
LINE
  5
17A
330
1F
100
AcDbEntity
  8
XR$1$TB_313_1
  6
AUSGEZOGEN
 62
     7
440
 33554687
370
    18
100
AcDbLine
 10
11.036008
 20
1.42713
 30
0.0
 11
11.04201
 21
1.42713
 31
0.0
  0
LINE
  5
17B
330
1F
100
AcDbEntity
  8
XR$1$TB_313_1
  6
AUSGEZOGEN
 62
     7
440
 33554687
370
    18
100
AcDbLine
 10
11.031006
 20
1.42713
 30
0.0
 11
11.036008
 21
1.42713
 31
0.0
  0
LINE
  5
17C
330
1F
100
AcDbEntity
  8
XR$1$TB_313_1
  6
AUSGEZOGEN
 62
     7
440
 33554687
370
    18
100
AcDbLine
 10
11.025005
 20
1.42713
 30
0.0
 11
11.031006
 21
1.42713
 31
0.0
  0
LINE
  5
17D
330
1F
100
AcDbEntity
  8
XR$1$TB_313_1
  6
AUSGEZOGEN
 62
     7
440
 33554687
370
    18
100
AcDbLine
 10
11.031006
 20
1.429131
 30
0.0
 11
11.025005
 21
1.429131
 31
0.0
  0
LINE
  5
17E
330
1F
100
AcDbEntity
  8
XR$1$TB_313_1
  6
AUSGEZOGEN
 62
     7
440
 33554687
370
    18
100
AcDbLine
 10
11.036008
 20
1.429131
 30
0.0
 11
11.031006
 21
1.429131
 31
0.0
  0
LINE
  5
17F
330
1F
100
AcDbEntity
  8
XR$1$TB_313_1
  6
AUSGEZOGEN
 62
     7
440
 33554687
370
    18
100
AcDbLine
 10
11.04201
 20
1.429131
 30
0.0
 11
11.036008
 21
1.429131
 31
0.0
  0
LINE
  5
180
330
1F
100
AcDbEntity
  8
XR$1$TB_313_1
  6
AUSGEZOGEN
 62
     7
440
 33554687
370
    18
100
AcDbLine
 10
11.025005
 20
1.429131
 30
0.0
 11
10.996576
 21
1.429131
 31
0.0
  0
LINE
  5
181
330
1F
100
AcDbEntity
  8
XR$1$TB_313_1
  6
AUSGEZOGEN
 62
     7
440
 33554687
370
    18
100
AcDbLine
 10
10.996576
 20
1.42713
 30
0.0
 11
11.025005
 21
1.42713
 31
0.0
  0
LINE
  5
182
330
1F
100
AcDbEntity
  8
XR$1$TB_313_1
  6
AUSGEZOGEN
 62
     7
440
 33554687
370
    18
100
AcDbLine
 10
11.053288
 20
1.423629
 30
0.0
 11
11.055264
 21
1.423629
 31
0.0
  0
LINE
  5
183
330
1F
100
AcDbEntity
  8
XR$1$TB_313_1
  6
AUSGEZOGEN
 62
     7
440
 33554687
370
    18
100
AcDbLine
 10
11.055264
 20
1.423629
 30
0.0
 11
11.055264
 21
1.42563
 31
0.0
  0
LINE
  5
184
330
1F
100
AcDbEntity
  8
XR$1$TB_313_1
  6
AUSGEZOGEN
 62
     7
440
 33554687
370
    18
100
AcDbLine
 10
11.055264
 20
1.42563
 30
0.0
 11
11.053288
 21
1.42563
 31
0.0
  0
LINE
  5
185
330
1F
100
AcDbEntity
  8
XR$1$TB_313_1
  6
AUSGEZOGEN
 62
     7
440
 33554687
370
    18
100
AcDbLine
 10
11.048512
 20
1.422737
 30
0.0
 11
11.048512
 21
1.421086
 31
0.0
  0
LINE
  5
186
330
1F
100
AcDbEntity
  8
XR$1$TB_313_1
  6
AUSGEZOGEN
 62
     7
440
 33554687
370
    18
100
AcDbLine
 10
11.066767
 20
1.42563
 30
0.0
 11
11.066767
 21
1.423629
 31
0.0
  0
LINE
  5
187
330
1F
100
AcDbEntity
  8
XR$1$TB_313_1
  6
AUSGEZOGEN
 62
     7
440
 33554687
370
    18
100
AcDbLine
 10
11.068743
 20
1.42563
 30
0.0
 11
11.066767
 21
1.42563
 31
0.0
  0
LINE
  5
188
330
1F
100
AcDbEntity
  8
XR$1$TB_313_1
  6
AUSGEZOGEN
 62
     7
440
 33554687
370
    18
100
AcDbLine
 10
11.066767
 20
1.423629
 30
0.0
 11
11.068743
 21
1.423629
 31
0.0
  0
LINE
  5
189
330
1F
100
AcDbEntity
  8
XR$1$TB_313_1
  6
AUSGEZOGEN
 62
     7
440
 33554687
370
    18
100
AcDbLine
 10
11.073519
 20
1.421086
 30
0.0
 11
11.073519
 21
1.422737
 31
0.0
  0
LINE
  5
18A
330
1F
100
AcDbEntity
  8
XR$1$TB_313_1
  6
AUSGEZOGEN
 62
     7
440
 33554687
370
    18
100
AcDbLine
 10
11.073519
 20
1.423521
 30
0.0
 11
11.073519
 21
1.423669
 31
0.0
  0
LINE
  5
18B
330
1F
100
AcDbEntity
  8
XR$1$TB_313_1
  6
AUSGEZOGEN
 62
     7
440
 33554687
370
    18
100
AcDbLine
 10
11.091024
 20
1.42713
 30
0.0
 11
11.097026
 21
1.42713
 31
0.0
  0
LINE
  5
18C
330
1F
100
AcDbEntity
  8
XR$1$TB_313_1
  6
AUSGEZOGEN
 62
     7
440
 33554687
370
    18
100
AcDbLine
 10
11.086023
 20
1.42713
 30
0.0
 11
11.091024
 21
1.42713
 31
0.0
  0
LINE
  5
18D
330
1F
100
AcDbEntity
  8
XR$1$TB_313_1
  6
AUSGEZOGEN
 62
     7
440
 33554687
370
    18
100
AcDbLine
 10
11.080021
 20
1.42713
 30
0.0
 11
11.086023
 21
1.42713
 31
0.0
  0
LINE
  5
18E
330
1F
100
AcDbEntity
  8
XR$1$TB_313_1
  6
AUSGEZOGEN
 62
     7
440
 33554687
370
    18
100
AcDbLine
 10
11.086023
 20
1.429131
 30
0.0
 11
11.080021
 21
1.429131
 31
0.0
  0
LINE
  5
18F
330
1F
100
AcDbEntity
  8
XR$1$TB_313_1
  6
AUSGEZOGEN
 62
     7
440
 33554687
370
    18
100
AcDbLine
 10
11.091024
 20
1.429131
 30
0.0
 11
11.086023
 21
1.429131
 31
0.0
  0
LINE
  5
190
330
1F
100
AcDbEntity
  8
XR$1$TB_313_1
  6
AUSGEZOGEN
 62
     7
440
 33554687
370
    18
100
AcDbLine
 10
11.097026
 20
1.429131
 30
0.0
 11
11.091024
 21
1.429131
 31
0.0
  0
LINE
  5
191
330
1F
100
AcDbEntity
  8
XR$1$TB_313_1
  6
AUSGEZOGEN
 62
     7
440
 33554687
370
    18
100
AcDbLine
 10
11.080021
 20
1.429131
 30
0.0
 11
11.04201
 21
1.429131
 31
0.0
  0
LINE
  5
192
330
1F
100
AcDbEntity
  8
XR$1$TB_313_1
  6
AUSGEZOGEN
 62
     7
440
 33554687
370
    18
100
AcDbLine
 10
11.125455
 20
1.429131
 30
0.0
 11
11.097026
 21
1.429131
 31
0.0
  0
LINE
  5
193
330
1F
100
AcDbEntity
  8
XR$1$TB_313_1
  6
AUSGEZOGEN
 62
     7
440
 33554687
370
    18
100
AcDbLine
 10
11.097026
 20
1.42713
 30
0.0
 11
11.125455
 21
1.42713
 31
0.0
  0
LINE
  5
194
330
1F
100
AcDbEntity
  8
XR$1$TB_313_1
  6
STRICHLINIE_S4
 62
     7
440
 33554687
370
    13
100
AcDbLine
 10
10.967523
 20
1.44513
 30
0.0
 11
10.967523
 21
1.44713
 31
0.0
  0
LINE
  5
195
330
1F
100
AcDbEntity
  8
XR$1$TB_313_1
  6
STRICHLINIE_S4
 62
     7
440
 33554687
370
    13
100
AcDbLine
 10
10.962522
 20
1.44513
 30
0.0
 11
10.962522
 21
1.44713
 31
0.0
  0
LINE
  5
196
330
1F
100
AcDbEntity
  8
XR$1$TB_313_1
  6
STRICHLINIE_S4
 62
     7
440
 33554687
370
    13
100
AcDbLine
 10
10.975216
 20
1.44513
 30
0.0
 11
10.975216
 21
1.44713
 31
0.0
  0
LINE
  5
197
330
1F
100
AcDbEntity
  8
XR$1$TB_313_1
  6
STRICHLINIE_S4
 62
     7
440
 33554687
370
    13
100
AcDbLine
 10
10.970215
 20
1.44513
 30
0.0
 11
10.970215
 21
1.44713
 31
0.0
  0
LINE
  5
198
330
1F
100
AcDbEntity
  8
XR$1$TB_313_1
  6
AUSGEZOGEN
 62
     7
440
 33554687
370
    18
100
AcDbLine
 10
10.982718
 20
1.44713
 30
0.0
 11
10.95502
 21
1.44713
 31
0.0
  0
LINE
  5
199
330
1F
100
AcDbEntity
  8
XR$1$TB_313_1
  6
AUSGEZOGEN
 62
     7
440
 33554687
370
    18
100
AcDbLine
 10
10.95502
 20
1.44513
 30
0.0
 11
10.982718
 21
1.44513
 31
0.0
  0
LINE
  5
19A
330
1F
100
AcDbEntity
  8
XR$1$TB_313_1
  6
AUSGEZOGEN
 62
     7
440
 33554687
370
    18
100
AcDbLine
 10
10.99311
 20
1.429131
 30
0.0
 11
10.984451
 21
1.444129
 31
0.0
  0
LINE
  5
19B
330
1F
100
AcDbEntity
  8
XR$1$TB_313_1
  6
AUSGEZOGEN
 62
     7
440
 33554687
370
    18
100
AcDbLine
 10
10.95502
 20
1.44713
 30
0.0
 11
10.95502
 21
1.44513
 31
0.0
  0
LINE
  5
19C
330
1F
100
AcDbEntity
  8
XR$1$TB_313_1
  6
AUSGEZOGEN
 62
     7
440
 33554687
370
    18
100
AcDbLine
 10
10.994843
 20
1.430131
 30
0.0
 11
10.986184
 21
1.44513
 31
0.0
  0
LINE
  5
19D
330
1F
100
AcDbEntity
  8
XR$1$TB_313_1
  6
STRICHLINIE_S4
 62
     7
440
 33554687
370
    13
100
AcDbLine
 10
11.154508
 20
1.44513
 30
0.0
 11
11.154508
 21
1.44713
 31
0.0
  0
LINE
  5
19E
330
1F
100
AcDbEntity
  8
XR$1$TB_313_1
  6
STRICHLINIE_S4
 62
     7
440
 33554687
370
    13
100
AcDbLine
 10
11.159509
 20
1.44513
 30
0.0
 11
11.159509
 21
1.44713
 31
0.0
  0
LINE
  5
19F
330
1F
100
AcDbEntity
  8
XR$1$TB_313_1
  6
STRICHLINIE_S4
 62
     7
440
 33554687
370
    13
100
AcDbLine
 10
11.146815
 20
1.44513
 30
0.0
 11
11.146815
 21
1.44713
 31
0.0
  0
LINE
  5
1A0
330
1F
100
AcDbEntity
  8
XR$1$TB_313_1
  6
STRICHLINIE_S4
 62
     7
440
 33554687
370
    13
100
AcDbLine
 10
11.151816
 20
1.44513
 30
0.0
 11
11.151816
 21
1.44713
 31
0.0
  0
LINE
  5
1A1
330
1F
100
AcDbEntity
  8
XR$1$TB_313_1
  6
AUSGEZOGEN
 62
     7
440
 33554687
370
    18
100
AcDbLine
 10
11.139312
 20
1.44713
 30
0.0
 11
11.167011
 21
1.44713
 31
0.0
  0
LINE
  5
1A2
330
1F
100
AcDbEntity
  8
XR$1$TB_313_1
  6
AUSGEZOGEN
 62
     7
440
 33554687
370
    18
100
AcDbLine
 10
11.167011
 20
1.44513
 30
0.0
 11
11.139312
 21
1.44513
 31
0.0
  0
LINE
  5
1A3
330
1F
100
AcDbEntity
  8
XR$1$TB_313_1
  6
AUSGEZOGEN
 62
     7
440
 33554687
370
    18
100
AcDbLine
 10
11.128921
 20
1.429131
 30
0.0
 11
11.13758
 21
1.444129
 31
0.0
  0
LINE
  5
1A4
330
1F
100
AcDbEntity
  8
XR$1$TB_313_1
  6
AUSGEZOGEN
 62
     7
440
 33554687
370
    18
100
AcDbLine
 10
11.167011
 20
1.44713
 30
0.0
 11
11.167011
 21
1.44513
 31
0.0
  0
LINE
  5
1A5
330
1F
100
AcDbEntity
  8
XR$1$TB_313_1
  6
AUSGEZOGEN
 62
     7
440
 33554687
370
    18
100
AcDbLine
 10
11.127188
 20
1.430131
 30
0.0
 11
11.135847
 21
1.44513
 31
0.0
  0
LINE
  5
1A6
330
1F
100
AcDbEntity
  8
XR$1$TB_313_1
  6
AUSGEZOGEN
 62
     7
440
 33554687
370
    18
100
AcDbLine
 10
11.01705
 20
1.424374
 30
0.0
 11
11.017978
 21
1.422929
 31
0.0
  0
LINE
  5
1A7
330
1F
100
AcDbEntity
  8
XR$1$TB_313_1
  6
AUSGEZOGEN
 62
     7
440
 33554687
370
    18
100
AcDbLine
 10
11.048965
 20
1.424374
 30
0.0
 11
11.048036
 21
1.422929
 31
0.0
  0
LINE
  5
1A8
330
1F
100
AcDbEntity
  8
XR$1$TB_313_1
  6
AUSGEZOGEN
 62
     7
440
 33554687
370
    18
100
AcDbLine
 10
11.048512
 20
1.422737
 30
0.0
 11
11.048512
 21
1.422929
 31
0.0
  0
LINE
  5
1A9
330
1F
100
AcDbEntity
  8
XR$1$TB_313_1
  6
AUSGEZOGEN
 62
     7
440
 33554687
370
    18
100
AcDbLine
 10
11.048512
 20
1.422929
 30
0.0
 11
11.048512
 21
1.423521
 31
0.0
  0
LINE
  5
1AA
330
1F
100
AcDbEntity
  8
XR$1$TB_313_1
  6
AUSGEZOGEN
 62
     7
440
 33554687
370
    18
100
AcDbLine
 10
11.073519
 20
1.423521
 30
0.0
 11
11.073519
 21
1.422929
 31
0.0
  0
LINE
  5
1AB
330
1F
100
AcDbEntity
  8
XR$1$TB_313_1
  6
AUSGEZOGEN
 62
     7
440
 33554687
370
    18
100
AcDbLine
 10
11.073519
 20
1.422929
 30
0.0
 11
11.073519
 21
1.422737
 31
0.0
  0
LINE
  5
1AC
330
1F
100
AcDbEntity
  8
XR$1$TB_313_1
  6
AUSGEZOGEN
 62
     7
440
 33554687
370
    18
100
AcDbLine
 10
11.073066
 20
1.424374
 30
0.0
 11
11.073995
 21
1.422929
 31
0.0
  0
LINE
  5
1AD
330
1F
100
AcDbEntity
  8
XR$1$TB_313_1
  6
AUSGEZOGEN
 62
     7
440
 33554687
370
    18
100
AcDbLine
 10
11.104981
 20
1.424374
 30
0.0
 11
11.104053
 21
1.422929
 31
0.0
  0
LINE
  5
1AE
330
1F
100
AcDbEntity
  8
XR$1$TB_313_1
  6
AUSGEZOGEN
 62
     7
440
 33554687
370
    13
100
AcDbLine
 10
11.084022
 20
1.414126
 30
0.0
 11
11.084022
 21
1.416127
 31
0.0
  0
LINE
  5
1AF
330
1F
100
AcDbEntity
  8
XR$1$TB_313_1
  6
AUSGEZOGEN
 62
     7
440
 33554687
370
    13
100
AcDbLine
 10
11.084022
 20
1.417177
 30
0.0
 11
11.084022
 21
1.416127
 31
0.0
  0
LINE
  5
1B0
330
1F
100
AcDbEntity
  8
XR$1$TB_313_1
  6
AUSGEZOGEN
 62
     7
440
 33554687
370
    13
100
AcDbLine
 10
11.081114
 20
1.416879
 30
0.0
 11
11.081021
 21
1.416931
 31
0.0
  0
LINE
  5
1B1
330
1F
100
AcDbEntity
  8
XR$1$TB_313_1
  6
AUSGEZOGEN
 62
     7
440
 33554687
370
    13
100
AcDbLine
 10
11.084022
 20
1.416127
 30
0.0
 11
11.081114
 21
1.416879
 31
0.0
  0
LINE
  5
1B2
330
1F
100
AcDbEntity
  8
XR$1$TB_313_1
  6
AUSGEZOGEN
 62
     7
440
 33554687
370
    13
100
AcDbLine
 10
11.081021
 20
1.416931
 30
0.0
 11
11.078974
 21
1.418884
 31
0.0
  0
LINE
  5
1B3
330
1F
100
AcDbEntity
  8
XR$1$TB_313_1
  6
AUSGEZOGEN
 62
     7
440
 33554687
370
    13
100
AcDbLine
 10
11.096934
 20
1.416879
 30
0.0
 11
11.097026
 21
1.416931
 31
0.0
  0
LINE
  5
1B4
330
1F
100
AcDbEntity
  8
XR$1$TB_313_1
  6
AUSGEZOGEN
 62
     7
440
 33554687
370
    13
100
AcDbLine
 10
11.094025
 20
1.416127
 30
0.0
 11
11.094025
 21
1.414126
 31
0.0
  0
LINE
  5
1B5
330
1F
100
AcDbEntity
  8
XR$1$TB_313_1
  6
AUSGEZOGEN
 62
     7
440
 33554687
370
    13
100
AcDbLine
 10
11.094025
 20
1.416127
 30
0.0
 11
11.096934
 21
1.416879
 31
0.0
  0
LINE
  5
1B6
330
1F
100
AcDbEntity
  8
XR$1$TB_313_1
  6
AUSGEZOGEN
 62
     7
440
 33554687
370
    13
100
AcDbLine
 10
11.094025
 20
1.414927
 30
0.0
 11
11.084022
 21
1.414927
 31
0.0
  0
LINE
  5
1B7
330
1F
100
AcDbEntity
  8
XR$1$TB_313_1
  6
AUSGEZOGEN
 62
     7
440
 33554687
370
    13
100
AcDbLine
 10
11.094025
 20
1.416127
 30
0.0
 11
11.094025
 21
1.417177
 31
0.0
  0
LINE
  5
1B8
330
1F
100
AcDbEntity
  8
XR$1$TB_313_1
  6
AUSGEZOGEN
 62
     7
440
 33554687
370
    13
100
AcDbLine
 10
11.084022
 20
1.416127
 30
0.0
 11
11.089024
 21
1.416127
 31
0.0
  0
LINE
  5
1B9
330
1F
100
AcDbEntity
  8
XR$1$TB_313_1
  6
AUSGEZOGEN
 62
     7
440
 33554687
370
    13
100
AcDbLine
 10
11.089024
 20
1.416127
 30
0.0
 11
11.094025
 21
1.416127
 31
0.0
  0
LINE
  5
1BA
330
1F
100
AcDbEntity
  8
XR$1$TB_313_1
  6
AUSGEZOGEN
 62
     7
440
 33554687
370
    13
100
AcDbLine
 10
11.088626
 20
1.415627
 30
0.0
 11
11.089422
 21
1.415627
 31
0.0
  0
LINE
  5
1BB
330
1F
100
AcDbEntity
  8
XR$1$TB_313_1
  6
AUSGEZOGEN
 62
     7
440
 33554687
370
    13
100
AcDbLine
 10
11.094025
 20
1.417177
 30
0.0
 11
11.084022
 21
1.417177
 31
0.0
  0
LINE
  5
1BC
330
1F
100
AcDbEntity
  8
XR$1$TB_313_1
  6
AUSGEZOGEN
 62
     7
440
 33554687
370
    13
100
AcDbLine
 10
11.097026
 20
1.416931
 30
0.0
 11
11.099074
 21
1.418884
 31
0.0
  0
LINE
  5
1BD
330
1F
100
AcDbEntity
  8
XR$1$TB_313_1
  6
AUSGEZOGEN
 62
     7
440
 33554687
370
    13
100
AcDbLine
 10
11.090049
 20
1.413626
 30
0.0
 11
11.087998
 21
1.413626
 31
0.0
  0
LINE
  5
1BE
330
1F
100
AcDbEntity
  8
XR$1$TB_313_1
  6
AUSGEZOGEN
 62
     7
440
 33554687
370
    13
100
AcDbLine
 10
11.089024
 20
1.414126
 30
0.0
 11
11.084022
 21
1.414126
 31
0.0
  0
LINE
  5
1BF
330
1F
100
AcDbEntity
  8
XR$1$TB_313_1
  6
AUSGEZOGEN
 62
     7
440
 33554687
370
    13
100
AcDbLine
 10
11.094025
 20
1.414126
 30
0.0
 11
11.089024
 21
1.414126
 31
0.0
  0
LINE
  5
1C0
330
1F
100
AcDbEntity
  8
XR$1$TB_313_1
  6
AUSGEZOGEN
 62
     7
440
 33554687
370
    13
100
AcDbLine
 10
11.097026
 20
1.41471
 30
0.0
 11
11.094025
 21
1.414126
 31
0.0
  0
LINE
  5
1C1
330
1F
100
AcDbEntity
  8
XR$1$TB_313_1
  6
AUSGEZOGEN
 62
     7
440
 33554687
370
    13
100
AcDbLine
 10
11.081021
 20
1.41471
 30
0.0
 11
11.084022
 21
1.414126
 31
0.0
  0
LINE
  5
1C2
330
1F
100
AcDbEntity
  8
XR$1$TB_313_1
  6
AUSGEZOGEN
 62
     7
440
 33554687
370
    13
100
AcDbLine
 10
11.025005
 20
1.41471
 30
0.0
 11
11.028006
 21
1.414126
 31
0.0
  0
LINE
  5
1C3
330
1F
100
AcDbEntity
  8
XR$1$TB_313_1
  6
STRICHLINIE_S4
 62
     7
440
 33554687
370
    13
100
AcDbLine
 10
11.040917
 20
1.416879
 30
0.0
 11
11.038009
 21
1.416127
 31
0.0
  0
LINE
  5
1C4
330
1F
100
AcDbEntity
  8
XR$1$TB_313_1
  6
AUSGEZOGEN
 62
     7
440
 33554687
370
    13
100
AcDbLine
 10
11.028006
 20
1.414126
 30
0.0
 11
11.028006
 21
1.416127
 31
0.0
  0
LINE
  5
1C5
330
1F
100
AcDbEntity
  8
XR$1$TB_313_1
  6
AUSGEZOGEN
 62
     7
440
 33554687
370
    13
100
AcDbLine
 10
11.028006
 20
1.417177
 30
0.0
 11
11.028006
 21
1.416127
 31
0.0
  0
LINE
  5
1C6
330
1F
100
AcDbEntity
  8
XR$1$TB_313_1
  6
AUSGEZOGEN
 62
     7
440
 33554687
370
    13
100
AcDbLine
 10
11.025097
 20
1.416879
 30
0.0
 11
11.025005
 21
1.416931
 31
0.0
  0
LINE
  5
1C7
330
1F
100
AcDbEntity
  8
XR$1$TB_313_1
  6
AUSGEZOGEN
 62
     7
440
 33554687
370
    13
100
AcDbLine
 10
11.028006
 20
1.416127
 30
0.0
 11
11.025097
 21
1.416879
 31
0.0
  0
LINE
  5
1C8
330
1F
100
AcDbEntity
  8
XR$1$TB_313_1
  6
AUSGEZOGEN
 62
     7
440
 33554687
370
    13
100
AcDbLine
 10
11.025005
 20
1.416931
 30
0.0
 11
11.022957
 21
1.418884
 31
0.0
  0
LINE
  5
1C9
330
1F
100
AcDbEntity
  8
XR$1$TB_313_1
  6
AUSGEZOGEN
 62
     7
440
 33554687
370
    13
100
AcDbLine
 10
11.040917
 20
1.416879
 30
0.0
 11
11.041009
 21
1.416931
 31
0.0
  0
LINE
  5
1CA
330
1F
100
AcDbEntity
  8
XR$1$TB_313_1
  6
AUSGEZOGEN
 62
     7
440
 33554687
370
    13
100
AcDbLine
 10
11.038009
 20
1.416127
 30
0.0
 11
11.038009
 21
1.414126
 31
0.0
  0
LINE
  5
1CB
330
1F
100
AcDbEntity
  8
XR$1$TB_313_1
  6
AUSGEZOGEN
 62
     7
440
 33554687
370
    13
100
AcDbLine
 10
11.041009
 20
1.41471
 30
0.0
 11
11.038009
 21
1.414126
 31
0.0
  0
LINE
  5
1CC
330
1F
100
AcDbEntity
  8
XR$1$TB_313_1
  6
AUSGEZOGEN
 62
     7
440
 33554687
370
    13
100
AcDbLine
 10
11.038009
 20
1.416127
 30
0.0
 11
11.040917
 21
1.416879
 31
0.0
  0
LINE
  5
1CD
330
1F
100
AcDbEntity
  8
XR$1$TB_313_1
  6
AUSGEZOGEN
 62
     7
440
 33554687
370
    13
100
AcDbLine
 10
11.038009
 20
1.414927
 30
0.0
 11
11.028006
 21
1.414927
 31
0.0
  0
LINE
  5
1CE
330
1F
100
AcDbEntity
  8
XR$1$TB_313_1
  6
AUSGEZOGEN
 62
     7
440
 33554687
370
    13
100
AcDbLine
 10
11.038009
 20
1.416127
 30
0.0
 11
11.038009
 21
1.417177
 31
0.0
  0
LINE
  5
1CF
330
1F
100
AcDbEntity
  8
XR$1$TB_313_1
  6
AUSGEZOGEN
 62
     7
440
 33554687
370
    13
100
AcDbLine
 10
11.028006
 20
1.416127
 30
0.0
 11
11.033007
 21
1.416127
 31
0.0
  0
LINE
  5
1D0
330
1F
100
AcDbEntity
  8
XR$1$TB_313_1
  6
AUSGEZOGEN
 62
     7
440
 33554687
370
    13
100
AcDbLine
 10
11.033007
 20
1.416127
 30
0.0
 11
11.038009
 21
1.416127
 31
0.0
  0
LINE
  5
1D1
330
1F
100
AcDbEntity
  8
XR$1$TB_313_1
  6
AUSGEZOGEN
 62
     7
440
 33554687
370
    13
100
AcDbLine
 10
11.032609
 20
1.415627
 30
0.0
 11
11.033405
 21
1.415627
 31
0.0
  0
LINE
  5
1D2
330
1F
100
AcDbEntity
  8
XR$1$TB_313_1
  6
AUSGEZOGEN
 62
     7
440
 33554687
370
    13
100
AcDbLine
 10
11.038009
 20
1.417177
 30
0.0
 11
11.028006
 21
1.417177
 31
0.0
  0
LINE
  5
1D3
330
1F
100
AcDbEntity
  8
XR$1$TB_313_1
  6
AUSGEZOGEN
 62
     7
440
 33554687
370
    13
100
AcDbLine
 10
11.041009
 20
1.416931
 30
0.0
 11
11.043057
 21
1.418884
 31
0.0
  0
LINE
  5
1D4
330
1F
100
AcDbEntity
  8
XR$1$TB_313_1
  6
AUSGEZOGEN
 62
     7
440
 33554687
370
    13
100
AcDbLine
 10
11.034033
 20
1.413626
 30
0.0
 11
11.031981
 21
1.413626
 31
0.0
  0
LINE
  5
1D5
330
1F
100
AcDbEntity
  8
XR$1$TB_313_1
  6
AUSGEZOGEN
 62
     7
440
 33554687
370
    13
100
AcDbLine
 10
11.033007
 20
1.414126
 30
0.0
 11
11.028006
 21
1.414126
 31
0.0
  0
LINE
  5
1D6
330
1F
100
AcDbEntity
  8
XR$1$TB_313_1
  6
AUSGEZOGEN
 62
     7
440
 33554687
370
    13
100
AcDbLine
 10
11.038009
 20
1.414126
 30
0.0
 11
11.033007
 21
1.414126
 31
0.0
  0
LINE
  5
1D7
330
1F
100
AcDbEntity
  8
XR$1$TB_313_1
  6
AUSGEZOGEN
 62
     7
440
 33554687
370
    13
100
AcDbLine
 10
11.046852
 20
1.421086
 30
0.0
 11
11.048512
 21
1.421086
 31
0.0
  0
LINE
  5
1D8
330
1F
100
AcDbEntity
  8
XR$1$TB_313_1
  6
AUSGEZOGEN
 62
     7
440
 33554687
370
    18
100
AcDbLine
 10
11.04201
 20
1.42713
 30
0.0
 11
11.080021
 21
1.42713
 31
0.0
  0
LINE
  5
1D9
330
1F
100
AcDbEntity
  8
XR$1$TB_313_1
  6
AUSGEZOGEN
 62
     7
440
 33554687
370
    13
100
AcDbLine
 10
11.073519
 20
1.421086
 30
0.0
 11
11.075179
 21
1.421086
 31
0.0
  0
ARC
  5
1DA
330
1F
100
AcDbEntity
  8
XR$1$TB_313_1
  6
AUSGEZOGEN
 62
     7
440
 33554687
370
    13
100
AcDbCircle
 10
11.437593
 20
1.42713
 30
0.0
 40
0.0015004495729133
100
AcDbArc
 50
195.0
 51
195.703284
  0
LWPOLYLINE
  5
1DB
330
1F
100
AcDbEntity
  8
XR$1$TB_313_1
  6
AUSGEZOGEN
 62
     7
440
 33554687
370
    13
100
AcDbPolyline
 90
        3
 70
     0
 43
0.0
 10
11.487604
 20
1.425456
 10
11.488894
 20
1.426993
 10
11.489084
 20
1.42713
  0
LWPOLYLINE
  5
1DC
330
1F
100
AcDbEntity
  8
XR$1$TB_313_1
  6
AUSGEZOGEN
 62
     7
440
 33554687
370
    13
100
AcDbPolyline
 90
        3
 70
     0
 43
0.0
 10
11.403038
 20
1.425456
 10
11.401747
 20
1.426993
 10
11.401557
 20
1.42713
  0
LWPOLYLINE
  5
1DD
330
1F
100
AcDbEntity
  8
XR$1$TB_313_1
  6
AUSGEZOGEN
 62
     7
440
 33554687
370
    13
100
AcDbPolyline
 90
        3
 70
     0
 43
0.0
 10
11.431587
 20
1.425456
 10
11.432877
 20
1.426993
 10
11.433068
 20
1.42713
  0
ARC
  5
1DE
330
1F
100
AcDbEntity
  8
XR$1$TB_313_1
  6
AUSGEZOGEN
 62
     7
440
 33554687
370
    18
100
AcDbCircle
 10
11.380881
 20
1.431131
 30
0.0
 40
0.002000599430541
100
AcDbArc
 50
210.0
 51
270.0
  0
ARC
  5
1DF
330
1F
100
AcDbEntity
  8
XR$1$TB_313_1
  6
AUSGEZOGEN
 62
     7
440
 33554687
370
    18
100
AcDbCircle
 10
11.380881
 20
1.431131
 30
0.0
 40
0.0040011988610821
100
AcDbArc
 50
210.0
 51
270.0
  0
LWPOLYLINE
  5
1E0
330
1F
100
AcDbEntity
  8
XR$1$TB_313_1
  6
AUSGEZOGEN
 62
     7
440
 33554687
370
    18
100
AcDbPolyline
 90
        3
 70
     0
 43
0.0
 10
11.396306
 20
1.42713
 10
11.399214
 20
1.426379
 10
11.401355
 20
1.424374
  0
LWPOLYLINE
  5
1E1
330
1F
100
AcDbEntity
  8
XR$1$TB_313_1
  6
AUSGEZOGEN
 62
     7
440
 33554687
370
    18
100
AcDbPolyline
 90
       27
 70
     1
 43
0.0
 10
11.411086
 20
1.426631
 10
11.411686
 20
1.426389
 10
11.412065
 20
1.426104
 10
11.41231
 20
1.425477
 10
11.412056
 20
1.424833
 10
11.411583
 20
1.424425
 10
11.411033
 20
1.424215
 10
11.410739
 20
1.424173
 10
11.410575
 20
1.424167
 10
11.410438
 20
1.424171
 10
11.410277
 20
1.424185
 10
11.409993
 20
1.424232
 10
11.409024
 20
1.424569
 10
11.407986
 20
1.425148
 10
11.406995
 20
1.42585
 10
11.406463
 20
1.426337
 10
11.40631
 20
1.42665
 10
11.406483
 20
1.426833
 10
11.406906
 20
1.426926
 10
11.407378
 20
1.426961
 10
11.40767
 20
1.426969
 10
11.407877
 20
1.426971
 10
11.408083
 20
1.42697
 10
11.408365
 20
1.426965
 10
11.409005
 20
1.426938
 10
11.410076
 20
1.426837
 10
11.411086
 20
1.426631
  0
LWPOLYLINE
  5
1E2
330
1F
100
AcDbEntity
  8
XR$1$TB_313_1
  6
AUSGEZOGEN
 62
     7
440
 33554687
370
    18
100
AcDbPolyline
 90
        7
 70
     0
 43
0.0
 10
11.409253
 20
1.426922
 10
11.409638
 20
1.426808
 10
11.410152
 20
1.426707
 10
11.410406
 20
1.426682
 10
11.4106
 20
1.426676
 10
11.410806
 20
1.426683
 10
11.410873
 20
1.426689
  0
LWPOLYLINE
  5
1E3
330
1F
100
AcDbEntity
  8
XR$1$TB_313_1
  6
AUSGEZOGEN
 62
     7
440
 33554687
370
    18
100
AcDbPolyline
 90
       27
 70
     1
 43
0.0
 10
11.425408
 20
1.426924
 10
11.425816
 20
1.426949
 10
11.426331
 20
1.426967
 10
11.42659
 20
1.42697
 10
11.42679
 20
1.426971
 10
11.427007
 20
1.426968
 10
11.427338
 20
1.426957
 10
11.428026
 20
1.426871
 10
11.428306
 20
1.426691
 10
11.428179
 20
1.426358
 10
11.427591
 20
1.42582
 10
11.42658
 20
1.425111
 10
11.425637
 20
1.424586
 10
11.42479
 20
1.424269
 10
11.424517
 20
1.424209
 10
11.424291
 20
1.424179
 10
11.424143
 20
1.424169
 10
11.424005
 20
1.424168
 10
11.42382
 20
1.424179
 10
11.423426
 20
1.424258
 10
11.422793
 20
1.4246
 10
11.42235
 20
1.425254
 10
11.422411
 20
1.425898
 10
11.422877
 20
1.426354
 10
11.423613
 20
1.426653
 10
11.424502
 20
1.426831
 10
11.425408
 20
1.426924
  0
LWPOLYLINE
  5
1E4
330
1F
100
AcDbEntity
  8
XR$1$TB_313_1
  6
AUSGEZOGEN
 62
     7
440
 33554687
370
    18
100
AcDbPolyline
 90
        7
 70
     0
 43
0.0
 10
11.423751
 20
1.426689
 10
11.423878
 20
1.42668
 10
11.424075
 20
1.426676
 10
11.424277
 20
1.426686
 10
11.424568
 20
1.426721
 10
11.425092
 20
1.426836
 10
11.425371
 20
1.426922
  0
LWPOLYLINE
  5
1E5
330
1F
100
AcDbEntity
  8
XR$1$TB_313_1
  6
AUSGEZOGEN
 62
     7
440
 33554687
370
    18
100
AcDbPolyline
 90
        3
 70
     0
 43
0.0
 10
11.438319
 20
1.42713
 10
11.43541
 20
1.426379
 10
11.43327
 20
1.424374
  0
LWPOLYLINE
  5
1E6
330
1F
100
AcDbEntity
  8
XR$1$TB_313_1
  6
AUSGEZOGEN
 62
     7
440
 33554687
370
    18
100
AcDbPolyline
 90
        3
 70
     0
 43
0.0
 10
11.452323
 20
1.42713
 10
11.455231
 20
1.426379
 10
11.457372
 20
1.424374
  0
LWPOLYLINE
  5
1E7
330
1F
100
AcDbEntity
  8
XR$1$TB_313_1
  6
AUSGEZOGEN
 62
     7
440
 33554687
370
    18
100
AcDbPolyline
 90
        3
 70
     0
 43
0.0
 10
11.494335
 20
1.42713
 10
11.491427
 20
1.426379
 10
11.489287
 20
1.424374
  0
LWPOLYLINE
  5
1E8
330
1F
100
AcDbEntity
  8
XR$1$TB_313_1
  6
AUSGEZOGEN
 62
     7
440
 33554687
370
    18
100
AcDbPolyline
 90
       27
 70
     1
 43
0.0
 10
11.467103
 20
1.426631
 10
11.467703
 20
1.426389
 10
11.468082
 20
1.426104
 10
11.468327
 20
1.425477
 10
11.468073
 20
1.424833
 10
11.4676
 20
1.424425
 10
11.46705
 20
1.424215
 10
11.466756
 20
1.424173
 10
11.466592
 20
1.424167
 10
11.466455
 20
1.424171
 10
11.466294
 20
1.424185
 10
11.46601
 20
1.424232
 10
11.465041
 20
1.424569
 10
11.464003
 20
1.425148
 10
11.463012
 20
1.42585
 10
11.46248
 20
1.426337
 10
11.462326
 20
1.42665
 10
11.4625
 20
1.426833
 10
11.462923
 20
1.426926
 10
11.463395
 20
1.426961
 10
11.463686
 20
1.426969
 10
11.463894
 20
1.426971
 10
11.4641
 20
1.42697
 10
11.464382
 20
1.426965
 10
11.465022
 20
1.426938
 10
11.466093
 20
1.426837
 10
11.467103
 20
1.426631
  0
LWPOLYLINE
  5
1E9
330
1F
100
AcDbEntity
  8
XR$1$TB_313_1
  6
AUSGEZOGEN
 62
     7
440
 33554687
370
    18
100
AcDbPolyline
 90
        7
 70
     0
 43
0.0
 10
11.46527
 20
1.426922
 10
11.465654
 20
1.426808
 10
11.466169
 20
1.426707
 10
11.466423
 20
1.426682
 10
11.466617
 20
1.426676
 10
11.466823
 20
1.426683
 10
11.46689
 20
1.426689
  0
LWPOLYLINE
  5
1EA
330
1F
100
AcDbEntity
  8
XR$1$TB_313_1
  6
AUSGEZOGEN
 62
     7
440
 33554687
370
    18
100
AcDbPolyline
 90
       27
 70
     1
 43
0.0
 10
11.481425
 20
1.426924
 10
11.481833
 20
1.426949
 10
11.482347
 20
1.426967
 10
11.482606
 20
1.42697
 10
11.482807
 20
1.426971
 10
11.483024
 20
1.426968
 10
11.483355
 20
1.426957
 10
11.484042
 20
1.426871
 10
11.484323
 20
1.426691
 10
11.484196
 20
1.426358
 10
11.483607
 20
1.42582
 10
11.482597
 20
1.425111
 10
11.481653
 20
1.424586
 10
11.480806
 20
1.424269
 10
11.480533
 20
1.424209
 10
11.480308
 20
1.424179
 10
11.48016
 20
1.424169
 10
11.480022
 20
1.424168
 10
11.479836
 20
1.424179
 10
11.479443
 20
1.424258
 10
11.47881
 20
1.4246
 10
11.478367
 20
1.425254
 10
11.478428
 20
1.425898
 10
11.478894
 20
1.426354
 10
11.47963
 20
1.426653
 10
11.480518
 20
1.426831
 10
11.481425
 20
1.426924
  0
LWPOLYLINE
  5
1EB
330
1F
100
AcDbEntity
  8
XR$1$TB_313_1
  6
AUSGEZOGEN
 62
     7
440
 33554687
370
    18
100
AcDbPolyline
 90
        7
 70
     0
 43
0.0
 10
11.479768
 20
1.426689
 10
11.479895
 20
1.42668
 10
11.480092
 20
1.426676
 10
11.480294
 20
1.426686
 10
11.480585
 20
1.426721
 10
11.481108
 20
1.426836
 10
11.481388
 20
1.426922
  0
ARC
  5
1EC
330
1F
100
AcDbEntity
  8
XR$1$TB_313_1
  6
AUSGEZOGEN
 62
     7
440
 33554687
370
    18
100
AcDbCircle
 10
11.509761
 20
1.431131
 30
0.0
 40
0.002000599430541
100
AcDbArc
 50
270.0
 51
330.0
  0
ARC
  5
1ED
330
1F
100
AcDbEntity
  8
XR$1$TB_313_1
  6
AUSGEZOGEN
 62
     7
440
 33554687
370
    18
100
AcDbCircle
 10
11.509761
 20
1.431131
 30
0.0
 40
0.004001198861082
100
AcDbArc
 50
270.0
 51
330.0
  0
ARC
  5
1EE
330
1F
100
AcDbEntity
  8
XR$1$TB_313_1
  6
AUSGEZOGEN
 62
     7
440
 33554687
370
    18
100
AcDbCircle
 10
11.367024
 20
1.443129
 30
0.0
 40
0.002000599430541
100
AcDbArc
 50
30.0
 51
90.0
  0
ARC
  5
1EF
330
1F
100
AcDbEntity
  8
XR$1$TB_313_1
  6
AUSGEZOGEN
 62
     7
440
 33554687
370
    18
100
AcDbCircle
 10
11.367024
 20
1.443129
 30
0.0
 40
0.004001198861082
100
AcDbArc
 50
30.0
 51
90.0
  0
ARC
  5
1F0
330
1F
100
AcDbEntity
  8
XR$1$TB_313_1
  6
AUSGEZOGEN
 62
     7
440
 33554687
370
    18
100
AcDbCircle
 10
11.523618
 20
1.443129
 30
0.0
 40
0.002000599430541
100
AcDbArc
 50
90.0
 51
150.0
  0
ARC
  5
1F1
330
1F
100
AcDbEntity
  8
XR$1$TB_313_1
  6
AUSGEZOGEN
 62
     7
440
 33554687
370
    18
100
AcDbCircle
 10
11.523618
 20
1.443129
 30
0.0
 40
0.004001198861082
100
AcDbArc
 50
90.0
 51
150.0
  0
LWPOLYLINE
  5
1F2
330
1F
100
AcDbEntity
  8
XR$1$TB_313_1
  6
AUSGEZOGEN
 62
     7
440
 33554687
370
    13
100
AcDbPolyline
 90
        3
 70
     0
 43
0.0
 10
11.404661
 20
1.422929
 10
11.404112
 20
1.423784
 10
11.403038
 20
1.425456
  0
LWPOLYLINE
  5
1F3
330
1F
100
AcDbEntity
  8
XR$1$TB_313_1
  6
AUSGEZOGEN
 62
     7
440
 33554687
370
    13
100
AcDbPolyline
 90
        3
 70
     0
 43
0.0
 10
11.429963
 20
1.422929
 10
11.430512
 20
1.423784
 10
11.431587
 20
1.425456
  0
LWPOLYLINE
  5
1F4
330
1F
100
AcDbEntity
  8
XR$1$TB_313_1
  6
AUSGEZOGEN
 62
     7
440
 33554687
370
    13
100
AcDbPolyline
 90
        3
 70
     0
 43
0.0
 10
11.48598
 20
1.422929
 10
11.486529
 20
1.423784
 10
11.487604
 20
1.425456
  0
LWPOLYLINE
  5
1F5
330
1F
100
AcDbEntity
  8
XR$1$TB_313_1
  6
AUSGEZOGEN
 62
     7
440
 33554687
370
    13
100
AcDbPolyline
 90
        3
 70
     0
 43
0.0
 10
11.469328
 20
1.414927
 10
11.468577
 20
1.416116
 10
11.468571
 20
1.416127
  0
LWPOLYLINE
  5
1F6
330
1F
100
AcDbEntity
  8
XR$1$TB_313_1
  6
AUSGEZOGEN
 62
     7
440
 33554687
370
    13
100
AcDbPolyline
 90
        3
 70
     0
 43
0.0
 10
11.468571
 20
1.416127
 10
11.4684
 20
1.416484
 10
11.468328
 20
1.416798
  0
LWPOLYLINE
  5
1F7
330
1F
100
AcDbEntity
  8
XR$1$TB_313_1
  6
AUSGEZOGEN
 62
     7
440
 33554687
370
    13
100
AcDbPolyline
 90
        3
 70
     0
 43
0.0
 10
11.478331
 20
1.416798
 10
11.478258
 20
1.416484
 10
11.478088
 20
1.416127
  0
LWPOLYLINE
  5
1F8
330
1F
100
AcDbEntity
  8
XR$1$TB_313_1
  6
AUSGEZOGEN
 62
     7
440
 33554687
370
    13
100
AcDbPolyline
 90
        3
 70
     0
 43
0.0
 10
11.478088
 20
1.416127
 10
11.478082
 20
1.416116
 10
11.47733
 20
1.414927
  0
ARC
  5
1F9
330
1F
100
AcDbEntity
  8
XR$1$TB_313_1
  6
AUSGEZOGEN
 62
     7
440
 33554687
370
    13
100
AcDbCircle
 10
11.472931
 20
1.416427
 30
0.0
 40
0.0008002397722164
100
AcDbArc
 50
223.432537
 51
270.0
  0
ARC
  5
1FA
330
1F
100
AcDbEntity
  8
XR$1$TB_313_1
  6
AUSGEZOGEN
 62
     7
440
 33554687
370
    13
100
AcDbCircle
 10
11.473727
 20
1.416427
 30
0.0
 40
0.0008002397722164
100
AcDbArc
 50
270.0
 51
316.567463
  0
ARC
  5
1FB
330
1F
100
AcDbEntity
  8
XR$1$TB_313_1
  6
AUSGEZOGEN
 62
     7
440
 33554687
370
    13
100
AcDbCircle
 10
11.471769
 20
1.415327
 30
0.0
 40
0.0008002397722164
100
AcDbArc
 50
43.432537
 51
90.0
  0
ARC
  5
1FC
330
1F
100
AcDbEntity
  8
XR$1$TB_313_1
  6
AUSGEZOGEN
 62
     7
440
 33554687
370
    13
100
AcDbCircle
 10
11.474889
 20
1.415327
 30
0.0
 40
0.0008002397722164
100
AcDbArc
 50
90.0
 51
136.567463
  0
LWPOLYLINE
  5
1FD
330
1F
100
AcDbEntity
  8
XR$1$TB_313_1
  6
AUSGEZOGEN
 62
     7
440
 33554687
370
    13
100
AcDbPolyline
 90
        4
 70
     0
 43
0.0
 10
11.461596
 20
1.417802
 10
11.462886
 20
1.416264
 10
11.464515
 20
1.415093
 10
11.465327
 20
1.41471
  0
ARC
  5
1FE
330
1F
100
AcDbEntity
  8
XR$1$TB_313_1
  6
AUSGEZOGEN
 62
     7
440
 33554687
370
    13
100
AcDbCircle
 10
11.474355
 20
1.414827
 30
0.0
 40
0.0012003596583246
100
AcDbArc
 50
270.0
 51
324.314665
  0
ARC
  5
1FF
330
1F
100
AcDbEntity
  8
XR$1$TB_313_1
  6
AUSGEZOGEN
 62
     7
440
 33554687
370
    13
100
AcDbCircle
 10
11.472303
 20
1.414827
 30
0.0
 40
0.0012003596583246
100
AcDbArc
 50
215.685335
 51
270.0
  0
LWPOLYLINE
  5
200
330
1F
100
AcDbEntity
  8
XR$1$TB_313_1
  6
AUSGEZOGEN
 62
     7
440
 33554687
370
    13
100
AcDbPolyline
 90
        4
 70
     0
 43
0.0
 10
11.485062
 20
1.417802
 10
11.483772
 20
1.416264
 10
11.482143
 20
1.415093
 10
11.481331
 20
1.41471
  0
LWPOLYLINE
  5
201
330
1F
100
AcDbEntity
  8
XR$1$TB_313_1
  6
AUSGEZOGEN
 62
     7
440
 33554687
370
    13
100
AcDbPolyline
 90
        3
 70
     0
 43
0.0
 10
11.463279
 20
1.418884
 10
11.461262
 20
1.422021
 10
11.460678
 20
1.422929
  0
LWPOLYLINE
  5
202
330
1F
100
AcDbEntity
  8
XR$1$TB_313_1
  6
AUSGEZOGEN
 62
     7
440
 33554687
370
    13
100
AcDbPolyline
 90
        3
 70
     0
 43
0.0
 10
11.483379
 20
1.418884
 10
11.485396
 20
1.422021
 10
11.48598
 20
1.422929
  0
LWPOLYLINE
  5
203
330
1F
100
AcDbEntity
  8
XR$1$TB_313_1
  6
AUSGEZOGEN
 62
     7
440
 33554687
370
    13
100
AcDbPolyline
 90
        4
 70
     0
 43
0.0
 10
11.4583
 20
1.422929
 10
11.458315
 20
1.422907
 10
11.45996
 20
1.420346
 10
11.461596
 20
1.417802
  0
LWPOLYLINE
  5
204
330
1F
100
AcDbEntity
  8
XR$1$TB_313_1
  6
AUSGEZOGEN
 62
     7
440
 33554687
370
    13
100
AcDbPolyline
 90
        4
 70
     0
 43
0.0
 10
11.488358
 20
1.422929
 10
11.488344
 20
1.422907
 10
11.486698
 20
1.420346
 10
11.485062
 20
1.417802
  0
LWPOLYLINE
  5
205
330
1F
100
AcDbEntity
  8
XR$1$TB_313_1
  6
AUSGEZOGEN
 62
     7
440
 33554687
370
    13
100
AcDbPolyline
 90
        4
 70
     0
 43
0.0
 10
11.413311
 20
1.414927
 10
11.41256
 20
1.416116
 10
11.412384
 20
1.416484
 10
11.412311
 20
1.416798
  0
LWPOLYLINE
  5
206
330
1F
100
AcDbEntity
  8
XR$1$TB_313_1
  6
AUSGEZOGEN
 62
     7
440
 33554687
370
    13
100
AcDbPolyline
 90
        4
 70
     0
 43
0.0
 10
11.422314
 20
1.416798
 10
11.422241
 20
1.416484
 10
11.422065
 20
1.416116
 10
11.421313
 20
1.414927
  0
ARC
  5
207
330
1F
100
AcDbEntity
  8
XR$1$TB_313_1
  6
AUSGEZOGEN
 62
     7
440
 33554687
370
    13
100
AcDbCircle
 10
11.416914
 20
1.416427
 30
0.0
 40
0.0008002397722164
100
AcDbArc
 50
223.432537
 51
270.0
  0
ARC
  5
208
330
1F
100
AcDbEntity
  8
XR$1$TB_313_1
  6
AUSGEZOGEN
 62
     7
440
 33554687
370
    13
100
AcDbCircle
 10
11.41771
 20
1.416427
 30
0.0
 40
0.0008002397722164
100
AcDbArc
 50
270.0
 51
316.567463
  0
ARC
  5
209
330
1F
100
AcDbEntity
  8
XR$1$TB_313_1
  6
AUSGEZOGEN
 62
     7
440
 33554687
370
    13
100
AcDbCircle
 10
11.415752
 20
1.415327
 30
0.0
 40
0.0008002397722164
100
AcDbArc
 50
43.432537
 51
90.0
  0
ARC
  5
20A
330
1F
100
AcDbEntity
  8
XR$1$TB_313_1
  6
AUSGEZOGEN
 62
     7
440
 33554687
370
    13
100
AcDbCircle
 10
11.418872
 20
1.415327
 30
0.0
 40
0.0008002397722164
100
AcDbArc
 50
90.0
 51
136.567463
  0
LWPOLYLINE
  5
20B
330
1F
100
AcDbEntity
  8
XR$1$TB_313_1
  6
AUSGEZOGEN
 62
     7
440
 33554687
370
    13
100
AcDbPolyline
 90
        4
 70
     0
 43
0.0
 10
11.405579
 20
1.417802
 10
11.406869
 20
1.416264
 10
11.408499
 20
1.415093
 10
11.40931
 20
1.41471
  0
ARC
  5
20C
330
1F
100
AcDbEntity
  8
XR$1$TB_313_1
  6
AUSGEZOGEN
 62
     7
440
 33554687
370
    13
100
AcDbCircle
 10
11.418338
 20
1.414827
 30
0.0
 40
0.0012003596583246
100
AcDbArc
 50
270.0
 51
324.314665
  0
ARC
  5
20D
330
1F
100
AcDbEntity
  8
XR$1$TB_313_1
  6
AUSGEZOGEN
 62
     7
440
 33554687
370
    13
100
AcDbCircle
 10
11.416287
 20
1.414827
 30
0.0
 40
0.0012003596583246
100
AcDbArc
 50
215.685335
 51
270.0
  0
LWPOLYLINE
  5
20E
330
1F
100
AcDbEntity
  8
XR$1$TB_313_1
  6
AUSGEZOGEN
 62
     7
440
 33554687
370
    13
100
AcDbPolyline
 90
        4
 70
     0
 43
0.0
 10
11.429045
 20
1.417802
 10
11.427755
 20
1.416264
 10
11.426126
 20
1.415093
 10
11.425315
 20
1.41471
  0
LWPOLYLINE
  5
20F
330
1F
100
AcDbEntity
  8
XR$1$TB_313_1
  6
AUSGEZOGEN
 62
     7
440
 33554687
370
    13
100
AcDbPolyline
 90
        3
 70
     0
 43
0.0
 10
11.407262
 20
1.418884
 10
11.405245
 20
1.422021
 10
11.404661
 20
1.422929
  0
LWPOLYLINE
  5
210
330
1F
100
AcDbEntity
  8
XR$1$TB_313_1
  6
AUSGEZOGEN
 62
     7
440
 33554687
370
    13
100
AcDbPolyline
 90
        3
 70
     0
 43
0.0
 10
11.427363
 20
1.418884
 10
11.429379
 20
1.422021
 10
11.429963
 20
1.422929
  0
LWPOLYLINE
  5
211
330
1F
100
AcDbEntity
  8
XR$1$TB_313_1
  6
AUSGEZOGEN
 62
     7
440
 33554687
370
    13
100
AcDbPolyline
 90
        4
 70
     0
 43
0.0
 10
11.402283
 20
1.422929
 10
11.402298
 20
1.422907
 10
11.403943
 20
1.420346
 10
11.405579
 20
1.417802
  0
LWPOLYLINE
  5
212
330
1F
100
AcDbEntity
  8
XR$1$TB_313_1
  6
AUSGEZOGEN
 62
     7
440
 33554687
370
    13
100
AcDbPolyline
 90
        4
 70
     0
 43
0.0
 10
11.432341
 20
1.422929
 10
11.432327
 20
1.422907
 10
11.430681
 20
1.420346
 10
11.429045
 20
1.417802
  0
LWPOLYLINE
  5
213
330
1F
100
AcDbEntity
  8
XR$1$TB_313_1
  6
AUSGEZOGEN
 62
     7
440
 33554687
370
    13
100
AcDbPolyline
 90
        3
 70
     0
 43
0.0
 10
11.460678
 20
1.422929
 10
11.460129
 20
1.423784
 10
11.457978
 20
1.42713
  0
ARC
  5
214
330
1F
100
AcDbEntity
  8
XR$1$TB_313_1
  6
AUSGEZOGEN
 62
     7
440
 33554687
370
    13
100
AcDbCircle
 10
11.432817
 20
1.42563
 30
0.0
 40
0.0015004495729057
100
AcDbArc
 50
81.307769
 51
90.0
  0
ARC
  5
215
330
1F
100
AcDbEntity
  8
XR$1$TB_313_1
  6
AUSGEZOGEN
 62
     7
440
 33554687
370
    18
100
AcDbCircle
 10
11.437593
 20
1.42713
 30
0.0
 40
0.0015004495729057
100
AcDbArc
 50
201.443925
 51
270.0
  0
ARC
  5
216
330
1F
100
AcDbEntity
  8
XR$1$TB_313_1
  6
AUSGEZOGEN
 62
     7
440
 33554687
370
    18
100
AcDbCircle
 10
11.437593
 20
1.42713
 30
0.0
 40
0.0035010490034467
100
AcDbArc
 50
207.494728
 51
270.0
  0
ARC
  5
217
330
1F
100
AcDbEntity
  8
XR$1$TB_313_1
  6
AUSGEZOGEN
 62
     7
440
 33554687
370
    18
100
AcDbCircle
 10
11.453049
 20
1.42713
 30
0.0
 40
0.0015004495729057
100
AcDbArc
 50
270.0
 51
338.556075
  0
ARC
  5
218
330
1F
100
AcDbEntity
  8
XR$1$TB_313_1
  6
AUSGEZOGEN
 62
     7
440
 33554687
370
    18
100
AcDbCircle
 10
11.453049
 20
1.42713
 30
0.0
 40
0.0035010490034467
100
AcDbArc
 50
270.0
 51
332.505272
  0
LINE
  5
219
330
1F
100
AcDbEntity
  8
XR$1$TB_313_1
  6
STRICHPUNKT2_S5
 62
     7
440
 33554687
370
    18
100
AcDbLine
 10
11.354319
 20
1.46017
 30
0.0
 11
11.354319
 21
1.443402
 31
0.0
  0
LINE
  5
21A
330
1F
100
AcDbEntity
  8
XR$1$TB_313_1
  6
STRICHPUNKT2_S5
 62
     7
440
 33554687
370
    18
100
AcDbLine
 10
11.536456
 20
1.461037
 30
0.0
 11
11.536456
 21
1.440222
 31
0.0
  0
LINE
  5
21B
330
1F
100
AcDbEntity
  8
XR$1$TB_313_1
  6
AUSGEZOGEN
 62
     7
440
 33554687
370
    25
100
AcDbLine
 10
11.432817
 20
1.423521
 30
0.0
 11
11.432817
 21
1.423669
 31
0.0
  0
LINE
  5
21C
330
1F
100
AcDbEntity
  8
XR$1$TB_313_1
  6
AUSGEZOGEN
 62
     7
440
 33554687
370
    13
100
AcDbLine
 10
11.436143
 20
1.426742
 30
0.0
 11
11.436148
 21
1.426724
 31
0.0
  0
LINE
  5
21D
330
1F
100
AcDbEntity
  8
XR$1$TB_313_1
  6
AUSGEZOGEN
 62
     7
440
 33554687
370
    18
100
AcDbLine
 10
11.420313
 20
1.42713
 30
0.0
 11
11.426315
 21
1.42713
 31
0.0
  0
LINE
  5
21E
330
1F
100
AcDbEntity
  8
XR$1$TB_313_1
  6
AUSGEZOGEN
 62
     7
440
 33554687
370
    18
100
AcDbLine
 10
11.415312
 20
1.42713
 30
0.0
 11
11.420313
 21
1.42713
 31
0.0
  0
LINE
  5
21F
330
1F
100
AcDbEntity
  8
XR$1$TB_313_1
  6
AUSGEZOGEN
 62
     7
440
 33554687
370
    18
100
AcDbLine
 10
11.40931
 20
1.42713
 30
0.0
 11
11.415312
 21
1.42713
 31
0.0
  0
LINE
  5
220
330
1F
100
AcDbEntity
  8
XR$1$TB_313_1
  6
AUSGEZOGEN
 62
     7
440
 33554687
370
    18
100
AcDbLine
 10
11.415312
 20
1.429131
 30
0.0
 11
11.40931
 21
1.429131
 31
0.0
  0
LINE
  5
221
330
1F
100
AcDbEntity
  8
XR$1$TB_313_1
  6
AUSGEZOGEN
 62
     7
440
 33554687
370
    18
100
AcDbLine
 10
11.420313
 20
1.429131
 30
0.0
 11
11.415312
 21
1.429131
 31
0.0
  0
LINE
  5
222
330
1F
100
AcDbEntity
  8
XR$1$TB_313_1
  6
AUSGEZOGEN
 62
     7
440
 33554687
370
    18
100
AcDbLine
 10
11.426315
 20
1.429131
 30
0.0
 11
11.420313
 21
1.429131
 31
0.0
  0
LINE
  5
223
330
1F
100
AcDbEntity
  8
XR$1$TB_313_1
  6
AUSGEZOGEN
 62
     7
440
 33554687
370
    18
100
AcDbLine
 10
11.40931
 20
1.429131
 30
0.0
 11
11.380881
 21
1.429131
 31
0.0
  0
LINE
  5
224
330
1F
100
AcDbEntity
  8
XR$1$TB_313_1
  6
AUSGEZOGEN
 62
     7
440
 33554687
370
    18
100
AcDbLine
 10
11.380881
 20
1.42713
 30
0.0
 11
11.40931
 21
1.42713
 31
0.0
  0
LINE
  5
225
330
1F
100
AcDbEntity
  8
XR$1$TB_313_1
  6
AUSGEZOGEN
 62
     7
440
 33554687
370
    18
100
AcDbLine
 10
11.437593
 20
1.423629
 30
0.0
 11
11.439569
 21
1.423629
 31
0.0
  0
LINE
  5
226
330
1F
100
AcDbEntity
  8
XR$1$TB_313_1
  6
AUSGEZOGEN
 62
     7
440
 33554687
370
    18
100
AcDbLine
 10
11.439569
 20
1.423629
 30
0.0
 11
11.439569
 21
1.42563
 31
0.0
  0
LINE
  5
227
330
1F
100
AcDbEntity
  8
XR$1$TB_313_1
  6
AUSGEZOGEN
 62
     7
440
 33554687
370
    18
100
AcDbLine
 10
11.439569
 20
1.42563
 30
0.0
 11
11.437593
 21
1.42563
 31
0.0
  0
LINE
  5
228
330
1F
100
AcDbEntity
  8
XR$1$TB_313_1
  6
AUSGEZOGEN
 62
     7
440
 33554687
370
    18
100
AcDbLine
 10
11.432817
 20
1.422737
 30
0.0
 11
11.432817
 21
1.421086
 31
0.0
  0
LINE
  5
229
330
1F
100
AcDbEntity
  8
XR$1$TB_313_1
  6
AUSGEZOGEN
 62
     7
440
 33554687
370
    18
100
AcDbLine
 10
11.451072
 20
1.42563
 30
0.0
 11
11.451072
 21
1.423629
 31
0.0
  0
LINE
  5
22A
330
1F
100
AcDbEntity
  8
XR$1$TB_313_1
  6
AUSGEZOGEN
 62
     7
440
 33554687
370
    18
100
AcDbLine
 10
11.453049
 20
1.42563
 30
0.0
 11
11.451072
 21
1.42563
 31
0.0
  0
LINE
  5
22B
330
1F
100
AcDbEntity
  8
XR$1$TB_313_1
  6
AUSGEZOGEN
 62
     7
440
 33554687
370
    18
100
AcDbLine
 10
11.451072
 20
1.423629
 30
0.0
 11
11.453049
 21
1.423629
 31
0.0
  0
LINE
  5
22C
330
1F
100
AcDbEntity
  8
XR$1$TB_313_1
  6
AUSGEZOGEN
 62
     7
440
 33554687
370
    18
100
AcDbLine
 10
11.457824
 20
1.421086
 30
0.0
 11
11.457824
 21
1.422737
 31
0.0
  0
LINE
  5
22D
330
1F
100
AcDbEntity
  8
XR$1$TB_313_1
  6
AUSGEZOGEN
 62
     7
440
 33554687
370
    18
100
AcDbLine
 10
11.457824
 20
1.423521
 30
0.0
 11
11.457824
 21
1.423669
 31
0.0
  0
LINE
  5
22E
330
1F
100
AcDbEntity
  8
XR$1$TB_313_1
  6
AUSGEZOGEN
 62
     7
440
 33554687
370
    18
100
AcDbLine
 10
11.47533
 20
1.42713
 30
0.0
 11
11.481331
 21
1.42713
 31
0.0
  0
LINE
  5
22F
330
1F
100
AcDbEntity
  8
XR$1$TB_313_1
  6
AUSGEZOGEN
 62
     7
440
 33554687
370
    18
100
AcDbLine
 10
11.470328
 20
1.42713
 30
0.0
 11
11.47533
 21
1.42713
 31
0.0
  0
LINE
  5
230
330
1F
100
AcDbEntity
  8
XR$1$TB_313_1
  6
AUSGEZOGEN
 62
     7
440
 33554687
370
    18
100
AcDbLine
 10
11.464326
 20
1.42713
 30
0.0
 11
11.470328
 21
1.42713
 31
0.0
  0
LINE
  5
231
330
1F
100
AcDbEntity
  8
XR$1$TB_313_1
  6
AUSGEZOGEN
 62
     7
440
 33554687
370
    18
100
AcDbLine
 10
11.470328
 20
1.429131
 30
0.0
 11
11.464326
 21
1.429131
 31
0.0
  0
LINE
  5
232
330
1F
100
AcDbEntity
  8
XR$1$TB_313_1
  6
AUSGEZOGEN
 62
     7
440
 33554687
370
    18
100
AcDbLine
 10
11.47533
 20
1.429131
 30
0.0
 11
11.470328
 21
1.429131
 31
0.0
  0
LINE
  5
233
330
1F
100
AcDbEntity
  8
XR$1$TB_313_1
  6
AUSGEZOGEN
 62
     7
440
 33554687
370
    18
100
AcDbLine
 10
11.481331
 20
1.429131
 30
0.0
 11
11.47533
 21
1.429131
 31
0.0
  0
LINE
  5
234
330
1F
100
AcDbEntity
  8
XR$1$TB_313_1
  6
AUSGEZOGEN
 62
     7
440
 33554687
370
    18
100
AcDbLine
 10
11.464326
 20
1.429131
 30
0.0
 11
11.426315
 21
1.429131
 31
0.0
  0
LINE
  5
235
330
1F
100
AcDbEntity
  8
XR$1$TB_313_1
  6
AUSGEZOGEN
 62
     7
440
 33554687
370
    18
100
AcDbLine
 10
11.509761
 20
1.429131
 30
0.0
 11
11.481331
 21
1.429131
 31
0.0
  0
LINE
  5
236
330
1F
100
AcDbEntity
  8
XR$1$TB_313_1
  6
AUSGEZOGEN
 62
     7
440
 33554687
370
    18
100
AcDbLine
 10
11.481331
 20
1.42713
 30
0.0
 11
11.509761
 21
1.42713
 31
0.0
  0
LINE
  5
237
330
1F
100
AcDbEntity
  8
XR$1$TB_313_1
  6
STRICHLINIE_S4
 62
     7
440
 33554687
370
    13
100
AcDbLine
 10
11.351829
 20
1.44513
 30
0.0
 11
11.351829
 21
1.44713
 31
0.0
  0
LINE
  5
238
330
1F
100
AcDbEntity
  8
XR$1$TB_313_1
  6
STRICHLINIE_S4
 62
     7
440
 33554687
370
    13
100
AcDbLine
 10
11.346827
 20
1.44513
 30
0.0
 11
11.346827
 21
1.44713
 31
0.0
  0
LINE
  5
239
330
1F
100
AcDbEntity
  8
XR$1$TB_313_1
  6
STRICHLINIE_S4
 62
     7
440
 33554687
370
    13
100
AcDbLine
 10
11.359521
 20
1.44513
 30
0.0
 11
11.359521
 21
1.44713
 31
0.0
  0
LINE
  5
23A
330
1F
100
AcDbEntity
  8
XR$1$TB_313_1
  6
STRICHLINIE_S4
 62
     7
440
 33554687
370
    13
100
AcDbLine
 10
11.35452
 20
1.44513
 30
0.0
 11
11.35452
 21
1.44713
 31
0.0
  0
LINE
  5
23B
330
1F
100
AcDbEntity
  8
XR$1$TB_313_1
  6
AUSGEZOGEN
 62
     7
440
 33554687
370
    18
100
AcDbLine
 10
11.367024
 20
1.44713
 30
0.0
 11
11.339325
 21
1.44713
 31
0.0
  0
LINE
  5
23C
330
1F
100
AcDbEntity
  8
XR$1$TB_313_1
  6
AUSGEZOGEN
 62
     7
440
 33554687
370
    18
100
AcDbLine
 10
11.339325
 20
1.44513
 30
0.0
 11
11.367024
 21
1.44513
 31
0.0
  0
LINE
  5
23D
330
1F
100
AcDbEntity
  8
XR$1$TB_313_1
  6
AUSGEZOGEN
 62
     7
440
 33554687
370
    18
100
AcDbLine
 10
11.377416
 20
1.429131
 30
0.0
 11
11.368756
 21
1.444129
 31
0.0
  0
LINE
  5
23E
330
1F
100
AcDbEntity
  8
XR$1$TB_313_1
  6
AUSGEZOGEN
 62
     7
440
 33554687
370
    18
100
AcDbLine
 10
11.339325
 20
1.44713
 30
0.0
 11
11.339325
 21
1.44513
 31
0.0
  0
LINE
  5
23F
330
1F
100
AcDbEntity
  8
XR$1$TB_313_1
  6
AUSGEZOGEN
 62
     7
440
 33554687
370
    18
100
AcDbLine
 10
11.379148
 20
1.430131
 30
0.0
 11
11.370489
 21
1.44513
 31
0.0
  0
LINE
  5
240
330
1F
100
AcDbEntity
  8
XR$1$TB_313_1
  6
STRICHLINIE_S4
 62
     7
440
 33554687
370
    13
100
AcDbLine
 10
11.538813
 20
1.44513
 30
0.0
 11
11.538813
 21
1.44713
 31
0.0
  0
LINE
  5
241
330
1F
100
AcDbEntity
  8
XR$1$TB_313_1
  6
STRICHLINIE_S4
 62
     7
440
 33554687
370
    13
100
AcDbLine
 10
11.543814
 20
1.44513
 30
0.0
 11
11.543814
 21
1.44713
 31
0.0
  0
LINE
  5
242
330
1F
100
AcDbEntity
  8
XR$1$TB_313_1
  6
STRICHLINIE_S4
 62
     7
440
 33554687
370
    13
100
AcDbLine
 10
11.53112
 20
1.44513
 30
0.0
 11
11.53112
 21
1.44713
 31
0.0
  0
LINE
  5
243
330
1F
100
AcDbEntity
  8
XR$1$TB_313_1
  6
STRICHLINIE_S4
 62
     7
440
 33554687
370
    13
100
AcDbLine
 10
11.536121
 20
1.44513
 30
0.0
 11
11.536121
 21
1.44713
 31
0.0
  0
LINE
  5
244
330
1F
100
AcDbEntity
  8
XR$1$TB_313_1
  6
AUSGEZOGEN
 62
     7
440
 33554687
370
    18
100
AcDbLine
 10
11.523618
 20
1.44713
 30
0.0
 11
11.551317
 21
1.44713
 31
0.0
  0
LINE
  5
245
330
1F
100
AcDbEntity
  8
XR$1$TB_313_1
  6
AUSGEZOGEN
 62
     7
440
 33554687
370
    18
100
AcDbLine
 10
11.551317
 20
1.44513
 30
0.0
 11
11.523618
 21
1.44513
 31
0.0
  0
LINE
  5
246
330
1F
100
AcDbEntity
  8
XR$1$TB_313_1
  6
AUSGEZOGEN
 62
     7
440
 33554687
370
    18
100
AcDbLine
 10
11.513226
 20
1.429131
 30
0.0
 11
11.521885
 21
1.444129
 31
0.0
  0
LINE
  5
247
330
1F
100
AcDbEntity
  8
XR$1$TB_313_1
  6
AUSGEZOGEN
 62
     7
440
 33554687
370
    18
100
AcDbLine
 10
11.551317
 20
1.44713
 30
0.0
 11
11.551317
 21
1.44513
 31
0.0
  0
LINE
  5
248
330
1F
100
AcDbEntity
  8
XR$1$TB_313_1
  6
AUSGEZOGEN
 62
     7
440
 33554687
370
    18
100
AcDbLine
 10
11.511493
 20
1.430131
 30
0.0
 11
11.520153
 21
1.44513
 31
0.0
  0
LINE
  5
249
330
1F
100
AcDbEntity
  8
XR$1$TB_313_1
  6
AUSGEZOGEN
 62
     7
440
 33554687
370
    18
100
AcDbLine
 10
11.401355
 20
1.424374
 30
0.0
 11
11.402283
 21
1.422929
 31
0.0
  0
LINE
  5
24A
330
1F
100
AcDbEntity
  8
XR$1$TB_313_1
  6
AUSGEZOGEN
 62
     7
440
 33554687
370
    18
100
AcDbLine
 10
11.43327
 20
1.424374
 30
0.0
 11
11.432341
 21
1.422929
 31
0.0
  0
LINE
  5
24B
330
1F
100
AcDbEntity
  8
XR$1$TB_313_1
  6
AUSGEZOGEN
 62
     7
440
 33554687
370
    18
100
AcDbLine
 10
11.432817
 20
1.422737
 30
0.0
 11
11.432817
 21
1.422929
 31
0.0
  0
LINE
  5
24C
330
1F
100
AcDbEntity
  8
XR$1$TB_313_1
  6
AUSGEZOGEN
 62
     7
440
 33554687
370
    18
100
AcDbLine
 10
11.432817
 20
1.422929
 30
0.0
 11
11.432817
 21
1.423521
 31
0.0
  0
LINE
  5
24D
330
1F
100
AcDbEntity
  8
XR$1$TB_313_1
  6
AUSGEZOGEN
 62
     7
440
 33554687
370
    18
100
AcDbLine
 10
11.457824
 20
1.423521
 30
0.0
 11
11.457824
 21
1.422929
 31
0.0
  0
LINE
  5
24E
330
1F
100
AcDbEntity
  8
XR$1$TB_313_1
  6
AUSGEZOGEN
 62
     7
440
 33554687
370
    18
100
AcDbLine
 10
11.457824
 20
1.422929
 30
0.0
 11
11.457824
 21
1.422737
 31
0.0
  0
LINE
  5
24F
330
1F
100
AcDbEntity
  8
XR$1$TB_313_1
  6
AUSGEZOGEN
 62
     7
440
 33554687
370
    18
100
AcDbLine
 10
11.457372
 20
1.424374
 30
0.0
 11
11.4583
 21
1.422929
 31
0.0
  0
LINE
  5
250
330
1F
100
AcDbEntity
  8
XR$1$TB_313_1
  6
AUSGEZOGEN
 62
     7
440
 33554687
370
    18
100
AcDbLine
 10
11.489287
 20
1.424374
 30
0.0
 11
11.488358
 21
1.422929
 31
0.0
  0
LINE
  5
251
330
1F
100
AcDbEntity
  8
XR$1$TB_313_1
  6
AUSGEZOGEN
 62
     7
440
 33554687
370
    13
100
AcDbLine
 10
11.468328
 20
1.414126
 30
0.0
 11
11.468328
 21
1.416127
 31
0.0
  0
LINE
  5
252
330
1F
100
AcDbEntity
  8
XR$1$TB_313_1
  6
AUSGEZOGEN
 62
     7
440
 33554687
370
    13
100
AcDbLine
 10
11.468328
 20
1.417177
 30
0.0
 11
11.468328
 21
1.416127
 31
0.0
  0
LINE
  5
253
330
1F
100
AcDbEntity
  8
XR$1$TB_313_1
  6
AUSGEZOGEN
 62
     7
440
 33554687
370
    13
100
AcDbLine
 10
11.465419
 20
1.416879
 30
0.0
 11
11.465327
 21
1.416931
 31
0.0
  0
LINE
  5
254
330
1F
100
AcDbEntity
  8
XR$1$TB_313_1
  6
AUSGEZOGEN
 62
     7
440
 33554687
370
    13
100
AcDbLine
 10
11.468328
 20
1.416127
 30
0.0
 11
11.465419
 21
1.416879
 31
0.0
  0
LINE
  5
255
330
1F
100
AcDbEntity
  8
XR$1$TB_313_1
  6
AUSGEZOGEN
 62
     7
440
 33554687
370
    13
100
AcDbLine
 10
11.465327
 20
1.416931
 30
0.0
 11
11.463279
 21
1.418884
 31
0.0
  0
LINE
  5
256
330
1F
100
AcDbEntity
  8
XR$1$TB_313_1
  6
AUSGEZOGEN
 62
     7
440
 33554687
370
    13
100
AcDbLine
 10
11.481239
 20
1.416879
 30
0.0
 11
11.481331
 21
1.416931
 31
0.0
  0
LINE
  5
257
330
1F
100
AcDbEntity
  8
XR$1$TB_313_1
  6
AUSGEZOGEN
 62
     7
440
 33554687
370
    13
100
AcDbLine
 10
11.478331
 20
1.416127
 30
0.0
 11
11.478331
 21
1.414126
 31
0.0
  0
LINE
  5
258
330
1F
100
AcDbEntity
  8
XR$1$TB_313_1
  6
AUSGEZOGEN
 62
     7
440
 33554687
370
    13
100
AcDbLine
 10
11.478331
 20
1.416127
 30
0.0
 11
11.481239
 21
1.416879
 31
0.0
  0
LINE
  5
259
330
1F
100
AcDbEntity
  8
XR$1$TB_313_1
  6
AUSGEZOGEN
 62
     7
440
 33554687
370
    13
100
AcDbLine
 10
11.478331
 20
1.414927
 30
0.0
 11
11.468328
 21
1.414927
 31
0.0
  0
LINE
  5
25A
330
1F
100
AcDbEntity
  8
XR$1$TB_313_1
  6
AUSGEZOGEN
 62
     7
440
 33554687
370
    13
100
AcDbLine
 10
11.478331
 20
1.416127
 30
0.0
 11
11.478331
 21
1.417177
 31
0.0
  0
LINE
  5
25B
330
1F
100
AcDbEntity
  8
XR$1$TB_313_1
  6
AUSGEZOGEN
 62
     7
440
 33554687
370
    13
100
AcDbLine
 10
11.468328
 20
1.416127
 30
0.0
 11
11.473329
 21
1.416127
 31
0.0
  0
LINE
  5
25C
330
1F
100
AcDbEntity
  8
XR$1$TB_313_1
  6
AUSGEZOGEN
 62
     7
440
 33554687
370
    13
100
AcDbLine
 10
11.473329
 20
1.416127
 30
0.0
 11
11.478331
 21
1.416127
 31
0.0
  0
LINE
  5
25D
330
1F
100
AcDbEntity
  8
XR$1$TB_313_1
  6
AUSGEZOGEN
 62
     7
440
 33554687
370
    13
100
AcDbLine
 10
11.472931
 20
1.415627
 30
0.0
 11
11.473727
 21
1.415627
 31
0.0
  0
LINE
  5
25E
330
1F
100
AcDbEntity
  8
XR$1$TB_313_1
  6
AUSGEZOGEN
 62
     7
440
 33554687
370
    13
100
AcDbLine
 10
11.478331
 20
1.417177
 30
0.0
 11
11.468328
 21
1.417177
 31
0.0
  0
LINE
  5
25F
330
1F
100
AcDbEntity
  8
XR$1$TB_313_1
  6
AUSGEZOGEN
 62
     7
440
 33554687
370
    13
100
AcDbLine
 10
11.481331
 20
1.416931
 30
0.0
 11
11.483379
 21
1.418884
 31
0.0
  0
LINE
  5
260
330
1F
100
AcDbEntity
  8
XR$1$TB_313_1
  6
AUSGEZOGEN
 62
     7
440
 33554687
370
    13
100
AcDbLine
 10
11.474355
 20
1.413626
 30
0.0
 11
11.472303
 21
1.413626
 31
0.0
  0
LINE
  5
261
330
1F
100
AcDbEntity
  8
XR$1$TB_313_1
  6
AUSGEZOGEN
 62
     7
440
 33554687
370
    13
100
AcDbLine
 10
11.473329
 20
1.414126
 30
0.0
 11
11.468328
 21
1.414126
 31
0.0
  0
LINE
  5
262
330
1F
100
AcDbEntity
  8
XR$1$TB_313_1
  6
AUSGEZOGEN
 62
     7
440
 33554687
370
    13
100
AcDbLine
 10
11.478331
 20
1.414126
 30
0.0
 11
11.473329
 21
1.414126
 31
0.0
  0
LINE
  5
263
330
1F
100
AcDbEntity
  8
XR$1$TB_313_1
  6
AUSGEZOGEN
 62
     7
440
 33554687
370
    13
100
AcDbLine
 10
11.481331
 20
1.41471
 30
0.0
 11
11.478331
 21
1.414126
 31
0.0
  0
LINE
  5
264
330
1F
100
AcDbEntity
  8
XR$1$TB_313_1
  6
AUSGEZOGEN
 62
     7
440
 33554687
370
    13
100
AcDbLine
 10
11.465327
 20
1.41471
 30
0.0
 11
11.468328
 21
1.414126
 31
0.0
  0
LINE
  5
265
330
1F
100
AcDbEntity
  8
XR$1$TB_313_1
  6
AUSGEZOGEN
 62
     7
440
 33554687
370
    13
100
AcDbLine
 10
11.40931
 20
1.41471
 30
0.0
 11
11.412311
 21
1.414126
 31
0.0
  0
LINE
  5
266
330
1F
100
AcDbEntity
  8
XR$1$TB_313_1
  6
STRICHLINIE_S4
 62
     7
440
 33554687
370
    13
100
AcDbLine
 10
11.425222
 20
1.416879
 30
0.0
 11
11.422314
 21
1.416127
 31
0.0
  0
LINE
  5
267
330
1F
100
AcDbEntity
  8
XR$1$TB_313_1
  6
AUSGEZOGEN
 62
     7
440
 33554687
370
    13
100
AcDbLine
 10
11.412311
 20
1.414126
 30
0.0
 11
11.412311
 21
1.416127
 31
0.0
  0
LINE
  5
268
330
1F
100
AcDbEntity
  8
XR$1$TB_313_1
  6
AUSGEZOGEN
 62
     7
440
 33554687
370
    13
100
AcDbLine
 10
11.412311
 20
1.417177
 30
0.0
 11
11.412311
 21
1.416127
 31
0.0
  0
LINE
  5
269
330
1F
100
AcDbEntity
  8
XR$1$TB_313_1
  6
AUSGEZOGEN
 62
     7
440
 33554687
370
    13
100
AcDbLine
 10
11.409403
 20
1.416879
 30
0.0
 11
11.40931
 21
1.416931
 31
0.0
  0
LINE
  5
26A
330
1F
100
AcDbEntity
  8
XR$1$TB_313_1
  6
AUSGEZOGEN
 62
     7
440
 33554687
370
    13
100
AcDbLine
 10
11.412311
 20
1.416127
 30
0.0
 11
11.409403
 21
1.416879
 31
0.0
  0
LINE
  5
26B
330
1F
100
AcDbEntity
  8
XR$1$TB_313_1
  6
AUSGEZOGEN
 62
     7
440
 33554687
370
    13
100
AcDbLine
 10
11.40931
 20
1.416931
 30
0.0
 11
11.407262
 21
1.418884
 31
0.0
  0
LINE
  5
26C
330
1F
100
AcDbEntity
  8
XR$1$TB_313_1
  6
AUSGEZOGEN
 62
     7
440
 33554687
370
    13
100
AcDbLine
 10
11.425222
 20
1.416879
 30
0.0
 11
11.425315
 21
1.416931
 31
0.0
  0
LINE
  5
26D
330
1F
100
AcDbEntity
  8
XR$1$TB_313_1
  6
AUSGEZOGEN
 62
     7
440
 33554687
370
    13
100
AcDbLine
 10
11.422314
 20
1.416127
 30
0.0
 11
11.422314
 21
1.414126
 31
0.0
  0
LINE
  5
26E
330
1F
100
AcDbEntity
  8
XR$1$TB_313_1
  6
AUSGEZOGEN
 62
     7
440
 33554687
370
    13
100
AcDbLine
 10
11.425315
 20
1.41471
 30
0.0
 11
11.422314
 21
1.414126
 31
0.0
  0
LINE
  5
26F
330
1F
100
AcDbEntity
  8
XR$1$TB_313_1
  6
AUSGEZOGEN
 62
     7
440
 33554687
370
    13
100
AcDbLine
 10
11.422314
 20
1.416127
 30
0.0
 11
11.425222
 21
1.416879
 31
0.0
  0
LINE
  5
270
330
1F
100
AcDbEntity
  8
XR$1$TB_313_1
  6
AUSGEZOGEN
 62
     7
440
 33554687
370
    13
100
AcDbLine
 10
11.422314
 20
1.414927
 30
0.0
 11
11.412311
 21
1.414927
 31
0.0
  0
LINE
  5
271
330
1F
100
AcDbEntity
  8
XR$1$TB_313_1
  6
AUSGEZOGEN
 62
     7
440
 33554687
370
    13
100
AcDbLine
 10
11.422314
 20
1.416127
 30
0.0
 11
11.422314
 21
1.417177
 31
0.0
  0
LINE
  5
272
330
1F
100
AcDbEntity
  8
XR$1$TB_313_1
  6
AUSGEZOGEN
 62
     7
440
 33554687
370
    13
100
AcDbLine
 10
11.412311
 20
1.416127
 30
0.0
 11
11.417312
 21
1.416127
 31
0.0
  0
LINE
  5
273
330
1F
100
AcDbEntity
  8
XR$1$TB_313_1
  6
AUSGEZOGEN
 62
     7
440
 33554687
370
    13
100
AcDbLine
 10
11.417312
 20
1.416127
 30
0.0
 11
11.422314
 21
1.416127
 31
0.0
  0
LINE
  5
274
330
1F
100
AcDbEntity
  8
XR$1$TB_313_1
  6
AUSGEZOGEN
 62
     7
440
 33554687
370
    13
100
AcDbLine
 10
11.416914
 20
1.415627
 30
0.0
 11
11.41771
 21
1.415627
 31
0.0
  0
LINE
  5
275
330
1F
100
AcDbEntity
  8
XR$1$TB_313_1
  6
AUSGEZOGEN
 62
     7
440
 33554687
370
    13
100
AcDbLine
 10
11.422314
 20
1.417177
 30
0.0
 11
11.412311
 21
1.417177
 31
0.0
  0
LINE
  5
276
330
1F
100
AcDbEntity
  8
XR$1$TB_313_1
  6
AUSGEZOGEN
 62
     7
440
 33554687
370
    13
100
AcDbLine
 10
11.425315
 20
1.416931
 30
0.0
 11
11.427363
 21
1.418884
 31
0.0
  0
LINE
  5
277
330
1F
100
AcDbEntity
  8
XR$1$TB_313_1
  6
AUSGEZOGEN
 62
     7
440
 33554687
370
    13
100
AcDbLine
 10
11.418338
 20
1.413626
 30
0.0
 11
11.416287
 21
1.413626
 31
0.0
  0
LINE
  5
278
330
1F
100
AcDbEntity
  8
XR$1$TB_313_1
  6
AUSGEZOGEN
 62
     7
440
 33554687
370
    13
100
AcDbLine
 10
11.417312
 20
1.414126
 30
0.0
 11
11.412311
 21
1.414126
 31
0.0
  0
LINE
  5
279
330
1F
100
AcDbEntity
  8
XR$1$TB_313_1
  6
AUSGEZOGEN
 62
     7
440
 33554687
370
    13
100
AcDbLine
 10
11.422314
 20
1.414126
 30
0.0
 11
11.417312
 21
1.414126
 31
0.0
  0
LINE
  5
27A
330
1F
100
AcDbEntity
  8
XR$1$TB_313_1
  6
AUSGEZOGEN
 62
     7
440
 33554687
370
    13
100
AcDbLine
 10
11.431157
 20
1.421086
 30
0.0
 11
11.432817
 21
1.421086
 31
0.0
  0
LINE
  5
27B
330
1F
100
AcDbEntity
  8
XR$1$TB_313_1
  6
AUSGEZOGEN
 62
     7
440
 33554687
370
    18
100
AcDbLine
 10
11.426315
 20
1.42713
 30
0.0
 11
11.464326
 21
1.42713
 31
0.0
  0
LINE
  5
27C
330
1F
100
AcDbEntity
  8
XR$1$TB_313_1
  6
AUSGEZOGEN
 62
     7
440
 33554687
370
    13
100
AcDbLine
 10
11.457824
 20
1.421086
 30
0.0
 11
11.459485
 21
1.421086
 31
0.0
  0
LINE
  5
27D
330
1F
100
AcDbEntity
  8
XR$1$TB_313_1
  6
AUSGEZOGEN
 62
     7
440
 33554687
370
    25
100
AcDbLine
 10
11.557015
 20
1.402726
 30
0.0
 11
11.557015
 21
1.422726
 31
0.0
  0
ARC
  5
27E
330
1F
100
AcDbEntity
  8
XR$1$TB_313_1
  6
AUSGEZOGEN
 62
     7
440
 33554687
370
    18
100
AcDbCircle
 10
11.590963
 20
1.403926
 30
0.0
 40
0.0035
100
AcDbArc
 50
270.0
 51
0.0
  0
ARC
  5
27F
330
1F
100
AcDbEntity
  8
XR$1$TB_313_1
  6
AUSGEZOGEN
 62
     7
440
 33554687
370
    18
100
AcDbCircle
 10
11.590463
 20
1.404426
 30
0.0
 40
0.001
100
AcDbArc
 50
270.0
 51
0.0
  0
ARC
  5
280
330
1F
100
AcDbEntity
  8
XR$1$TB_313_1
  6
AUSGEZOGEN
 62
     7
440
 33554687
370
    18
100
AcDbCircle
 10
11.567463
 20
1.403426
 30
0.0
 40
0.003
100
AcDbArc
 50
180.0
 51
270.0
  0
ARC
  5
281
330
1F
100
AcDbEntity
  8
XR$1$TB_313_1
  6
AUSGEZOGEN
 62
     7
440
 33554687
370
    18
100
AcDbCircle
 10
11.568463
 20
1.404426
 30
0.0
 40
0.001
100
AcDbArc
 50
180.0
 51
270.0
  0
ARC
  5
282
330
1F
100
AcDbEntity
  8
XR$1$TB_313_1
  6
AUSGEZOGEN
 62
     7
440
 33554687
370
    18
100
AcDbCircle
 10
11.564383
 20
1.437247
 30
0.0
 40
0.003
100
AcDbArc
 50
0.0
 51
90.0
  0
ARC
  5
283
330
1F
100
AcDbEntity
  8
XR$1$TB_313_1
  6
AUSGEZOGEN
 62
     7
440
 33554687
370
    18
100
AcDbCircle
 10
11.551383
 20
1.437247
 30
0.0
 40
0.003
100
AcDbArc
 50
90.0
 51
180.0
  0
ARC
  5
284
330
1F
100
AcDbEntity
  8
XR$1$TB_313_1
  6
AUSGEZOGEN
 62
     7
440
 33554687
370
    18
100
AcDbCircle
 10
11.552383
 20
1.436247
 30
0.0
 40
0.001
100
AcDbArc
 50
90.0
 51
180.0
  0
ARC
  5
285
330
1F
100
AcDbEntity
  8
XR$1$TB_313_1
  6
AUSGEZOGEN
 62
     7
440
 33554687
370
    18
100
AcDbCircle
 10
11.563383
 20
1.436247
 30
0.0
 40
0.001
100
AcDbArc
 50
0.0
 51
90.0
  0
LINE
  5
286
330
1F
100
AcDbEntity
  8
XR$1$TB_313_1
  6
AUSGEZOGEN
 62
     7
440
 33554687
370
    18
100
AcDbLine
 10
11.590963
 20
1.400426
 30
0.0
 11
11.567463
 21
1.400426
 31
0.0
  0
LINE
  5
287
330
1F
100
AcDbEntity
  8
XR$1$TB_313_1
  6
AUSGEZOGEN
 62
     7
440
 33554687
370
    18
100
AcDbLine
 10
11.568463
 20
1.403426
 30
0.0
 11
11.590463
 21
1.403426
 31
0.0
  0
LINE
  5
288
330
1F
100
AcDbEntity
  8
XR$1$TB_313_1
  6
AUSGEZOGEN
 62
     7
440
 33554687
370
    18
100
AcDbLine
 10
11.56461
 20
1.378926
 30
0.0
 11
11.56461
 21
1.402499
 31
0.0
  0
LINE
  5
289
330
1F
100
AcDbEntity
  8
XR$1$TB_313_1
  6
AUSGEZOGEN
 62
     7
440
 33554687
370
    18
100
AcDbLine
 10
11.567463
 20
1.400426
 30
0.0
 11
11.567463
 21
1.378926
 31
0.0
  0
LINE
  5
28A
330
1F
100
AcDbEntity
  8
XR$1$TB_313_1
  6
AUSGEZOGEN
 62
     7
440
 33554687
370
    18
100
AcDbLine
 10
11.813955
 20
1.378926
 30
0.0
 11
11.56461
 21
1.378926
 31
0.0
  0
LINE
  5
28B
330
1F
100
AcDbEntity
  8
XR$1$TB_313_1
  6
AUSGEZOGEN
 62
     7
440
 33554687
370
    18
100
AcDbLine
 10
11.551383
 20
1.430247
 30
0.0
 11
11.548383
 21
1.430247
 31
0.0
  0
LINE
  5
28C
330
1F
100
AcDbEntity
  8
XR$1$TB_313_1
  6
AUSGEZOGEN
 62
     7
440
 33554687
370
    18
100
AcDbLine
 10
11.551383
 20
1.440247
 30
0.0
 11
11.564383
 21
1.440247
 31
0.0
  0
LINE
  5
28D
330
1F
100
AcDbEntity
  8
XR$1$TB_313_1
  6
AUSGEZOGEN
 62
     7
440
 33554687
370
    18
100
AcDbLine
 10
11.548383
 20
1.430247
 30
0.0
 11
11.548383
 21
1.437247
 31
0.0
  0
LINE
  5
28E
330
1F
100
AcDbEntity
  8
XR$1$TB_313_1
  6
AUSGEZOGEN
 62
     7
440
 33554687
370
    18
100
AcDbLine
 10
11.551383
 20
1.436247
 30
0.0
 11
11.551383
 21
1.430247
 31
0.0
  0
LINE
  5
28F
330
1F
100
AcDbEntity
  8
XR$1$TB_313_1
  6
AUSGEZOGEN
 62
     7
440
 33554687
370
    18
100
AcDbLine
 10
11.563383
 20
1.437247
 30
0.0
 11
11.552383
 21
1.437247
 31
0.0
  0
LINE
  5
290
330
1F
100
AcDbEntity
  8
XR$1$TB_313_1
  6
AUSGEZOGEN
 62
     7
440
 33554687
370
    18
100
AcDbLine
 10
11.564463
 20
1.403364
 30
0.0
 11
11.564383
 21
1.436247
 31
0.0
  0
LINE
  5
291
330
1F
100
AcDbEntity
  8
XR$1$TB_313_1
  6
AUSGEZOGEN
 62
     7
440
 33554687
370
    18
100
AcDbLine
 10
11.567383
 20
1.437247
 30
0.0
 11
11.567463
 21
1.404364
 31
0.0
  0
LINE
  5
292
330
1F
100
AcDbEntity
  8
XR$1$TB_313_1
  6
AUSGEZOGEN
 62
     7
440
 33554687
370
    18
100
AcDbLine
 10
11.594317
 20
1.569298
 30
0.0
 11
11.594441
 21
1.403533
 31
0.0
  0
LINE
  5
293
330
1F
100
AcDbEntity
  8
XR$1$TB_313_1
  6
AUSGEZOGEN
 62
     7
440
 33554687
370
    18
100
AcDbLine
 10
11.591317
 20
1.569298
 30
0.0
 11
11.59144
 21
1.404209
 31
0.0
  0
HATCH
  5
294
330
1F
100
AcDbEntity
  8
XR$1$TB_313_1
  6
AUSGEZOGEN
 62
    18
420
        0
440
 33554687
370
    18
100
AcDbHatch
 10
0.0
 20
0.0
 30
0.0
210
0.0
220
0.0
230
1.0
  2
SOLID
 70
     1
 71
     0
 91
        1
 92
        3
 72
     0
 73
     1
 93
       31
 10
11.56846340227561
 20
1.403426398056328
 10
11.56746324900934
 20
1.404426551322604
 10
11.56738252837045
 20
1.437246908114927
 10
11.5669806045818
 20
1.438746908114927
 10
11.56588252837045
 20
1.43984498432628
 10
11.56438252837045
 20
1.440246908114927
 10
11.55138252837045
 20
1.440246908114927
 10
11.54988252837045
 20
1.43984498432628
 10
11.5487844521591
 20
1.438746908114927
 10
11.54838252837045
 20
1.437246908114927
 10
11.54838252837045
 20
1.430246908114926
 10
11.55138252837045
 20
1.430246908114926
 10
11.55138252837045
 20
1.436246908114927
 10
11.55238252837045
 20
1.437246908114927
 10
11.56338252837045
 20
1.437246908114927
 10
11.56438252837045
 20
1.436246908114927
 10
11.56446324796994
 20
1.403426973932936
 10
11.56486532606426
 20
1.401926398056328
 10
11.56596340227562
 20
1.400828321844975
 10
11.56746340227562
 20
1.400426398056328
 10
11.59096340227561
 20
1.400426398056328
 10
11.59230279428889
 20
1.400692819692539
 10
11.59343827600977
 20
1.401451524322175
 10
11.5941969806394
 20
1.402587006043051
 10
11.59446334549139
 20
1.403926112582768
 10
11.59431709352754
 20
1.569297695605544
 10
11.59131709516243
 20
1.569297695605544
 10
11.59146334718122
 20
1.404426342961928
 10
11.59146340227561
 20
1.404364234498751
 10
11.59146173543589
 20
1.404424731216604
 10
11.59046340227562
 20
1.403426398056328
 97
        0
 75
     0
 76
     1
 98
        0
  0
LINE
  5
295
330
1F
100
AcDbEntity
  8
XR$1$TB_313_1
  6
STRICHPUNKT2_S5
 62
     7
440
 33554687
370
    18
100
AcDbLine
 10
11.813149
 20
1.727587
 30
0.0
 11
11.813149
 21
1.368377
 31
0.0
  0
INSERT
  5
2B0
330
1F
100
AcDbEntity
  8
XR$1$TB_313_1
  6
AUSGEZOGEN
 62
     7
440
 33554687
370
    25
100
AcDbBlockReference
  2
COMPLEXOBJECT_0
 10
0.0
 20
0.0
 30
0.0
  0
MTEXT
  5
2B1
330
1F
100
AcDbEntity
  8
XR$1$TB_313_1
  6
AUSGEZOGEN
 62
     7
440
 33554687
370
    35
100
AcDbMText
 10
10.961119
 20
1.376754
 30
0.0
 40
0.0125
 41
0.094694
 46
0.0
 71
     7
 72
     5
  1
\W0.93;Art.-Nr.: 640
  7
ARIAL
 73
     1
 44
1.0
  0
LINE
  5
2B3
102
{ACAD_REACTORS
330
2B2
102
}
330
1F
100
AcDbEntity
  8
XR$1$TB_313_1
  6
AUSGEZOGEN
 62
     7
440
 33554687
370
    18
100
AcDbLine
 10
11.04998
 20
1.382587
 30
0.0
 11
11.061007
 21
1.401983
 31
0.0
  0
LINE
  5
2B4
102
{ACAD_REACTORS
330
2B2
102
}
330
1F
100
AcDbEntity
  8
XR$1$TB_313_1
  6
AUSGEZOGEN
 62
     7
440
 33554687
370
    18
100
AcDbLine
 10
11.055818
 20
1.392855
 30
0.0
 11
11.055447
 21
1.392203
 31
0.0
  0
LINE
  5
2B5
102
{ACAD_REACTORS
330
2B2
102
}
330
1F
100
AcDbEntity
  8
XR$1$TB_313_1
  6
AUSGEZOGEN
 62
     7
440
 33554687
370
    18
100
AcDbLine
 10
11.061007
 20
1.401983
 30
0.0
 11
11.061007
 21
1.401983
 31
0.0
  0
LINE
  5
2B6
102
{ACAD_REACTORS
330
2B2
102
}
330
1F
100
AcDbEntity
  8
XR$1$TB_313_1
  6
AUSGEZOGEN
 62
     7
440
 33554687
370
    18
100
AcDbLine
 10
11.061007
 20
1.401983
 30
0.0
 11
11.061007
 21
1.401983
 31
0.0
  0
LINE
  5
2B7
102
{ACAD_REACTORS
330
2B2
102
}
330
1F
100
AcDbEntity
  8
XR$1$TB_313_1
  6
AUSGEZOGEN
 62
     7
440
 33554687
370
    18
100
AcDbLine
 10
11.061007
 20
1.401983
 30
0.0
 11
11.061007
 21
1.401983
 31
0.0
  0
LINE
  5
2B8
102
{ACAD_REACTORS
330
2B2
102
}
330
1F
100
AcDbEntity
  8
XR$1$TB_313_1
  6
AUSGEZOGEN
 62
     7
440
 33554687
370
    18
100
AcDbLine
 10
11.061007
 20
1.401983
 30
0.0
 11
11.054514
 21
1.393597
 31
0.0
  0
LINE
  5
2B9
102
{ACAD_REACTORS
330
2B2
102
}
330
1F
100
AcDbEntity
  8
XR$1$TB_313_1
  6
AUSGEZOGEN
 62
     7
440
 33554687
370
    18
100
AcDbLine
 10
11.054514
 20
1.393597
 30
0.0
 11
11.057122
 21
1.392114
 31
0.0
  0
LINE
  5
2BA
102
{ACAD_REACTORS
330
2B2
102
}
330
1F
100
AcDbEntity
  8
XR$1$TB_313_1
  6
AUSGEZOGEN
 62
     7
440
 33554687
370
    18
100
AcDbLine
 10
11.057122
 20
1.392114
 30
0.0
 11
11.061007
 21
1.401983
 31
0.0
  0
HATCH
  5
2BB
102
{ACAD_REACTORS
330
2B2
102
}
330
1F
100
AcDbEntity
  8
XR$1$TB_313_1
  6
AUSGEZOGEN
 62
     7
440
 33554687
370
    18
100
AcDbHatch
 10
0.0
 20
0.0
 30
0.0
210
0.0
220
0.0
230
1.0
  2
SOLID
 70
     1
 71
     0
 91
        1
 92
        3
 72
     0
 73
     1
 93
        3
 10
11.05712182617187
 20
1.392113891601563
 10
11.06100720214844
 20
1.401983215332031
 10
11.05451373291016
 20
1.393596618652344
 97
        0
 75
     0
 76
     1
 98
        0
  0
MTEXT
  5
2BC
330
1F
100
AcDbEntity
  8
XR$1$TB_313_1
  6
AUSGEZOGEN
 62
     7
440
 33554687
370
    35
100
AcDbMText
 10
11.121119
 20
1.376754
 30
0.0
 40
0.0125
 41
0.13281
 46
0.0
 71
     7
 72
     5
  1
\W0.93;Art.-Nr.: 627-XXX
  7
ARIAL
 73
     1
 44
1.0
  0
LINE
  5
2BE
102
{ACAD_REACTORS
330
2BD
102
}
330
1F
100
AcDbEntity
  8
XR$1$TB_313_1
  6
AUSGEZOGEN
 62
     7
440
 33554687
370
    18
100
AcDbLine
 10
11.121119
 20
1.382587
 30
0.0
 11
11.105023
 21
1.425784
 31
0.0
  0
LINE
  5
2BF
102
{ACAD_REACTORS
330
2BD
102
}
330
1F
100
AcDbEntity
  8
XR$1$TB_313_1
  6
AUSGEZOGEN
 62
     7
440
 33554687
370
    18
100
AcDbLine
 10
11.108689
 20
1.415945
 30
0.0
 11
11.108951
 21
1.415242
 31
0.0
  0
LINE
  5
2C0
102
{ACAD_REACTORS
330
2BD
102
}
330
1F
100
AcDbEntity
  8
XR$1$TB_313_1
  6
AUSGEZOGEN
 62
     7
440
 33554687
370
    18
100
AcDbLine
 10
11.105023
 20
1.425784
 30
0.0
 11
11.105023
 21
1.425784
 31
0.0
  0
LINE
  5
2C1
102
{ACAD_REACTORS
330
2BD
102
}
330
1F
100
AcDbEntity
  8
XR$1$TB_313_1
  6
AUSGEZOGEN
 62
     7
440
 33554687
370
    18
100
AcDbLine
 10
11.105023
 20
1.425784
 30
0.0
 11
11.105023
 21
1.425784
 31
0.0
  0
LINE
  5
2C2
102
{ACAD_REACTORS
330
2BD
102
}
330
1F
100
AcDbEntity
  8
XR$1$TB_313_1
  6
AUSGEZOGEN
 62
     7
440
 33554687
370
    18
100
AcDbLine
 10
11.105023
 20
1.425784
 30
0.0
 11
11.105023
 21
1.425784
 31
0.0
  0
LINE
  5
2C3
102
{ACAD_REACTORS
330
2BD
102
}
330
1F
100
AcDbEntity
  8
XR$1$TB_313_1
  6
AUSGEZOGEN
 62
     7
440
 33554687
370
    18
100
AcDbLine
 10
11.105023
 20
1.425784
 30
0.0
 11
11.107283
 21
1.415421
 31
0.0
  0
LINE
  5
2C4
102
{ACAD_REACTORS
330
2BD
102
}
330
1F
100
AcDbEntity
  8
XR$1$TB_313_1
  6
AUSGEZOGEN
 62
     7
440
 33554687
370
    18
100
AcDbLine
 10
11.107283
 20
1.415421
 30
0.0
 11
11.110095
 21
1.416469
 31
0.0
  0
LINE
  5
2C5
102
{ACAD_REACTORS
330
2BD
102
}
330
1F
100
AcDbEntity
  8
XR$1$TB_313_1
  6
AUSGEZOGEN
 62
     7
440
 33554687
370
    18
100
AcDbLine
 10
11.110095
 20
1.416469
 30
0.0
 11
11.105023
 21
1.425784
 31
0.0
  0
HATCH
  5
2C6
102
{ACAD_REACTORS
330
2BD
102
}
330
1F
100
AcDbEntity
  8
XR$1$TB_313_1
  6
AUSGEZOGEN
 62
     7
440
 33554687
370
    18
100
AcDbHatch
 10
0.0
 20
0.0
 30
0.0
210
0.0
220
0.0
230
1.0
  2
SOLID
 70
     1
 71
     0
 91
        1
 92
        3
 72
     0
 73
     1
 93
        3
 10
11.11009460449219
 20
1.416468872070312
 10
11.10502282714844
 20
1.425784301757812
 10
11.10728344726563
 20
1.41542138671875
 97
        0
 75
     0
 76
     1
 98
        0
  0
LINE
  5
2C7
330
1F
100
AcDbEntity
  8
XR$1$TB_313_1
  6
STRICHPUNKT2_S5
 62
     7
440
 33554687
370
    18
100
AcDbLine
 10
10.926321
 20
1.681531
 30
0.0
 11
10.926321
 21
1.381531
 31
0.0
  0
MTEXT
  5
2C8
330
1F
100
AcDbEntity
  8
XR$1$TB_313_1
  6
AUSGEZOGEN
 62
     7
440
 33554687
370
    18
100
AcDbMText
 10
11.700827
 20
0.962149
 30
0.0
 40
0.009
 41
0.134495
 46
0.0
 71
     7
 72
     5
  1
\W0.91;STAND: September 2020
  7
ARIAL
 73
     1
 44
1.0
  0
VIEWPORT
  5
72
330
6E
100
AcDbEntity
 67
     1
  8
0
100
AcDbViewport
 10
0.105001
 20
0.148499
 30
0.0
 40
0.210202
 41
0.297197
 68
     1
 69
     1
 12
0.105001
 22
0.148499
 13
0.0
 23
0.0
 14
0.5
 24
0.5
 15
0.5
 25
0.5
 16
0.0
 26
0.0
 36
1.0
 17
0.0
 27
0.0
 37
0.0
 42
50.0
 43
0.0
 44
0.0
 45
0.297197
 50
0.0
 51
0.0
 72
   100
 90
   557152
  1

281
     0
 71
     1
 74
     0
110
0.0
120
0.0
130
0.0
111
1.0
121
0.0
131
0.0
112
0.0
122
1.0
132
0.0
 79
     0
146
0.0
170
     0
 61
     5
348
2F
292
     1
282
     1
141
0.0
142
0.0
 63
   256
361
73
  0
VIEWPORT
  5
2CB
330
6E
100
AcDbEntity
 67
     1
  8
PLAN_313
  6
AUSGEZOGEN
 62
     7
370
    18
100
AcDbViewport
 10
0.105001
 20
0.148499
 30
0.0
 40
0.210202
 41
0.297197
 68
     2
 69
     2
 12
0.0
 22
0.0
 13
0.0
 23
0.0
 14
1.0
 24
1.0
 15
0.0
 25
0.0
 16
0.0
 26
0.0
 36
1.0
 17
11.358846
 27
1.600979
 37
0.0
 42
50.0
 43
0.0
 44
0.0
 45
1.485985
 50
0.0
 51
0.0
 72
   100
331
10
331
76
331
78
 90
   557280
  1

281
     0
 71
     1
 74
     0
110
0.0
120
0.0
130
0.0
111
1.0
121
0.0
131
0.0
112
0.0
122
1.0
132
0.0
 79
     0
146
0.0
170
     0
 61
     5
348
2F
292
     1
282
     1
141
0.0
142
0.0
 63
   256
361
2CC
  0
ENDSEC
  0
SECTION
  2
OBJECTS
  0
DICTIONARY
  5
C
330
0
100
AcDbDictionary
281
     1
  3
ACAD_DETAILVIEWSTYLE
350
304
  3
ACAD_GROUP
350
D
  3
ACAD_LAYOUT
350
1A
  3
ACAD_MATERIAL
350
43
  3
ACAD_MLEADERSTYLE
350
6B
  3
ACAD_MLINESTYLE
350
17
  3
ACAD_PLOTSETTINGS
350
19
  3
ACAD_PLOTSTYLENAME
350
E
  3
ACAD_SCALELIST
350
47
  3
ACAD_SECTIONVIEWSTYLE
350
305
  3
ACAD_TABLESTYLE
350
69
  3
ACAD_VISUALSTYLE
350
2A
  3
ACDB_RECOMPOSE_DATA
350
301
  3
AcDbVariableDictionary
350
2CD
  0
SUN
  5
6D
330
29
100
AcDbSun
 90
        1
290
     0
 63
     7
421
 16777215
 40
1.0
291
     1
 91
  2455826
 92
 54000000
292
     0
 70
     2
 71
   256
280
     1
  0
DICTIONARY
  5
2C9
330
1F
100
AcDbDictionary
280
     1
281
     1
  3
ACAD_SORTENTS
360
2CA
  0
SUN
  5
73
330
72
100
AcDbSun
 90
        1
290
     0
 63
     7
421
 16777215
 40
1.0
291
     1
 91
  2455826
 92
 54000000
292
     0
 70
     2
 71
   256
280
     1
  0
SUN
  5
2CC
330
2CB
100
AcDbSun
 90
        1
290
     0
 63
     7
421
 16777215
 40
1.0
291
     1
 91
  2455826
 92
 54000000
292
     0
 70
     2
 71
   256
280
     1
  0
DICTIONARY
  5
304
102
{ACAD_REACTORS
330
C
102
}
330
C
100
AcDbDictionary
281
     1
  0
DICTIONARY
  5
D
102
{ACAD_REACTORS
330
C
102
}
330
C
100
AcDbDictionary
281
     1
  3
VERBUNDBLOCK_0
350
84
  3
VERBUNDBLOCK_1
350
11F
  3
VERBUNDBLOCK_2
350
12D
  3
VERBUNDBLOCK_3
350
2B2
  3
VERBUNDBLOCK_4
350
2BD
  0
DICTIONARY
  5
1A
102
{ACAD_REACTORS
330
C
102
}
330
C
100
AcDbDictionary
281
     1
  3
K20 vertikales Omegaprofil 20 14
350
6F
  3
Model
350
22
  0
DICTIONARY
  5
43
102
{ACAD_REACTORS
330
C
102
}
330
C
100
AcDbDictionary
281
     1
  3
ByBlock
350
45
  3
ByLayer
350
44
  3
Global
350
46
  0
DICTIONARY
  5
6B
102
{ACAD_REACTORS
330
C
102
}
330
C
100
AcDbDictionary
281
     1
  3
Standard
350
6C
  0
DICTIONARY
  5
17
102
{ACAD_REACTORS
330
C
102
}
330
C
100
AcDbDictionary
281
     1
  3
Standard
350
18
  0
DICTIONARY
  5
19
102
{ACAD_REACTORS
330
C
102
}
330
C
100
AcDbDictionary
281
     1
  0
ACDBDICTIONARYWDFLT
  5
E
102
{ACAD_REACTORS
330
C
102
}
330
C
100
AcDbDictionary
281
     1
  3
Normal
350
F
100
AcDbDictionaryWithDefault
340
F
  0
DICTIONARY
  5
47
102
{ACAD_REACTORS
330
C
102
}
330
C
100
AcDbDictionary
281
     1
  3
A0
350
48
  3
A1
350
49
  3
A2
350
4A
  3
A3
350
4B
  3
A4
350
4C
  3
A5
350
4D
  3
A6
350
4E
  3
A7
350
4F
  3
A8
350
50
  3
A9
350
51
  3
B0
350
52
  3
B1
350
53
  3
B2
350
54
  3
B3
350
55
  3
B4
350
56
  3
B5
350
57
  3
B6
350
58
  3
B7
350
59
  3
B8
350
5A
  3
B9
350
5B
  3
C0
350
5C
  3
C1
350
5D
  3
C2
350
5E
  3
C3
350
5F
  3
C4
350
60
  3
C5
350
61
  3
C6
350
62
  3
C7
350
63
  3
C8
350
64
  3
C9
350
65
  3
D0
350
66
  3
D1
350
67
  3
D2
350
68
  0
DICTIONARY
  5
305
102
{ACAD_REACTORS
330
C
102
}
330
C
100
AcDbDictionary
281
     1
  0
DICTIONARY
  5
69
102
{ACAD_REACTORS
330
C
102
}
330
C
100
AcDbDictionary
281
     1
  3
Standard
350
6A
  0
DICTIONARY
  5
2A
102
{ACAD_REACTORS
330
C
102
}
330
C
100
AcDbDictionary
281
     1
  3
2dWireframe
350
2F
  3
Basic
350
32
  3
Brighten
350
36
  3
ColorChange
350
3A
  3
Conceptual
350
34
  3
Dim
350
35
  3
EdgeColorOff
350
3D
  3
Facepattern
350
39
  3
Flat
350
2B
  3
FlatWithEdges
350
2C
  3
Gouraud
350
2D
  3
GouraudWithEdges
350
2E
  3
Hidden
350
31
  3
JitterOff
350
3B
  3
Linepattern
350
38
  3
OverhangOff
350
3C
  3
Realistic
350
33
  3
Shaded
350
42
  3
Shaded with edges
350
41
  3
Shades of Gray
350
3E
  3
Sketchy
350
3F
  3
Thicken
350
37
  3
Wireframe
350
30
  3
X-Ray
350
40
  0
XRECORD
  5
301
102
{ACAD_REACTORS
330
C
102
}
330
C
100
AcDbXrecord
280
     1
 90
        1
330
6A
  0
DICTIONARY
  5
2CD
102
{ACAD_REACTORS
330
C
102
}
330
C
100
AcDbDictionary
281
     1
  3
CANNOSCALE
350
2CE
  3
CMLEADERSTYLE
350
303
  3
CTABLESTYLE
350
302
  0
SORTENTSTABLE
  5
2CA
102
{ACAD_REACTORS
330
2C9
102
}
330
2C9
100
AcDbSortentsTable
330
1F
331
7F
  5
91
331
80
  5
92
331
81
  5
93
331
82
  5
7F
331
83
  5
80
331
85
  5
81
331
86
  5
82
331
87
  5
83
331
88
  5
85
331
89
  5
86
331
8A
  5
87
331
8B
  5
88
331
8C
  5
89
331
8D
  5
8A
331
8E
  5
94
331
8F
  5
95
331
90
  5
96
331
91
  5
97
331
92
  5
98
331
93
  5
99
331
94
  5
9A
331
95
  5
9B
331
96
  5
9C
331
97
  5
9D
331
98
  5
9E
331
99
  5
9F
331
9A
  5
A0
331
9B
  5
A1
331
9C
  5
A2
331
9D
  5
A3
331
9E
  5
A4
331
9F
  5
A5
331
A0
  5
A6
331
A1
  5
A7
331
A2
  5
A8
331
A3
  5
A9
331
A4
  5
AA
331
A5
  5
AB
331
A6
  5
AC
331
A7
  5
AD
331
A8
  5
AE
331
A9
  5
AF
331
AA
  5
B0
331
AB
  5
B1
331
AC
  5
B2
331
AD
  5
B3
331
AE
  5
B4
331
AF
  5
B5
331
B0
  5
B6
331
B1
  5
B7
331
B2
  5
B8
331
B3
  5
B9
331
B4
  5
BA
331
B5
  5
BB
331
B6
  5
BC
331
B7
  5
BD
331
B8
  5
BE
331
B9
  5
BF
331
BA
  5
C0
331
BB
  5
C1
331
BC
  5
C2
331
BD
  5
C3
331
BE
  5
C4
331
BF
  5
C5
331
C0
  5
C6
331
C1
  5
C7
331
C2
  5
C8
331
C3
  5
C9
331
C4
  5
CA
331
C5
  5
CB
331
C6
  5
CC
331
C7
  5
CD
331
C8
  5
CE
331
C9
  5
CF
331
CA
  5
D0
331
CB
  5
D1
331
CC
  5
D2
331
CD
  5
D3
331
CE
  5
D4
331
CF
  5
D5
331
D0
  5
D6
331
D1
  5
D7
331
D2
  5
D8
331
D3
  5
D9
331
D4
  5
DA
331
D5
  5
DB
331
D6
  5
DC
331
D7
  5
DD
331
D8
  5
DE
331
D9
  5
DF
331
DA
  5
E0
331
DB
  5
E1
331
DC
  5
E2
331
DD
  5
E3
331
DE
  5
E4
331
DF
  5
E5
331
E0
  5
E6
331
E1
  5
E7
331
E2
  5
E8
331
E3
  5
E9
331
E4
  5
EA
331
E5
  5
EB
331
E6
  5
EC
331
E7
  5
ED
331
E8
  5
EE
331
E9
  5
EF
331
EA
  5
F0
331
EB
  5
F1
331
EC
  5
F2
331
ED
  5
F3
331
EE
  5
F4
331
EF
  5
F5
331
F0
  5
F6
331
F1
  5
F7
331
F2
  5
F8
331
F3
  5
F9
331
F4
  5
FA
331
F5
  5
FB
331
F6
  5
FC
331
F7
  5
FD
331
F8
  5
FE
331
F9
  5
FF
331
FA
  5
100
331
FB
  5
101
331
FC
  5
102
331
FD
  5
103
331
FE
  5
104
331
FF
  5
105
331
100
  5
106
331
101
  5
107
331
102
  5
108
331
103
  5
109
331
104
  5
10A
331
105
  5
10B
331
106
  5
10C
331
107
  5
10D
331
108
  5
10E
331
109
  5
10F
331
10A
  5
110
331
10B
  5
111
331
10C
  5
112
331
10D
  5
113
331
10E
  5
114
331
10F
  5
115
331
110
  5
116
331
111
  5
117
331
112
  5
118
331
113
  5
119
331
114
  5
11A
331
115
  5
11B
331
116
  5
11C
331
117
  5
11D
331
118
  5
11E
331
119
  5
120
331
11A
  5
121
331
11B
  5
122
331
11C
  5
123
331
11D
  5
124
331
11E
  5
125
331
120
  5
8B
331
121
  5
8C
331
122
  5
126
331
123
  5
127
331
124
  5
128
331
125
  5
129
331
126
  5
12A
331
127
  5
12B
331
128
  5
12C
331
129
  5
12E
331
12A
  5
12F
331
12B
  5
130
331
12C
  5
131
331
12E
  5
132
331
12F
  5
133
331
130
  5
134
331
131
  5
135
331
132
  5
136
331
133
  5
137
331
134
  5
138
331
135
  5
139
331
136
  5
8D
331
137
  5
13A
331
138
  5
13B
331
139
  5
13C
331
13A
  5
13D
331
13B
  5
13E
331
13C
  5
13F
331
13D
  5
140
331
13E
  5
141
331
13F
  5
142
331
140
  5
143
331
141
  5
144
331
142
  5
145
331
143
  5
146
331
144
  5
147
331
145
  5
148
331
146
  5
149
331
147
  5
14A
331
148
  5
14B
331
149
  5
14C
331
14A
  5
14D
331
14B
  5
14E
331
14C
  5
14F
331
14D
  5
150
331
14E
  5
151
331
14F
  5
152
331
150
  5
153
331
151
  5
154
331
152
  5
155
331
153
  5
156
331
154
  5
157
331
155
  5
158
331
156
  5
159
331
157
  5
15A
331
158
  5
15B
331
159
  5
15C
331
15A
  5
15D
331
15B
  5
15E
331
15C
  5
15F
331
15D
  5
160
331
15E
  5
161
331
15F
  5
162
331
160
  5
163
331
161
  5
164
331
162
  5
165
331
163
  5
166
331
164
  5
167
331
165
  5
168
331
166
  5
169
331
167
  5
16A
331
168
  5
16B
331
169
  5
16C
331
16A
  5
16D
331
16B
  5
16E
331
16C
  5
16F
331
16D
  5
170
331
16E
  5
171
331
16F
  5
172
331
170
  5
173
331
171
  5
174
331
172
  5
175
331
173
  5
176
331
174
  5
177
331
175
  5
178
331
176
  5
179
331
177
  5
17A
331
178
  5
17B
331
179
  5
17C
331
17A
  5
17D
331
17B
  5
17E
331
17C
  5
17F
331
17D
  5
180
331
17E
  5
181
331
17F
  5
182
331
180
  5
183
331
181
  5
184
331
182
  5
185
331
183
  5
186
331
184
  5
187
331
185
  5
188
331
186
  5
189
331
187
  5
18A
331
188
  5
18B
331
189
  5
18C
331
18A
  5
18D
331
18B
  5
18E
331
18C
  5
18F
331
18D
  5
190
331
18E
  5
191
331
18F
  5
192
331
190
  5
193
331
191
  5
194
331
192
  5
195
331
193
  5
196
331
194
  5
197
331
195
  5
198
331
196
  5
199
331
197
  5
19A
331
198
  5
19B
331
199
  5
19C
331
19A
  5
19D
331
19B
  5
19E
331
19C
  5
19F
331
19D
  5
1A0
331
19E
  5
1A1
331
19F
  5
1A2
331
1A0
  5
1A3
331
1A1
  5
1A4
331
1A2
  5
1A5
331
1A3
  5
1A6
331
1A4
  5
1A7
331
1A5
  5
1A8
331
1A6
  5
1A9
331
1A7
  5
1AA
331
1A8
  5
1AB
331
1A9
  5
1AC
331
1AA
  5
1AD
331
1AB
  5
1AE
331
1AC
  5
1AF
331
1AD
  5
1B0
331
1AE
  5
1B1
331
1AF
  5
1B2
331
1B0
  5
1B3
331
1B1
  5
1B4
331
1B2
  5
1B5
331
1B3
  5
1B6
331
1B4
  5
1B7
331
1B5
  5
1B8
331
1B6
  5
1B9
331
1B7
  5
1BA
331
1B8
  5
1BB
331
1B9
  5
1BC
331
1BA
  5
1BD
331
1BB
  5
1BE
331
1BC
  5
1BF
331
1BD
  5
1C0
331
1BE
  5
1C1
331
1BF
  5
1C2
331
1C0
  5
1C3
331
1C1
  5
1C4
331
1C2
  5
1C5
331
1C3
  5
1C6
331
1C4
  5
1C7
331
1C5
  5
1C8
331
1C6
  5
1C9
331
1C7
  5
1CA
331
1C8
  5
1CB
331
1C9
  5
1CC
331
1CA
  5
1CD
331
1CB
  5
1CE
331
1CC
  5
1CF
331
1CD
  5
1D0
331
1CE
  5
1D1
331
1CF
  5
1D2
331
1D0
  5
1D3
331
1D1
  5
1D4
331
1D2
  5
1D5
331
1D3
  5
1D6
331
1D4
  5
1D7
331
1D5
  5
1D8
331
1D6
  5
1D9
331
1D7
  5
1DA
331
1D8
  5
1DB
331
1D9
  5
1DC
331
1DA
  5
1DD
331
1DB
  5
1DE
331
1DC
  5
1DF
331
1DD
  5
1E0
331
1DE
  5
1E1
331
1DF
  5
1E2
331
1E0
  5
1E3
331
1E1
  5
1E4
331
1E2
  5
1E5
331
1E3
  5
1E6
331
1E4
  5
1E7
331
1E5
  5
1E8
331
1E6
  5
1E9
331
1E7
  5
1EA
331
1E8
  5
1EB
331
1E9
  5
1EC
331
1EA
  5
1ED
331
1EB
  5
1EE
331
1EC
  5
1EF
331
1ED
  5
1F0
331
1EE
  5
1F1
331
1EF
  5
1F2
331
1F0
  5
1F3
331
1F1
  5
1F4
331
1F2
  5
1F5
331
1F3
  5
1F6
331
1F4
  5
1F7
331
1F5
  5
1F8
331
1F6
  5
1F9
331
1F7
  5
1FA
331
1F8
  5
1FB
331
1F9
  5
1FC
331
1FA
  5
1FD
331
1FB
  5
1FE
331
1FC
  5
1FF
331
1FD
  5
200
331
1FE
  5
201
331
1FF
  5
202
331
200
  5
203
331
201
  5
204
331
202
  5
205
331
203
  5
206
331
204
  5
207
331
205
  5
208
331
206
  5
209
331
207
  5
20A
331
208
  5
20B
331
209
  5
20C
331
20A
  5
20D
331
20B
  5
20E
331
20C
  5
20F
331
20D
  5
210
331
20E
  5
211
331
20F
  5
212
331
210
  5
213
331
211
  5
214
331
212
  5
215
331
213
  5
216
331
214
  5
217
331
215
  5
218
331
216
  5
219
331
217
  5
21A
331
218
  5
21B
331
219
  5
21C
331
21A
  5
21D
331
21B
  5
21E
331
21C
  5
21F
331
21D
  5
220
331
21E
  5
221
331
21F
  5
222
331
220
  5
223
331
221
  5
224
331
222
  5
225
331
223
  5
226
331
224
  5
227
331
225
  5
228
331
226
  5
229
331
227
  5
22A
331
228
  5
22B
331
229
  5
22C
331
22A
  5
22D
331
22B
  5
22E
331
22C
  5
22F
331
22D
  5
230
331
22E
  5
231
331
22F
  5
232
331
230
  5
233
331
231
  5
234
331
232
  5
235
331
233
  5
236
331
234
  5
237
331
235
  5
238
331
236
  5
239
331
237
  5
23A
331
238
  5
23B
331
239
  5
23C
331
23A
  5
23D
331
23B
  5
23E
331
23C
  5
23F
331
23D
  5
240
331
23E
  5
241
331
23F
  5
242
331
240
  5
243
331
241
  5
244
331
242
  5
245
331
243
  5
246
331
244
  5
247
331
245
  5
248
331
246
  5
249
331
247
  5
24A
331
248
  5
24B
331
249
  5
24C
331
24A
  5
24D
331
24B
  5
24E
331
24C
  5
24F
331
24D
  5
250
331
24E
  5
251
331
24F
  5
252
331
250
  5
253
331
251
  5
254
331
252
  5
255
331
253
  5
256
331
254
  5
257
331
255
  5
258
331
256
  5
259
331
257
  5
25A
331
258
  5
25B
331
259
  5
25C
331
25A
  5
25D
331
25B
  5
25E
331
25C
  5
25F
331
25D
  5
260
331
25E
  5
261
331
25F
  5
262
331
260
  5
263
331
261
  5
264
331
262
  5
265
331
263
  5
266
331
264
  5
267
331
265
  5
268
331
266
  5
269
331
267
  5
26A
331
268
  5
26B
331
269
  5
26C
331
26A
  5
26D
331
26B
  5
26E
331
26C
  5
26F
331
26D
  5
270
331
26E
  5
271
331
26F
  5
272
331
270
  5
273
331
271
  5
274
331
272
  5
275
331
273
  5
276
331
274
  5
277
331
275
  5
278
331
276
  5
279
331
277
  5
27A
331
278
  5
27B
331
279
  5
27C
331
27A
  5
27D
331
27B
  5
27E
331
27C
  5
27F
331
27D
  5
280
331
27E
  5
281
331
27F
  5
282
331
280
  5
283
331
281
  5
284
331
282
  5
285
331
283
  5
286
331
284
  5
287
331
285
  5
288
331
286
  5
289
331
287
  5
28A
331
288
  5
28B
331
289
  5
28C
331
28A
  5
28D
331
28B
  5
28E
331
28C
  5
28F
331
28D
  5
290
331
28E
  5
291
331
28F
  5
292
331
290
  5
293
331
291
  5
294
331
292
  5
295
331
293
  5
2B0
331
294
  5
8E
331
295
  5
2B1
331
2B0
  5
2B3
331
2B1
  5
2B4
331
2B3
  5
2B5
331
2B4
  5
2B6
331
2B5
  5
2B7
331
2B6
  5
2B8
331
2B7
  5
2B9
331
2B8
  5
2BA
331
2B9
  5
2BB
331
2BA
  5
2BC
331
2BB
  5
8F
331
2BC
  5
2BE
331
2BE
  5
2BF
331
2BF
  5
2C0
331
2C0
  5
2C1
331
2C1
  5
2C2
331
2C2
  5
2C3
331
2C3
  5
2C4
331
2C4
  5
2C5
331
2C5
  5
2C6
331
2C6
  5
90
  0
GROUP
  5
84
102
{ACAD_REACTORS
330
D
102
}
330
D
100
AcDbGroup
300

 70
     0
 71
     1
340
85
340
86
  0
GROUP
  5
11F
102
{ACAD_REACTORS
330
D
102
}
330
D
100
AcDbGroup
300

 70
     0
 71
     1
340
120
340
121
  0
GROUP
  5
12D
102
{ACAD_REACTORS
330
D
102
}
330
D
100
AcDbGroup
300

 70
     0
 71
     1
340
12E
340
12F
340
130
340
131
340
132
340
133
340
134
340
135
340
136
  0
GROUP
  5
2B2
102
{ACAD_REACTORS
330
D
102
}
330
D
100
AcDbGroup
300

 70
     0
 71
     1
340
2B3
340
2B4
340
2B5
340
2B6
340
2B7
340
2B8
340
2B9
340
2BA
340
2BB
  0
GROUP
  5
2BD
102
{ACAD_REACTORS
330
D
102
}
330
D
100
AcDbGroup
300

 70
     0
 71
     1
340
2BE
340
2BF
340
2C0
340
2C1
340
2C2
340
2C3
340
2C4
340
2C5
340
2C6
  0
LAYOUT
  5
6F
102
{ACAD_REACTORS
330
1A
102
}
330
1A
100
AcDbPlotSettings
  1

  2
none_device
  4
none_user_media
  6

 40
0.0
 41
0.0
 42
0.0
 43
0.0
 44
297.0
 45
209.9
 46
0.0
 47
0.0
 48
0.0
 49
0.0
140
0.0
141
0.0
142
1000.0
143
1.0
 70
   688
 72
     1
 73
     1
 74
     5
  7

 75
    33
 76
     0
 77
     2
 78
   300
147
1000.0
148
0.0
149
0.0
100
AcDbLayout
  1
K20 vertikales Omegaprofil 20 14
 70
     0
 71
     1
 10
-0.0001
 20
-0.0001
 11
0.210102
 21
0.297097
 12
0.0
 22
0.0
 32
0.0
 14
-0.0001
 24
-0.0001
 34
0.0
 15
0.210102
 25
0.297097
 35
0.0
146
0.0
 13
0.0
 23
0.0
 33
0.0
 16
1.0
 26
0.0
 36
0.0
 17
0.0
 27
1.0
 37
0.0
 76
     0
330
6E
331
72
  0
LAYOUT
  5
22
102
{ACAD_REACTORS
330
1A
102
}
330
1A
100
AcDbPlotSettings
  1

  2
none_device
  4
Letter_(8.50_x_11.00_Inches)
  6

 40
6.35
 41
6.35
 42
6.350005
 43
6.350005
 44
215.9
 45
279.4
 46
0.0
 47
0.0
 48
0.0
 49
0.0
140
0.0
141
0.0
142
1.0
143
1.0
 70
  1712
 72
     0
 73
     0
 74
     0
  7

 75
     0
 76
     0
 77
     2
 78
   300
147
1.0
148
0.0
149
0.0
100
AcDbLayout
  1
Model
 70
     1
 71
     0
 10
10.833841
 20
0.858486
 11
11.883851
 21
2.343471
 12
0.0
 22
0.0
 32
0.0
 14
10.833841
 24
0.858486
 34
10.833841
 15
11.883851
 25
2.343471
 35
11.883851
146
0.0
 13
0.0
 23
0.0
 33
0.0
 16
1.0
 26
0.0
 36
0.0
 17
0.0
 27
1.0
 37
0.0
 76
     0
330
1F
331
29
  0
MATERIAL
  5
45
102
{ACAD_REACTORS
330
43
102
}
330
43
100
AcDbMaterial
  1
ByBlock
 72
     1
 94
      127
  0
MATERIAL
  5
44
102
{ACAD_REACTORS
330
43
102
}
330
43
100
AcDbMaterial
  1
ByLayer
 72
     1
 94
      127
  0
MATERIAL
  5
46
102
{ACAD_REACTORS
330
43
102
}
330
43
100
AcDbMaterial
  1
Global
 72
     1
 94
      127
  0
MLEADERSTYLE
  5
6C
102
{ACAD_REACTORS
330
6B
102
}
330
6B
100
AcDbMLeaderStyle
179
     2
170
     2
171
     1
172
     0
 90
        2
 40
0.0
 41
0.0
173
     1
 91
-1056964608
340
14
 92
       -2
290
     1
 42
0.09
291
     1
 43
0.36
  3
Standard
341
0
 44
0.18
300

342
11
174
     1
178
     6
175
     1
176
     0
 93
-1056964608
 45
0.18
292
     0
297
     0
 46
0.18
343
0
 94
-1056964608
 47
1.0
 49
1.0
140
1.0
293
     1
141
0.0
294
     1
177
     0
142
1.0
295
     0
296
     0
143
0.125
271
     0
272
     9
273
     9
  0
MLINESTYLE
  5
18
102
{ACAD_REACTORS
330
17
102
}
330
17
100
AcDbMlineStyle
  2
Standard
 70
     0
  3

 62
   256
 51
90.0
 52
90.0
 71
     2
 49
0.5
 62
   256
  6
BYLAYER
 49
-0.5
 62
   256
  6
BYLAYER
  0
ACDBPLACEHOLDER
  5
F
102
{ACAD_REACTORS
330
E
102
}
330
E
  0
SCALE
  5
48
102
{ACAD_REACTORS
330
47
102
}
330
47
100
AcDbScale
 70
     0
300
1:1
140
1.0
141
1.0
290
     1
  0
SCALE
  5
49
102
{ACAD_REACTORS
330
47
102
}
330
47
100
AcDbScale
 70
     0
300
1:2
140
1.0
141
2.0
290
     0
  0
SCALE
  5
4A
102
{ACAD_REACTORS
330
47
102
}
330
47
100
AcDbScale
 70
     0
300
1:4
140
1.0
141
4.0
290
     0
  0
SCALE
  5
4B
102
{ACAD_REACTORS
330
47
102
}
330
47
100
AcDbScale
 70
     0
300
1:5
140
1.0
141
5.0
290
     0
  0
SCALE
  5
4C
102
{ACAD_REACTORS
330
47
102
}
330
47
100
AcDbScale
 70
     0
300
1:8
140
1.0
141
8.0
290
     0
  0
SCALE
  5
4D
102
{ACAD_REACTORS
330
47
102
}
330
47
100
AcDbScale
 70
     0
300
1:10
140
1.0
141
10.0
290
     0
  0
SCALE
  5
4E
102
{ACAD_REACTORS
330
47
102
}
330
47
100
AcDbScale
 70
     0
300
1:16
140
1.0
141
16.0
290
     0
  0
SCALE
  5
4F
102
{ACAD_REACTORS
330
47
102
}
330
47
100
AcDbScale
 70
     0
300
1:20
140
1.0
141
20.0
290
     0
  0
SCALE
  5
50
102
{ACAD_REACTORS
330
47
102
}
330
47
100
AcDbScale
 70
     0
300
1:30
140
1.0
141
30.0
290
     0
  0
SCALE
  5
51
102
{ACAD_REACTORS
330
47
102
}
330
47
100
AcDbScale
 70
     0
300
1:40
140
1.0
141
40.0
290
     0
  0
SCALE
  5
52
102
{ACAD_REACTORS
330
47
102
}
330
47
100
AcDbScale
 70
     0
300
1:50
140
1.0
141
50.0
290
     0
  0
SCALE
  5
53
102
{ACAD_REACTORS
330
47
102
}
330
47
100
AcDbScale
 70
     0
300
1:100
140
1.0
141
100.0
290
     0
  0
SCALE
  5
54
102
{ACAD_REACTORS
330
47
102
}
330
47
100
AcDbScale
 70
     0
300
2:1
140
2.0
141
1.0
290
     0
  0
SCALE
  5
55
102
{ACAD_REACTORS
330
47
102
}
330
47
100
AcDbScale
 70
     0
300
4:1
140
4.0
141
1.0
290
     0
  0
SCALE
  5
56
102
{ACAD_REACTORS
330
47
102
}
330
47
100
AcDbScale
 70
     0
300
8:1
140
8.0
141
1.0
290
     0
  0
SCALE
  5
57
102
{ACAD_REACTORS
330
47
102
}
330
47
100
AcDbScale
 70
     0
300
10:1
140
10.0
141
1.0
290
     0
  0
SCALE
  5
58
102
{ACAD_REACTORS
330
47
102
}
330
47
100
AcDbScale
 70
     0
300
100:1
140
100.0
141
1.0
290
     0
  0
SCALE
  5
59
102
{ACAD_REACTORS
330
47
102
}
330
47
100
AcDbScale
 70
     0
300
1/128" = 1'-0"
140
0.007812
141
12.0
290
     0
  0
SCALE
  5
5A
102
{ACAD_REACTORS
330
47
102
}
330
47
100
AcDbScale
 70
     0
300
1/64" = 1'-0"
140
0.015625
141
12.0
290
     0
  0
SCALE
  5
5B
102
{ACAD_REACTORS
330
47
102
}
330
47
100
AcDbScale
 70
     0
300
1/32" = 1'-0"
140
0.03125
141
12.0
290
     0
  0
SCALE
  5
5C
102
{ACAD_REACTORS
330
47
102
}
330
47
100
AcDbScale
 70
     0
300
1/16" = 1'-0"
140
0.0625
141
12.0
290
     0
  0
SCALE
  5
5D
102
{ACAD_REACTORS
330
47
102
}
330
47
100
AcDbScale
 70
     0
300
3/32" = 1'-0"
140
0.09375
141
12.0
290
     0
  0
SCALE
  5
5E
102
{ACAD_REACTORS
330
47
102
}
330
47
100
AcDbScale
 70
     0
300
1/8" = 1'-0"
140
0.125
141
12.0
290
     0
  0
SCALE
  5
5F
102
{ACAD_REACTORS
330
47
102
}
330
47
100
AcDbScale
 70
     0
300
3/16" = 1'-0"
140
0.1875
141
12.0
290
     0
  0
SCALE
  5
60
102
{ACAD_REACTORS
330
47
102
}
330
47
100
AcDbScale
 70
     0
300
1/4" = 1'-0"
140
0.25
141
12.0
290
     0
  0
SCALE
  5
61
102
{ACAD_REACTORS
330
47
102
}
330
47
100
AcDbScale
 70
     0
300
3/8" = 1'-0"
140
0.375
141
12.0
290
     0
  0
SCALE
  5
62
102
{ACAD_REACTORS
330
47
102
}
330
47
100
AcDbScale
 70
     0
300
1/2" = 1'-0"
140
0.5
141
12.0
290
     0
  0
SCALE
  5
63
102
{ACAD_REACTORS
330
47
102
}
330
47
100
AcDbScale
 70
     0
300
3/4" = 1'-0"
140
0.75
141
12.0
290
     0
  0
SCALE
  5
64
102
{ACAD_REACTORS
330
47
102
}
330
47
100
AcDbScale
 70
     0
300
1" = 1'-0"
140
1.0
141
12.0
290
     0
  0
SCALE
  5
65
102
{ACAD_REACTORS
330
47
102
}
330
47
100
AcDbScale
 70
     0
300
1-1/2" = 1'-0"
140
1.5
141
12.0
290
     0
  0
SCALE
  5
66
102
{ACAD_REACTORS
330
47
102
}
330
47
100
AcDbScale
 70
     0
300
3" = 1'-0"
140
3.0
141
12.0
290
     0
  0
SCALE
  5
67
102
{ACAD_REACTORS
330
47
102
}
330
47
100
AcDbScale
 70
     0
300
6" = 1'-0"
140
6.0
141
12.0
290
     0
  0
SCALE
  5
68
102
{ACAD_REACTORS
330
47
102
}
330
47
100
AcDbScale
 70
     0
300
1'-0" = 1'-0"
140
12.0
141
12.0
290
     0
  0
TABLESTYLE
  5
6A
102
{ACAD_REACTORS
330
69
102
}
102
{ACAD_XDICTIONARY
360
2FF
102
}
330
69
100
AcDbTableStyle
  3
Standard
 70
     0
 71
     0
 40
0.06
 41
0.06
280
     0
281
     0
  7
Standard
140
0.18
170
     2
 62
     0
 63
   257
283
     0
 90
        4
 91
        0
  1

274
    -2
284
     1
 64
     0
275
    -2
285
     1
 65
     0
276
    -2
286
     1
 66
     0
277
    -2
287
     1
 67
     0
278
    -2
288
     1
 68
     0
279
    -2
289
     1
 69
     0
  7
Standard
140
0.25
170
     5
 62
     0
 63
   257
283
     0
 90
        4
 91
        0
  1

274
    -2
284
     1
 64
     0
275
    -2
285
     1
 65
     0
276
    -2
286
     1
 66
     0
277
    -2
287
     1
 67
     0
278
    -2
288
     1
 68
     0
279
    -2
289
     1
 69
     0
  7
Standard
140
0.18
170
     5
 62
     0
 63
   257
283
     0
 90
        4
 91
        0
  1

274
    -2
284
     1
 64
     0
275
    -2
285
     1
 65
     0
276
    -2
286
     1
 66
     0
277
    -2
287
     1
 67
     0
278
    -2
288
     1
 68
     0
279
    -2
289
     1
 69
     0
  0
VISUALSTYLE
  5
2F
102
{ACAD_REACTORS
330
2A
102
}
102
{ACAD_XDICTIONARY
360
2D7
102
}
330
2A
100
AcDbVisualStyle
  2
2dWireframe
 70
     4
177
     2
291
     0
 71
     0
176
     1
 72
     2
176
     1
 73
     0
176
     1
 90
        0
176
     1
 40
0.6
176
     1
 41
30.0
176
     1
 62
     5
 63
     7
421
 16777215
176
     1
 74
     1
176
     1
 91
        4
176
     1
 64
     7
176
     1
 65
   257
176
     1
 75
     1
176
     1
175
     1
176
     1
 42
1.0
176
     1
 92
        0
176
     1
 66
   257
176
     1
 43
1.0
176
     1
 76
     1
176
     1
 77
     6
176
     1
 78
     2
176
     1
 67
     7
176
     1
 79
     5
176
     1
170
     0
176
     1
171
     0
176
     1
290
     0
176
     1
 93
        1
176
     1
 44
0.0
176
     1
173
     0
176
     1
  0
VISUALSTYLE
  5
32
102
{ACAD_REACTORS
330
2A
102
}
102
{ACAD_XDICTIONARY
360
2DD
102
}
330
2A
100
AcDbVisualStyle
  2
Basic
 70
     7
177
     2
291
     1
 71
     1
176
     1
 72
     0
176
     1
 73
     1
176
     1
 90
        0
176
     1
 40
0.6
176
     1
 41
30.0
176
     1
 62
     5
 63
     7
421
 16777215
176
     1
 74
     0
176
     1
 91
        4
176
     1
 64
     7
176
     1
 65
   257
176
     1
 75
     1
176
     1
175
     1
176
     1
 42
1.0
176
     1
 92
        8
176
     1
 66
     7
176
     1
 43
1.0
176
     1
 76
     1
176
     1
 77
     6
176
     1
 78
     2
176
     1
 67
     7
176
     1
 79
     5
176
     1
170
     0
176
     1
171
     0
176
     1
290
     0
176
     1
 93
        1
176
     1
 44
0.0
176
     1
173
     0
176
     1
  0
VISUALSTYLE
  5
36
102
{ACAD_REACTORS
330
2A
102
}
102
{ACAD_XDICTIONARY
360
2E5
102
}
330
2A
100
AcDbVisualStyle
  2
Brighten
 70
    12
177
     2
291
     1
 71
     2
176
     1
 72
     2
176
     1
 73
     0
176
     1
 90
        0
176
     1
 40
0.6
176
     1
 41
30.0
176
     1
 62
     5
 63
     7
421
 16777215
176
     1
 74
     1
176
     1
 91
        4
176
     1
 64
     7
176
     1
 65
   257
176
     1
 75
     1
176
     1
175
     1
176
     1
 42
1.0
176
     1
 92
        8
176
     1
 66
     7
176
     1
 43
1.0
176
     1
 76
     1
176
     1
 77
     6
176
     1
 78
     2
176
     1
 67
     7
176
     1
 79
     5
176
     1
170
     0
176
     1
171
     0
176
     1
290
     0
176
     1
 93
        1
176
     1
 44
50.0
176
     1
173
     0
176
     1
  0
VISUALSTYLE
  5
3A
102
{ACAD_REACTORS
330
2A
102
}
102
{ACAD_XDICTIONARY
360
2ED
102
}
330
2A
100
AcDbVisualStyle
  2
ColorChange
 70
    16
177
     2
291
     1
 71
     2
176
     1
 72
     2
176
     1
 73
     3
176
     1
 90
        0
176
     1
 40
0.6
176
     1
 41
30.0
176
     1
 62
     5
 63
     8
421
  8421504
176
     1
 74
     1
176
     1
 91
        4
176
     1
 64
     7
176
     1
 65
   257
176
     1
 75
     1
176
     1
175
     1
176
     1
 42
1.0
176
     1
 92
        8
176
     1
 66
     8
424
  8421504
176
     1
 43
1.0
176
     1
 76
     1
176
     1
 77
     6
176
     1
 78
     2
176
     1
 67
     7
176
     1
 79
     5
176
     1
170
     0
176
     1
171
     0
176
     1
290
     0
176
     1
 93
        1
176
     1
 44
0.0
176
     1
173
     0
176
     1
  0
VISUALSTYLE
  5
34
102
{ACAD_REACTORS
330
2A
102
}
102
{ACAD_XDICTIONARY
360
2E1
102
}
330
2A
100
AcDbVisualStyle
  2
Conceptual
 70
     9
177
     2
291
     0
 71
     3
176
     1
 72
     2
176
     1
 73
     0
176
     1
 90
        0
176
     1
 40
0.6
176
     1
 41
30.0
176
     1
 62
     5
 63
     7
421
 16777215
176
     1
 74
     2
176
     1
 91
        2
176
     1
 64
     7
176
     1
 65
   257
176
     1
 75
     1
176
     1
175
     1
176
     1
 42
179.0
176
     1
 92
        8
176
     1
 66
     7
176
     1
 43
1.0
176
     1
 76
     1
176
     1
 77
     6
176
     1
 78
     2
176
     1
 67
     7
176
     1
 79
     3
176
     1
170
     0
176
     1
171
     0
176
     1
290
     0
176
     1
 93
        1
176
     1
 44
0.0
176
     1
173
     0
176
     1
  0
VISUALSTYLE
  5
35
102
{ACAD_REACTORS
330
2A
102
}
102
{ACAD_XDICTIONARY
360
2E3
102
}
330
2A
100
AcDbVisualStyle
  2
Dim
 70
    11
177
     2
291
     1
 71
     2
176
     1
 72
     2
176
     1
 73
     0
176
     1
 90
        0
176
     1
 40
0.6
176
     1
 41
30.0
176
     1
 62
     5
 63
     7
421
 16777215
176
     1
 74
     1
176
     1
 91
        4
176
     1
 64
     7
176
     1
 65
   257
176
     1
 75
     1
176
     1
175
     1
176
     1
 42
1.0
176
     1
 92
        8
176
     1
 66
     7
176
     1
 43
1.0
176
     1
 76
     1
176
     1
 77
     6
176
     1
 78
     2
176
     1
 67
     7
176
     1
 79
     5
176
     1
170
     0
176
     1
171
     0
176
     1
290
     0
176
     1
 93
        1
176
     1
 44
-50.0
176
     1
173
     0
176
     1
  0
VISUALSTYLE
  5
3D
102
{ACAD_REACTORS
330
2A
102
}
102
{ACAD_XDICTIONARY
360
2F3
102
}
330
2A
100
AcDbVisualStyle
  2
EdgeColorOff
 70
    22
177
     2
291
     1
 71
     2
176
     0
 72
     2
176
     0
 73
     0
176
     0
 90
        0
176
     0
 40
0.6
176
     0
 41
30.0
176
     0
 62
     5
 63
     7
421
 16777215
176
     0
 74
     1
176
     0
 91
        4
176
     0
 64
     7
176
     0
 65
   257
176
     0
 75
     1
176
     0
175
     1
176
     0
 42
1.0
176
     0
 92
        8
176
     2
 66
     7
176
     0
 43
1.0
176
     0
 76
     1
176
     0
 77
     6
176
     0
 78
     2
176
     0
 67
     7
176
     0
 79
     5
176
     0
170
     0
176
     0
171
     0
176
     0
290
     0
176
     0
 93
        1
176
     0
 44
0.0
176
     0
173
     0
176
     0
  0
VISUALSTYLE
  5
39
102
{ACAD_REACTORS
330
2A
102
}
102
{ACAD_XDICTIONARY
360
2EB
102
}
330
2A
100
AcDbVisualStyle
  2
Facepattern
 70
    15
177
     2
291
     1
 71
     2
176
     1
 72
     2
176
     1
 73
     0
176
     1
 90
        0
176
     1
 40
0.6
176
     1
 41
30.0
176
     1
 62
     5
 63
     7
421
 16777215
176
     1
 74
     1
176
     1
 91
        4
176
     1
 64
     7
176
     1
 65
   257
176
     1
 75
     1
176
     1
175
     1
176
     1
 42
1.0
176
     1
 92
        8
176
     1
 66
     7
176
     1
 43
1.0
176
     1
 76
     1
176
     1
 77
     6
176
     1
 78
     2
176
     1
 67
     7
176
     1
 79
     5
176
     1
170
     0
176
     1
171
     0
176
     1
290
     0
176
     1
 93
        1
176
     1
 44
0.0
176
     1
173
     0
176
     1
  0
VISUALSTYLE
  5
2B
102
{ACAD_REACTORS
330
2A
102
}
102
{ACAD_XDICTIONARY
360
2CF
102
}
330
2A
100
AcDbVisualStyle
  2
Flat
 70
     0
177
     2
291
     1
 71
     2
176
     1
 72
     1
176
     1
 73
     1
176
     1
 90
        2
176
     1
 40
0.6
176
     1
 41
30.0
176
     1
 62
     5
 63
     7
421
 16777215
176
     1
 74
     0
176
     1
 91
        0
176
     1
 64
     7
176
     1
 65
   257
176
     1
 75
     1
176
     1
175
     1
176
     1
 42
1.0
176
     1
 92
        8
176
     1
 66
     7
176
     1
 43
1.0
176
     1
 76
     1
176
     1
 77
     6
176
     1
 78
     2
176
     1
 67
     7
176
     1
 79
     5
176
     1
170
     0
176
     1
171
     0
176
     1
290
     0
176
     1
 93
       13
176
     1
 44
0.0
176
     1
173
     0
176
     1
  0
VISUALSTYLE
  5
2C
102
{ACAD_REACTORS
330
2A
102
}
102
{ACAD_XDICTIONARY
360
2D1
102
}
330
2A
100
AcDbVisualStyle
  2
FlatWithEdges
 70
     1
177
     2
291
     1
 71
     2
176
     1
 72
     1
176
     1
 73
     1
176
     1
 90
        2
176
     1
 40
0.6
176
     1
 41
30.0
176
     1
 62
     5
 63
     7
421
 16777215
176
     1
 74
     1
176
     1
 91
        0
176
     1
 64
     7
176
     1
 65
   257
176
     1
 75
     1
176
     1
175
     1
176
     1
 42
1.0
176
     1
 92
        0
176
     1
 66
   257
176
     1
 43
1.0
176
     1
 76
     1
176
     1
 77
     6
176
     1
 78
     2
176
     1
 67
     7
176
     1
 79
     5
176
     1
170
     0
176
     1
171
     0
176
     1
290
     0
176
     1
 93
       13
176
     1
 44
0.0
176
     1
173
     0
176
     1
  0
VISUALSTYLE
  5
2D
102
{ACAD_REACTORS
330
2A
102
}
102
{ACAD_XDICTIONARY
360
2D3
102
}
330
2A
100
AcDbVisualStyle
  2
Gouraud
 70
     2
177
     2
291
     1
 71
     2
176
     1
 72
     2
176
     1
 73
     1
176
     1
 90
        2
176
     1
 40
0.6
176
     1
 41
30.0
176
     1
 62
     5
 63
     7
421
 16777215
176
     1
 74
     0
176
     1
 91
        0
176
     1
 64
     7
176
     1
 65
   257
176
     1
 75
     1
176
     1
175
     1
176
     1
 42
1.0
176
     1
 92
        0
176
     1
 66
     7
176
     1
 43
1.0
176
     1
 76
     1
176
     1
 77
     6
176
     1
 78
     2
176
     1
 67
     7
176
     1
 79
     5
176
     1
170
     0
176
     1
171
     0
176
     1
290
     0
176
     1
 93
       13
176
     1
 44
0.0
176
     1
173
     0
176
     1
  0
VISUALSTYLE
  5
2E
102
{ACAD_REACTORS
330
2A
102
}
102
{ACAD_XDICTIONARY
360
2D5
102
}
330
2A
100
AcDbVisualStyle
  2
GouraudWithEdges
 70
     3
177
     2
291
     1
 71
     2
176
     1
 72
     2
176
     1
 73
     1
176
     1
 90
        2
176
     1
 40
0.6
176
     1
 41
30.0
176
     1
 62
     5
 63
     7
421
 16777215
176
     1
 74
     1
176
     1
 91
        0
176
     1
 64
     7
176
     1
 65
   257
176
     1
 75
     1
176
     1
175
     1
176
     1
 42
1.0
176
     1
 92
        0
176
     1
 66
   257
176
     1
 43
1.0
176
     1
 76
     1
176
     1
 77
     6
176
     1
 78
     2
176
     1
 67
     7
176
     1
 79
     5
176
     1
170
     0
176
     1
171
     0
176
     1
290
     0
176
     1
 93
       13
176
     1
 44
0.0
176
     1
173
     0
176
     1
  0
VISUALSTYLE
  5
31
102
{ACAD_REACTORS
330
2A
102
}
102
{ACAD_XDICTIONARY
360
2DB
102
}
330
2A
100
AcDbVisualStyle
  2
Hidden
 70
     6
177
     2
291
     0
 71
     1
176
     1
 72
     2
176
     1
 73
     2
176
     1
 90
        0
176
     1
 40
0.6
176
     1
 41
30.0
176
     1
 62
     5
 63
     7
421
 16777215
176
     1
 74
     2
176
     1
 91
        2
176
     1
 64
     7
176
     1
 65
   257
176
     1
 75
     2
176
     1
175
     1
176
     1
 42
40.0
176
     1
 92
        0
176
     1
 66
   257
176
     1
 43
1.0
176
     1
 76
     1
176
     1
 77
     6
176
     1
 78
     2
176
     1
 67
     7
176
     1
 79
     3
176
     1
170
     0
176
     1
171
     0
176
     1
290
     0
176
     1
 93
        1
176
     1
 44
0.0
176
     1
173
     0
176
     1
  0
VISUALSTYLE
  5
3B
102
{ACAD_REACTORS
330
2A
102
}
102
{ACAD_XDICTIONARY
360
2EF
102
}
330
2A
100
AcDbVisualStyle
  2
JitterOff
 70
    20
177
     2
291
     1
 71
     2
176
     0
 72
     2
176
     0
 73
     0
176
     0
 90
        0
176
     0
 40
0.6
176
     0
 41
30.0
176
     0
 62
     5
 63
     7
421
 16777215
176
     0
 74
     1
176
     0
 91
        4
176
     0
 64
     7
176
     0
 65
   257
176
     0
 75
     1
176
     0
175
     1
176
     0
 42
1.0
176
     0
 92
       10
176
     2
 66
     7
176
     0
 43
1.0
176
     0
 76
     1
176
     0
 77
     6
176
     0
 78
     2
176
     0
 67
     7
176
     0
 79
     5
176
     0
170
     0
176
     0
171
     0
176
     0
290
     0
176
     0
 93
        1
176
     0
 44
0.0
176
     0
173
     0
176
     0
  0
VISUALSTYLE
  5
38
102
{ACAD_REACTORS
330
2A
102
}
102
{ACAD_XDICTIONARY
360
2E9
102
}
330
2A
100
AcDbVisualStyle
  2
Linepattern
 70
    14
177
     2
291
     1
 71
     2
176
     1
 72
     2
176
     1
 73
     0
176
     1
 90
        0
176
     1
 40
0.6
176
     1
 41
30.0
176
     1
 62
     5
 63
     7
421
 16777215
176
     1
 74
     1
176
     1
 91
        4
176
     1
 64
     7
176
     1
 65
   257
176
     1
 75
     7
176
     1
175
     7
176
     1
 42
1.0
176
     1
 92
        8
176
     1
 66
     7
176
     1
 43
1.0
176
     1
 76
     1
176
     1
 77
     6
176
     1
 78
     2
176
     1
 67
     7
176
     1
 79
     5
176
     1
170
     0
176
     1
171
     0
176
     1
290
     0
176
     1
 93
        1
176
     1
 44
0.0
176
     1
173
     0
176
     1
  0
VISUALSTYLE
  5
3C
102
{ACAD_REACTORS
330
2A
102
}
102
{ACAD_XDICTIONARY
360
2F1
102
}
330
2A
100
AcDbVisualStyle
  2
OverhangOff
 70
    21
177
     2
291
     1
 71
     2
176
     0
 72
     2
176
     0
 73
     0
176
     0
 90
        0
176
     0
 40
0.6
176
     0
 41
30.0
176
     0
 62
     5
 63
     7
421
 16777215
176
     0
 74
     1
176
     0
 91
        4
176
     0
 64
     7
176
     0
 65
   257
176
     0
 75
     1
176
     0
175
     1
176
     0
 42
1.0
176
     0
 92
        9
176
     2
 66
     7
176
     0
 43
1.0
176
     0
 76
     1
176
     0
 77
     6
176
     0
 78
     2
176
     0
 67
     7
176
     0
 79
     5
176
     0
170
     0
176
     0
171
     0
176
     0
290
     0
176
     0
 93
        1
176
     0
 44
0.0
176
     0
173
     0
176
     0
  0
VISUALSTYLE
  5
33
102
{ACAD_REACTORS
330
2A
102
}
102
{ACAD_XDICTIONARY
360
2DF
102
}
330
2A
100
AcDbVisualStyle
  2
Realistic
 70
     8
177
     2
291
     0
 71
     2
176
     1
 72
     3
176
     1
 73
     0
176
     1
 90
        2
176
     1
 40
0.6
176
     1
 41
30.0
176
     1
 62
     5
 63
     7
421
 16777215
176
     1
 74
     0
176
     1
 91
        0
176
     1
 64
     7
176
     1
 65
   257
176
     1
 75
     1
176
     1
175
     1
176
     1
 42
1.0
176
     1
 92
        8
176
     1
 66
   257
176
     1
 43
1.0
176
     1
 76
     1
176
     1
 77
     6
176
     1
 78
     2
176
     1
 67
     7
176
     1
 79
     3
176
     1
170
     0
176
     1
171
     0
176
     1
290
     0
176
     1
 93
       13
176
     1
 44
0.0
176
     1
173
     0
176
     1
  0
VISUALSTYLE
  5
42
102
{ACAD_REACTORS
330
2A
102
}
102
{ACAD_XDICTIONARY
360
2FD
102
}
330
2A
100
AcDbVisualStyle
  2
Shaded
 70
    27
177
     2
291
     0
 71
     2
176
     1
 72
     2
176
     1
 73
     1
176
     1
 90
        2
176
     1
 40
0.6
176
     1
 41
30.0
176
     1
 62
     5
 63
     7
421
 16777215
176
     1
 74
     0
176
     1
 91
        4
176
     1
 64
     7
176
     1
 65
   257
176
     1
 75
     1
176
     1
175
     1
176
     1
 42
1.0
176
     1
 92
        8
176
     1
 66
   257
176
     1
 43
1.0
176
     1
 76
     1
176
     1
 77
     6
176
     1
 78
     2
176
     1
 67
     8
425
  7895160
176
     1
 79
     3
176
     1
170
     0
176
     1
171
     0
176
     1
290
     0
176
     1
 93
        5
176
     1
 44
0.0
176
     1
173
     0
176
     1
  0
VISUALSTYLE
  5
41
102
{ACAD_REACTORS
330
2A
102
}
102
{ACAD_XDICTIONARY
360
2FB
102
}
330
2A
100
AcDbVisualStyle
  2
Shaded with edges
 70
    26
177
     2
291
     0
 71
     2
176
     1
 72
     2
176
     1
 73
     1
176
     1
 90
        2
176
     1
 40
0.6
176
     1
 41
30.0
176
     1
 62
     5
 63
     7
421
 16777215
176
     1
 74
     1
176
     1
 91
       10
176
     1
 64
     7
176
     1
 65
   257
176
     1
 75
     2
176
     1
175
     1
176
     1
 42
1.0
176
     1
 92
        8
176
     1
 66
   257
176
     1
 43
1.0
176
     1
 76
     1
176
     1
 77
     6
176
     1
 78
     2
176
     1
 67
     7
176
     1
 79
     3
176
     1
170
     0
176
     1
171
     0
176
     1
290
     0
176
     1
 93
        5
176
     1
 44
0.0
176
     1
173
     0
176
     1
  0
VISUALSTYLE
  5
3E
102
{ACAD_REACTORS
330
2A
102
}
102
{ACAD_XDICTIONARY
360
2F5
102
}
330
2A
100
AcDbVisualStyle
  2
Shades of Gray
 70
    23
177
     2
291
     0
 71
     2
176
     1
 72
     2
176
     1
 73
     3
176
     1
 90
        0
176
     1
 40
0.6
176
     1
 41
30.0
176
     1
 62
     5
 63
     7
421
 16777215
176
     1
 74
     2
176
     1
 91
        2
176
     1
 64
     7
176
     1
 65
     7
176
     1
 75
     1
176
     1
175
     1
176
     1
 42
40.0
176
     1
 92
        8
176
     1
 66
     7
176
     1
 43
1.0
176
     1
 76
     1
176
     1
 77
     6
176
     1
 78
     2
176
     1
 67
     7
176
     1
 79
     3
176
     1
170
     0
176
     1
171
     0
176
     1
290
     0
176
     1
 93
        1
176
     1
 44
0.0
176
     1
173
     0
176
     1
  0
VISUALSTYLE
  5
3F
102
{ACAD_REACTORS
330
2A
102
}
102
{ACAD_XDICTIONARY
360
2F7
102
}
330
2A
100
AcDbVisualStyle
  2
Sketchy
 70
    24
177
     2
291
     0
 71
     1
176
     1
 72
     2
176
     1
 73
     2
176
     1
 90
        0
176
     1
 40
0.6
176
     1
 41
30.0
176
     1
 62
     5
 63
     7
421
 16777215
176
     1
 74
     2
176
     1
 91
        2
176
     1
 64
     7
176
     1
 65
     7
176
     1
 75
     1
176
     1
175
     1
176
     1
 42
40.0
176
     1
 92
       11
176
     1
 66
     7
176
     1
 43
1.0
176
     1
 76
     1
176
     1
 77
     6
176
     1
 78
     2
176
     1
 67
     7
176
     1
 79
     6
176
     1
170
     0
176
     1
171
     0
176
     1
290
     0
176
     1
 93
        1
176
     1
 44
0.0
176
     1
173
     0
176
     1
  0
VISUALSTYLE
  5
37
102
{ACAD_REACTORS
330
2A
102
}
102
{ACAD_XDICTIONARY
360
2E7
102
}
330
2A
100
AcDbVisualStyle
  2
Thicken
 70
    13
177
     2
291
     1
 71
     2
176
     1
 72
     2
176
     1
 73
     0
176
     1
 90
        0
176
     1
 40
0.6
176
     1
 41
30.0
176
     1
 62
     5
 63
     7
421
 16777215
176
     1
 74
     1
176
     1
 91
        4
176
     1
 64
     7
176
     1
 65
   257
176
     1
 75
     1
176
     1
175
     1
176
     1
 42
1.0
176
     1
 92
       12
176
     1
 66
     7
176
     1
 43
1.0
176
     1
 76
     1
176
     1
 77
     6
176
     1
 78
     2
176
     1
 67
     7
176
     1
 79
     5
176
     1
170
     0
176
     1
171
     0
176
     1
290
     0
176
     1
 93
        1
176
     1
 44
0.0
176
     1
173
     0
176
     1
  0
VISUALSTYLE
  5
30
102
{ACAD_REACTORS
330
2A
102
}
102
{ACAD_XDICTIONARY
360
2D9
102
}
330
2A
100
AcDbVisualStyle
  2
Wireframe
 70
     5
177
     2
291
     0
 71
     0
176
     1
 72
     2
176
     1
 73
     0
176
     1
 90
        0
176
     1
 40
0.6
176
     1
 41
30.0
176
     1
 62
     5
 63
     7
421
 16777215
176
     1
 74
     1
176
     1
 91
        4
176
     1
 64
     7
176
     1
 65
   257
176
     1
 75
     1
176
     1
175
     1
176
     1
 42
1.0
176
     1
 92
        0
176
     1
 66
   257
176
     1
 43
1.0
176
     1
 76
     1
176
     1
 77
     6
176
     1
 78
     2
176
     1
 67
     7
176
     1
 79
     3
176
     1
170
     0
176
     1
171
     0
176
     1
290
     0
176
     1
 93
        1
176
     1
 44
0.0
176
     1
173
     0
176
     1
  0
VISUALSTYLE
  5
40
102
{ACAD_REACTORS
330
2A
102
}
102
{ACAD_XDICTIONARY
360
2F9
102
}
330
2A
100
AcDbVisualStyle
  2
X-Ray
 70
    25
177
     2
291
     0
 71
     2
176
     1
 72
     2
176
     1
 73
     1
176
     1
 90
        1
176
     1
 40
0.5
176
     1
 41
30.0
176
     1
 62
     5
 63
     7
421
 16777215
176
     1
 74
     1
176
     1
 91
        0
176
     1
 64
     7
176
     1
 65
   257
176
     1
 75
     1
176
     1
175
     1
176
     1
 42
1.0
176
     1
 92
        8
176
     1
 66
     7
176
     1
 43
1.0
176
     1
 76
     1
176
     1
 77
     6
176
     1
 78
     2
176
     1
 67
     7
176
     1
 79
     3
176
     1
170
     0
176
     1
171
     0
176
     1
290
     0
176
     1
 93
       13
176
     1
 44
0.0
176
     1
173
     0
176
     1
  0
DICTIONARYVAR
  5
2CE
102
{ACAD_REACTORS
330
2CD
102
}
330
2CD
100
DictionaryVariables
280
     0
  1
1:1
  0
DICTIONARYVAR
  5
303
102
{ACAD_REACTORS
330
2CD
102
}
330
2CD
100
DictionaryVariables
280
     0
  1
Standard
  0
DICTIONARYVAR
  5
302
102
{ACAD_REACTORS
330
2CD
102
}
330
2CD
100
DictionaryVariables
280
     0
  1
Standard
  0
DICTIONARY
  5
2FF
330
6A
100
AcDbDictionary
280
     1
281
     1
  3
ACAD_ROUNDTRIP_2008_TABLESTYLE_CELLSTYLEMAP
360
300
  0
DICTIONARY
  5
2D7
330
2F
100
AcDbDictionary
280
     1
281
     1
  3
ACAD_XREC_ROUNDTRIP
360
2D8
  0
DICTIONARY
  5
2DD
330
32
100
AcDbDictionary
280
     1
281
     1
  3
ACAD_XREC_ROUNDTRIP
360
2DE
  0
DICTIONARY
  5
2E5
330
36
100
AcDbDictionary
280
     1
281
     1
  3
ACAD_XREC_ROUNDTRIP
360
2E6
  0
DICTIONARY
  5
2ED
330
3A
100
AcDbDictionary
280
     1
281
     1
  3
ACAD_XREC_ROUNDTRIP
360
2EE
  0
DICTIONARY
  5
2E1
330
34
100
AcDbDictionary
280
     1
281
     1
  3
ACAD_XREC_ROUNDTRIP
360
2E2
  0
DICTIONARY
  5
2E3
330
35
100
AcDbDictionary
280
     1
281
     1
  3
ACAD_XREC_ROUNDTRIP
360
2E4
  0
DICTIONARY
  5
2F3
330
3D
100
AcDbDictionary
280
     1
281
     1
  3
ACAD_XREC_ROUNDTRIP
360
2F4
  0
DICTIONARY
  5
2EB
330
39
100
AcDbDictionary
280
     1
281
     1
  3
ACAD_XREC_ROUNDTRIP
360
2EC
  0
DICTIONARY
  5
2CF
330
2B
100
AcDbDictionary
280
     1
281
     1
  3
ACAD_XREC_ROUNDTRIP
360
2D0
  0
DICTIONARY
  5
2D1
330
2C
100
AcDbDictionary
280
     1
281
     1
  3
ACAD_XREC_ROUNDTRIP
360
2D2
  0
DICTIONARY
  5
2D3
330
2D
100
AcDbDictionary
280
     1
281
     1
  3
ACAD_XREC_ROUNDTRIP
360
2D4
  0
DICTIONARY
  5
2D5
330
2E
100
AcDbDictionary
280
     1
281
     1
  3
ACAD_XREC_ROUNDTRIP
360
2D6
  0
DICTIONARY
  5
2DB
330
31
100
AcDbDictionary
280
     1
281
     1
  3
ACAD_XREC_ROUNDTRIP
360
2DC
  0
DICTIONARY
  5
2EF
330
3B
100
AcDbDictionary
280
     1
281
     1
  3
ACAD_XREC_ROUNDTRIP
360
2F0
  0
DICTIONARY
  5
2E9
330
38
100
AcDbDictionary
280
     1
281
     1
  3
ACAD_XREC_ROUNDTRIP
360
2EA
  0
DICTIONARY
  5
2F1
330
3C
100
AcDbDictionary
280
     1
281
     1
  3
ACAD_XREC_ROUNDTRIP
360
2F2
  0
DICTIONARY
  5
2DF
330
33
100
AcDbDictionary
280
     1
281
     1
  3
ACAD_XREC_ROUNDTRIP
360
2E0
  0
DICTIONARY
  5
2FD
330
42
100
AcDbDictionary
280
     1
281
     1
  3
ACAD_XREC_ROUNDTRIP
360
2FE
  0
DICTIONARY
  5
2FB
330
41
100
AcDbDictionary
280
     1
281
     1
  3
ACAD_XREC_ROUNDTRIP
360
2FC
  0
DICTIONARY
  5
2F5
330
3E
100
AcDbDictionary
280
     1
281
     1
  3
ACAD_XREC_ROUNDTRIP
360
2F6
  0
DICTIONARY
  5
2F7
330
3F
100
AcDbDictionary
280
     1
281
     1
  3
ACAD_XREC_ROUNDTRIP
360
2F8
  0
DICTIONARY
  5
2E7
330
37
100
AcDbDictionary
280
     1
281
     1
  3
ACAD_XREC_ROUNDTRIP
360
2E8
  0
DICTIONARY
  5
2D9
330
30
100
AcDbDictionary
280
     1
281
     1
  3
ACAD_XREC_ROUNDTRIP
360
2DA
  0
DICTIONARY
  5
2F9
330
40
100
AcDbDictionary
280
     1
281
     1
  3
ACAD_XREC_ROUNDTRIP
360
2FA
  0
CELLSTYLEMAP
  5
300
102
{ACAD_REACTORS
330
2FF
102
}
330
2FF
100
AcDbCellStyleMap
 90
        3
300
CELLSTYLE
  1
TABLEFORMAT_BEGIN
 90
        5
170
     1
 91
        0
 92
    32768
 62
   257
 93
        1
300
CONTENTFORMAT
  1
CONTENTFORMAT_BEGIN
 90
        0
 91
        0
 92
        4
 93
        0
300

 40
0.0
140
1.0
 94
        5
 62
     0
340
11
144
0.25
309
CONTENTFORMAT_END
171
     1
301
MARGIN
  1
CELLMARGIN_BEGIN
 40
0.06
 40
0.06
 40
0.06
 40
0.06
 40
0.06
 40
0.06
309
CELLMARGIN_END
 94
        6
 95
        1
302
GRIDFORMAT
  1
GRIDFORMAT_BEGIN
 90
        0
 91
        1
 62
     0
 92
       -2
340
14
 93
        0
 40
0.045
309
GRIDFORMAT_END
 95
        2
302
GRIDFORMAT
  1
GRIDFORMAT_BEGIN
 90
        0
 91
        1
 62
     0
 92
       -2
340
14
 93
        0
 40
0.045
309
GRIDFORMAT_END
 95
        4
302
GRIDFORMAT
  1
GRIDFORMAT_BEGIN
 90
        0
 91
        1
 62
     0
 92
       -2
340
14
 93
        0
 40
0.045
309
GRIDFORMAT_END
 95
        8
302
GRIDFORMAT
  1
GRIDFORMAT_BEGIN
 90
        0
 91
        1
 62
     0
 92
       -2
340
14
 93
        0
 40
0.045
309
GRIDFORMAT_END
 95
       16
302
GRIDFORMAT
  1
GRIDFORMAT_BEGIN
 90
        0
 91
        1
 62
     0
 92
       -2
340
14
 93
        0
 40
0.045
309
GRIDFORMAT_END
 95
       32
302
GRIDFORMAT
  1
GRIDFORMAT_BEGIN
 90
        0
 91
        1
 62
     0
 92
       -2
340
14
 93
        0
 40
0.045
309
GRIDFORMAT_END
309
TABLEFORMAT_END
  1
CELLSTYLE_BEGIN
 90
        1
 91
        1
300
_TITLE
309
CELLSTYLE_END
300
CELLSTYLE
  1
TABLEFORMAT_BEGIN
 90
        5
170
     1
 91
        0
 92
        0
 62
   257
 93
        1
300
CONTENTFORMAT
  1
CONTENTFORMAT_BEGIN
 90
        0
 91
        0
 92
        4
 93
        0
300

 40
0.0
140
1.0
 94
        5
 62
     0
340
11
144
0.18
309
CONTENTFORMAT_END
171
     1
301
MARGIN
  1
CELLMARGIN_BEGIN
 40
0.06
 40
0.06
 40
0.06
 40
0.06
 40
0.06
 40
0.06
309
CELLMARGIN_END
 94
        6
 95
        1
302
GRIDFORMAT
  1
GRIDFORMAT_BEGIN
 90
        0
 91
        1
 62
     0
 92
       -2
340
14
 93
        0
 40
0.045
309
GRIDFORMAT_END
 95
        2
302
GRIDFORMAT
  1
GRIDFORMAT_BEGIN
 90
        0
 91
        1
 62
     0
 92
       -2
340
14
 93
        0
 40
0.045
309
GRIDFORMAT_END
 95
        4
302
GRIDFORMAT
  1
GRIDFORMAT_BEGIN
 90
        0
 91
        1
 62
     0
 92
       -2
340
14
 93
        0
 40
0.045
309
GRIDFORMAT_END
 95
        8
302
GRIDFORMAT
  1
GRIDFORMAT_BEGIN
 90
        0
 91
        1
 62
     0
 92
       -2
340
14
 93
        0
 40
0.045
309
GRIDFORMAT_END
 95
       16
302
GRIDFORMAT
  1
GRIDFORMAT_BEGIN
 90
        0
 91
        1
 62
     0
 92
       -2
340
14
 93
        0
 40
0.045
309
GRIDFORMAT_END
 95
       32
302
GRIDFORMAT
  1
GRIDFORMAT_BEGIN
 90
        0
 91
        1
 62
     0
 92
       -2
340
14
 93
        0
 40
0.045
309
GRIDFORMAT_END
309
TABLEFORMAT_END
  1
CELLSTYLE_BEGIN
 90
        2
 91
        1
300
_HEADER
309
CELLSTYLE_END
300
CELLSTYLE
  1
TABLEFORMAT_BEGIN
 90
        5
170
     1
 91
        0
 92
        0
 62
   257
 93
        1
300
CONTENTFORMAT
  1
CONTENTFORMAT_BEGIN
 90
        0
 91
        0
 92
        4
 93
        0
300

 40
0.0
140
1.0
 94
        2
 62
     0
340
11
144
0.18
309
CONTENTFORMAT_END
171
     1
301
MARGIN
  1
CELLMARGIN_BEGIN
 40
0.06
 40
0.06
 40
0.06
 40
0.06
 40
0.06
 40
0.06
309
CELLMARGIN_END
 94
        6
 95
        1
302
GRIDFORMAT
  1
GRIDFORMAT_BEGIN
 90
        0
 91
        1
 62
     0
 92
       -2
340
14
 93
        0
 40
0.045
309
GRIDFORMAT_END
 95
        2
302
GRIDFORMAT
  1
GRIDFORMAT_BEGIN
 90
        0
 91
        1
 62
     0
 92
       -2
340
14
 93
        0
 40
0.045
309
GRIDFORMAT_END
 95
        4
302
GRIDFORMAT
  1
GRIDFORMAT_BEGIN
 90
        0
 91
        1
 62
     0
 92
       -2
340
14
 93
        0
 40
0.045
309
GRIDFORMAT_END
 95
        8
302
GRIDFORMAT
  1
GRIDFORMAT_BEGIN
 90
        0
 91
        1
 62
     0
 92
       -2
340
14
 93
        0
 40
0.045
309
GRIDFORMAT_END
 95
       16
302
GRIDFORMAT
  1
GRIDFORMAT_BEGIN
 90
        0
 91
        1
 62
     0
 92
       -2
340
14
 93
        0
 40
0.045
309
GRIDFORMAT_END
 95
       32
302
GRIDFORMAT
  1
GRIDFORMAT_BEGIN
 90
        0
 91
        1
 62
     0
 92
       -2
340
14
 93
        0
 40
0.045
309
GRIDFORMAT_END
309
TABLEFORMAT_END
  1
CELLSTYLE_BEGIN
 90
        3
 91
        2
300
_DATA
309
CELLSTYLE_END
  0
XRECORD
  5
2D8
102
{ACAD_REACTORS
330
2D7
102
}
330
2D7
100
AcDbXrecord
280
     1
102
RTVSPost2010Prop28
280
     1
102
RTVSPost2010PropOp28
 70
     1
102
RTVSPost2010Prop29
280
     1
102
RTVSPost2010PropOp29
 70
     1
102
RTVSPost2010Prop30
280
     0
102
RTVSPost2010PropOp30
 70
     1
102
RTVSPost2010Prop31
280
     0
102
RTVSPost2010PropOp31
 70
     1
102
RTVSPost2010Prop32
280
     0
102
RTVSPost2010PropOp32
 70
     1
102
RTVSPost2010Prop33
280
     0
102
RTVSPost2010PropOp33
 70
     1
102
RTVSPost2010Prop34
280
     0
102
RTVSPost2010PropOp34
 70
     1
102
RTVSPost2010Prop35
280
     0
102
RTVSPost2010PropOp35
 70
     1
102
RTVSPost2010Prop36
280
     0
102
RTVSPost2010PropOp36
 70
     1
102
RTVSPost2010Prop37
 90
       50
102
RTVSPost2010PropOp37
 70
     1
102
RTVSPost2010Prop38
140
0.0
102
RTVSPost2010PropOp38
 70
     1
102
RTVSPost2010Prop39
140
1.0
102
RTVSPost2010PropOp39
 70
     1
102
RTVSPost2010Prop40
 90
        0
102
RTVSPost2010PropOp40
 70
     1
102
RTVSPost2010Prop41ColorIndex
 90
       18
102
RTVSPost2010Prop41ColorRGB
 90
        0
102
RTVSPost2010PropOp41
 70
     1
102
RTVSPost2010Prop42
 90
       50
102
RTVSPost2010PropOp42
 70
     1
102
RTVSPost2010Prop43
 90
        3
102
RTVSPost2010PropOp43
 70
     1
102
RTVSPost2010Prop44ColorIndex
 90
        5
102
RTVSPost2010Prop44ColorRGB
 90
      255
102
RTVSPost2010PropOp44
 70
     1
102
RTVSPost2010Prop45
280
     0
102
RTVSPost2010PropOp45
 70
     1
102
RTVSPost2010Prop46
 90
       50
102
RTVSPost2010PropOp46
 70
     1
102
RTVSPost2010Prop47
 90
       50
102
RTVSPost2010PropOp47
 70
     1
102
RTVSPost2010Prop48
 90
       50
102
RTVSPost2010PropOp48
 70
     1
102
RTVSPost2010Prop49
280
     0
102
RTVSPost2010PropOp49
 70
     1
102
RTVSPost2010Prop50
 90
       50
102
RTVSPost2010PropOp50
 70
     1
102
RTVSPost2010Prop51ColorIndex
 90
      256
102
RTVSPost2010Prop51ColorRGB
 90
-16777216
102
RTVSPost2010PropOp51
 70
     0
102
RTVSPost2010Prop52
140
1.0
102
RTVSPost2010PropOp52
 70
     0
102
RTVSPost2010Prop53
 90
        2
102
RTVSPost2010PropOp53
 70
     1
102
RTVSPost2010Prop54
  1
strokes_ogs.tif
102
RTVSPost2010PropOp54
 70
     1
102
RTVSPost2010Prop55
280
     0
102
RTVSPost2010PropOp55
 70
     1
102
RTVSPost2010Prop56
140
1.0
102
RTVSPost2010PropOp56
 70
     1
102
RTVSPost2010Prop57
140
1.0
102
RTVSPost2010PropOp57
 70
     1
  0
XRECORD
  5
2DE
102
{ACAD_REACTORS
330
2DD
102
}
330
2DD
100
AcDbXrecord
280
     1
102
RTVSPost2010Prop28
280
     0
102
RTVSPost2010PropOp28
 70
     1
102
RTVSPost2010Prop29
280
     1
102
RTVSPost2010PropOp29
 70
     1
102
RTVSPost2010Prop30
280
     1
102
RTVSPost2010PropOp30
 70
     1
102
RTVSPost2010Prop31
280
     0
102
RTVSPost2010PropOp31
 70
     1
102
RTVSPost2010Prop32
280
     0
102
RTVSPost2010PropOp32
 70
     1
102
RTVSPost2010Prop33
280
     0
102
RTVSPost2010PropOp33
 70
     1
102
RTVSPost2010Prop34
280
     0
102
RTVSPost2010PropOp34
 70
     1
102
RTVSPost2010Prop35
280
     0
102
RTVSPost2010PropOp35
 70
     1
102
RTVSPost2010Prop36
280
     0
102
RTVSPost2010PropOp36
 70
     1
102
RTVSPost2010Prop37
 90
       50
102
RTVSPost2010PropOp37
 70
     1
102
RTVSPost2010Prop38
140
0.0
102
RTVSPost2010PropOp38
 70
     1
102
RTVSPost2010Prop39
140
1.0
102
RTVSPost2010PropOp39
 70
     1
102
RTVSPost2010Prop40
 90
        0
102
RTVSPost2010PropOp40
 70
     1
102
RTVSPost2010Prop41ColorIndex
 90
       18
102
RTVSPost2010Prop41ColorRGB
 90
        0
102
RTVSPost2010PropOp41
 70
     1
102
RTVSPost2010Prop42
 90
       50
102
RTVSPost2010PropOp42
 70
     1
102
RTVSPost2010Prop43
 90
        3
102
RTVSPost2010PropOp43
 70
     1
102
RTVSPost2010Prop44ColorIndex
 90
        5
102
RTVSPost2010Prop44ColorRGB
 90
      255
102
RTVSPost2010PropOp44
 70
     1
102
RTVSPost2010Prop45
280
     0
102
RTVSPost2010PropOp45
 70
     1
102
RTVSPost2010Prop46
 90
       50
102
RTVSPost2010PropOp46
 70
     1
102
RTVSPost2010Prop47
 90
       50
102
RTVSPost2010PropOp47
 70
     1
102
RTVSPost2010Prop48
 90
       50
102
RTVSPost2010PropOp48
 70
     1
102
RTVSPost2010Prop49
280
     0
102
RTVSPost2010PropOp49
 70
     1
102
RTVSPost2010Prop50
 90
       50
102
RTVSPost2010PropOp50
 70
     1
102
RTVSPost2010Prop51ColorIndex
 90
      256
102
RTVSPost2010Prop51ColorRGB
 90
-16777216
102
RTVSPost2010PropOp51
 70
     0
102
RTVSPost2010Prop52
140
1.0
102
RTVSPost2010PropOp52
 70
     0
102
RTVSPost2010Prop53
 90
        2
102
RTVSPost2010PropOp53
 70
     1
102
RTVSPost2010Prop54
  1
strokes_ogs.tif
102
RTVSPost2010PropOp54
 70
     1
102
RTVSPost2010Prop55
280
     0
102
RTVSPost2010PropOp55
 70
     1
102
RTVSPost2010Prop56
140
1.0
102
RTVSPost2010PropOp56
 70
     1
102
RTVSPost2010Prop57
140
1.0
102
RTVSPost2010PropOp57
 70
     1
  0
XRECORD
  5
2E6
102
{ACAD_REACTORS
330
2E5
102
}
330
2E5
100
AcDbXrecord
280
     1
102
RTVSPost2010Prop28
280
     0
102
RTVSPost2010PropOp28
 70
     1
102
RTVSPost2010Prop29
280
     1
102
RTVSPost2010PropOp29
 70
     1
102
RTVSPost2010Prop30
280
     1
102
RTVSPost2010PropOp30
 70
     1
102
RTVSPost2010Prop31
280
     0
102
RTVSPost2010PropOp31
 70
     1
102
RTVSPost2010Prop32
280
     0
102
RTVSPost2010PropOp32
 70
     1
102
RTVSPost2010Prop33
280
     0
102
RTVSPost2010PropOp33
 70
     1
102
RTVSPost2010Prop34
280
     0
102
RTVSPost2010PropOp34
 70
     1
102
RTVSPost2010Prop35
280
     0
102
RTVSPost2010PropOp35
 70
     1
102
RTVSPost2010Prop36
280
     0
102
RTVSPost2010PropOp36
 70
     1
102
RTVSPost2010Prop37
 90
       50
102
RTVSPost2010PropOp37
 70
     1
102
RTVSPost2010Prop38
140
0.0
102
RTVSPost2010PropOp38
 70
     1
102
RTVSPost2010Prop39
140
1.0
102
RTVSPost2010PropOp39
 70
     1
102
RTVSPost2010Prop40
 90
        0
102
RTVSPost2010PropOp40
 70
     1
102
RTVSPost2010Prop41ColorIndex
 90
       18
102
RTVSPost2010Prop41ColorRGB
 90
        0
102
RTVSPost2010PropOp41
 70
     1
102
RTVSPost2010Prop42
 90
       50
102
RTVSPost2010PropOp42
 70
     1
102
RTVSPost2010Prop43
 90
        3
102
RTVSPost2010PropOp43
 70
     1
102
RTVSPost2010Prop44ColorIndex
 90
        5
102
RTVSPost2010Prop44ColorRGB
 90
      255
102
RTVSPost2010PropOp44
 70
     1
102
RTVSPost2010Prop45
280
     0
102
RTVSPost2010PropOp45
 70
     1
102
RTVSPost2010Prop46
 90
       50
102
RTVSPost2010PropOp46
 70
     1
102
RTVSPost2010Prop47
 90
       50
102
RTVSPost2010PropOp47
 70
     1
102
RTVSPost2010Prop48
 90
       50
102
RTVSPost2010PropOp48
 70
     1
102
RTVSPost2010Prop49
280
     0
102
RTVSPost2010PropOp49
 70
     1
102
RTVSPost2010Prop50
 90
       50
102
RTVSPost2010PropOp50
 70
     1
102
RTVSPost2010Prop51ColorIndex
 90
      256
102
RTVSPost2010Prop51ColorRGB
 90
-16777216
102
RTVSPost2010PropOp51
 70
     0
102
RTVSPost2010Prop52
140
1.0
102
RTVSPost2010PropOp52
 70
     0
102
RTVSPost2010Prop53
 90
        2
102
RTVSPost2010PropOp53
 70
     1
102
RTVSPost2010Prop54
  1
strokes_ogs.tif
102
RTVSPost2010PropOp54
 70
     1
102
RTVSPost2010Prop55
280
     0
102
RTVSPost2010PropOp55
 70
     1
102
RTVSPost2010Prop56
140
1.0
102
RTVSPost2010PropOp56
 70
     1
102
RTVSPost2010Prop57
140
1.0
102
RTVSPost2010PropOp57
 70
     1
  0
XRECORD
  5
2EE
102
{ACAD_REACTORS
330
2ED
102
}
330
2ED
100
AcDbXrecord
280
     1
102
RTVSPost2010Prop28
280
     0
102
RTVSPost2010PropOp28
 70
     1
102
RTVSPost2010Prop29
280
     1
102
RTVSPost2010PropOp29
 70
     1
102
RTVSPost2010Prop30
280
     1
102
RTVSPost2010PropOp30
 70
     1
102
RTVSPost2010Prop31
280
     0
102
RTVSPost2010PropOp31
 70
     1
102
RTVSPost2010Prop32
280
     0
102
RTVSPost2010PropOp32
 70
     1
102
RTVSPost2010Prop33
280
     0
102
RTVSPost2010PropOp33
 70
     1
102
RTVSPost2010Prop34
280
     0
102
RTVSPost2010PropOp34
 70
     1
102
RTVSPost2010Prop35
280
     0
102
RTVSPost2010PropOp35
 70
     1
102
RTVSPost2010Prop36
280
     0
102
RTVSPost2010PropOp36
 70
     1
102
RTVSPost2010Prop37
 90
       50
102
RTVSPost2010PropOp37
 70
     1
102
RTVSPost2010Prop38
140
0.0
102
RTVSPost2010PropOp38
 70
     1
102
RTVSPost2010Prop39
140
1.0
102
RTVSPost2010PropOp39
 70
     1
102
RTVSPost2010Prop40
 90
        0
102
RTVSPost2010PropOp40
 70
     1
102
RTVSPost2010Prop41ColorIndex
 90
       18
102
RTVSPost2010Prop41ColorRGB
 90
        0
102
RTVSPost2010PropOp41
 70
     1
102
RTVSPost2010Prop42
 90
       50
102
RTVSPost2010PropOp42
 70
     1
102
RTVSPost2010Prop43
 90
        3
102
RTVSPost2010PropOp43
 70
     1
102
RTVSPost2010Prop44ColorIndex
 90
        5
102
RTVSPost2010Prop44ColorRGB
 90
      255
102
RTVSPost2010PropOp44
 70
     1
102
RTVSPost2010Prop45
280
     0
102
RTVSPost2010PropOp45
 70
     1
102
RTVSPost2010Prop46
 90
       50
102
RTVSPost2010PropOp46
 70
     1
102
RTVSPost2010Prop47
 90
       50
102
RTVSPost2010PropOp47
 70
     1
102
RTVSPost2010Prop48
 90
       50
102
RTVSPost2010PropOp48
 70
     1
102
RTVSPost2010Prop49
280
     0
102
RTVSPost2010PropOp49
 70
     1
102
RTVSPost2010Prop50
 90
       50
102
RTVSPost2010PropOp50
 70
     1
102
RTVSPost2010Prop51ColorIndex
 90
      256
102
RTVSPost2010Prop51ColorRGB
 90
-16777216
102
RTVSPost2010PropOp51
 70
     0
102
RTVSPost2010Prop52
140
1.0
102
RTVSPost2010PropOp52
 70
     0
102
RTVSPost2010Prop53
 90
        2
102
RTVSPost2010PropOp53
 70
     1
102
RTVSPost2010Prop54
  1
strokes_ogs.tif
102
RTVSPost2010PropOp54
 70
     1
102
RTVSPost2010Prop55
280
     0
102
RTVSPost2010PropOp55
 70
     1
102
RTVSPost2010Prop56
140
1.0
102
RTVSPost2010PropOp56
 70
     1
102
RTVSPost2010Prop57
140
1.0
102
RTVSPost2010PropOp57
 70
     1
  0
XRECORD
  5
2E2
102
{ACAD_REACTORS
330
2E1
102
}
330
2E1
100
AcDbXrecord
280
     1
102
RTVSPost2010Prop28
280
     0
102
RTVSPost2010PropOp28
 70
     1
102
RTVSPost2010Prop29
280
     1
102
RTVSPost2010PropOp29
 70
     1
102
RTVSPost2010Prop30
280
     1
102
RTVSPost2010PropOp30
 70
     1
102
RTVSPost2010Prop31
280
     0
102
RTVSPost2010PropOp31
 70
     1
102
RTVSPost2010Prop32
280
     0
102
RTVSPost2010PropOp32
 70
     1
102
RTVSPost2010Prop33
280
     0
102
RTVSPost2010PropOp33
 70
     1
102
RTVSPost2010Prop34
280
     0
102
RTVSPost2010PropOp34
 70
     1
102
RTVSPost2010Prop35
280
     0
102
RTVSPost2010PropOp35
 70
     1
102
RTVSPost2010Prop36
280
     0
102
RTVSPost2010PropOp36
 70
     1
102
RTVSPost2010Prop37
 90
       50
102
RTVSPost2010PropOp37
 70
     1
102
RTVSPost2010Prop38
140
0.0
102
RTVSPost2010PropOp38
 70
     1
102
RTVSPost2010Prop39
140
1.0
102
RTVSPost2010PropOp39
 70
     1
102
RTVSPost2010Prop40
 90
        0
102
RTVSPost2010PropOp40
 70
     1
102
RTVSPost2010Prop41ColorIndex
 90
       18
102
RTVSPost2010Prop41ColorRGB
 90
        0
102
RTVSPost2010PropOp41
 70
     1
102
RTVSPost2010Prop42
 90
       50
102
RTVSPost2010PropOp42
 70
     1
102
RTVSPost2010Prop43
 90
        3
102
RTVSPost2010PropOp43
 70
     1
102
RTVSPost2010Prop44ColorIndex
 90
        5
102
RTVSPost2010Prop44ColorRGB
 90
      255
102
RTVSPost2010PropOp44
 70
     1
102
RTVSPost2010Prop45
280
     0
102
RTVSPost2010PropOp45
 70
     1
102
RTVSPost2010Prop46
 90
       50
102
RTVSPost2010PropOp46
 70
     1
102
RTVSPost2010Prop47
 90
       50
102
RTVSPost2010PropOp47
 70
     1
102
RTVSPost2010Prop48
 90
       50
102
RTVSPost2010PropOp48
 70
     1
102
RTVSPost2010Prop49
280
     0
102
RTVSPost2010PropOp49
 70
     1
102
RTVSPost2010Prop50
 90
       50
102
RTVSPost2010PropOp50
 70
     1
102
RTVSPost2010Prop51ColorIndex
 90
      256
102
RTVSPost2010Prop51ColorRGB
 90
-16777216
102
RTVSPost2010PropOp51
 70
     0
102
RTVSPost2010Prop52
140
1.0
102
RTVSPost2010PropOp52
 70
     0
102
RTVSPost2010Prop53
 90
        2
102
RTVSPost2010PropOp53
 70
     1
102
RTVSPost2010Prop54
  1
strokes_ogs.tif
102
RTVSPost2010PropOp54
 70
     1
102
RTVSPost2010Prop55
280
     0
102
RTVSPost2010PropOp55
 70
     1
102
RTVSPost2010Prop56
140
1.0
102
RTVSPost2010PropOp56
 70
     1
102
RTVSPost2010Prop57
140
1.0
102
RTVSPost2010PropOp57
 70
     1
  0
XRECORD
  5
2E4
102
{ACAD_REACTORS
330
2E3
102
}
330
2E3
100
AcDbXrecord
280
     1
102
RTVSPost2010Prop28
280
     0
102
RTVSPost2010PropOp28
 70
     1
102
RTVSPost2010Prop29
280
     1
102
RTVSPost2010PropOp29
 70
     1
102
RTVSPost2010Prop30
280
     1
102
RTVSPost2010PropOp30
 70
     1
102
RTVSPost2010Prop31
280
     0
102
RTVSPost2010PropOp31
 70
     1
102
RTVSPost2010Prop32
280
     0
102
RTVSPost2010PropOp32
 70
     1
102
RTVSPost2010Prop33
280
     0
102
RTVSPost2010PropOp33
 70
     1
102
RTVSPost2010Prop34
280
     0
102
RTVSPost2010PropOp34
 70
     1
102
RTVSPost2010Prop35
280
     0
102
RTVSPost2010PropOp35
 70
     1
102
RTVSPost2010Prop36
280
     0
102
RTVSPost2010PropOp36
 70
     1
102
RTVSPost2010Prop37
 90
       50
102
RTVSPost2010PropOp37
 70
     1
102
RTVSPost2010Prop38
140
0.0
102
RTVSPost2010PropOp38
 70
     1
102
RTVSPost2010Prop39
140
1.0
102
RTVSPost2010PropOp39
 70
     1
102
RTVSPost2010Prop40
 90
        0
102
RTVSPost2010PropOp40
 70
     1
102
RTVSPost2010Prop41ColorIndex
 90
       18
102
RTVSPost2010Prop41ColorRGB
 90
        0
102
RTVSPost2010PropOp41
 70
     1
102
RTVSPost2010Prop42
 90
       50
102
RTVSPost2010PropOp42
 70
     1
102
RTVSPost2010Prop43
 90
        3
102
RTVSPost2010PropOp43
 70
     1
102
RTVSPost2010Prop44ColorIndex
 90
        5
102
RTVSPost2010Prop44ColorRGB
 90
      255
102
RTVSPost2010PropOp44
 70
     1
102
RTVSPost2010Prop45
280
     0
102
RTVSPost2010PropOp45
 70
     1
102
RTVSPost2010Prop46
 90
       50
102
RTVSPost2010PropOp46
 70
     1
102
RTVSPost2010Prop47
 90
       50
102
RTVSPost2010PropOp47
 70
     1
102
RTVSPost2010Prop48
 90
       50
102
RTVSPost2010PropOp48
 70
     1
102
RTVSPost2010Prop49
280
     0
102
RTVSPost2010PropOp49
 70
     1
102
RTVSPost2010Prop50
 90
       50
102
RTVSPost2010PropOp50
 70
     1
102
RTVSPost2010Prop51ColorIndex
 90
      256
102
RTVSPost2010Prop51ColorRGB
 90
-16777216
102
RTVSPost2010PropOp51
 70
     0
102
RTVSPost2010Prop52
140
1.0
102
RTVSPost2010PropOp52
 70
     0
102
RTVSPost2010Prop53
 90
        2
102
RTVSPost2010PropOp53
 70
     1
102
RTVSPost2010Prop54
  1
strokes_ogs.tif
102
RTVSPost2010PropOp54
 70
     1
102
RTVSPost2010Prop55
280
     0
102
RTVSPost2010PropOp55
 70
     1
102
RTVSPost2010Prop56
140
1.0
102
RTVSPost2010PropOp56
 70
     1
102
RTVSPost2010Prop57
140
1.0
102
RTVSPost2010PropOp57
 70
     1
  0
XRECORD
  5
2F4
102
{ACAD_REACTORS
330
2F3
102
}
330
2F3
100
AcDbXrecord
280
     1
102
RTVSPost2010Prop28
280
     0
102
RTVSPost2010PropOp28
 70
     0
102
RTVSPost2010Prop29
280
     1
102
RTVSPost2010PropOp29
 70
     0
102
RTVSPost2010Prop30
280
     1
102
RTVSPost2010PropOp30
 70
     0
102
RTVSPost2010Prop31
280
     0
102
RTVSPost2010PropOp31
 70
     0
102
RTVSPost2010Prop32
280
     0
102
RTVSPost2010PropOp32
 70
     0
102
RTVSPost2010Prop33
280
     0
102
RTVSPost2010PropOp33
 70
     0
102
RTVSPost2010Prop34
280
     0
102
RTVSPost2010PropOp34
 70
     0
102
RTVSPost2010Prop35
280
     0
102
RTVSPost2010PropOp35
 70
     0
102
RTVSPost2010Prop36
280
     0
102
RTVSPost2010PropOp36
 70
     0
102
RTVSPost2010Prop37
 90
       50
102
RTVSPost2010PropOp37
 70
     0
102
RTVSPost2010Prop38
140
0.0
102
RTVSPost2010PropOp38
 70
     0
102
RTVSPost2010Prop39
140
1.0
102
RTVSPost2010PropOp39
 70
     0
102
RTVSPost2010Prop40
 90
        0
102
RTVSPost2010PropOp40
 70
     0
102
RTVSPost2010Prop41ColorIndex
 90
       18
102
RTVSPost2010Prop41ColorRGB
 90
        0
102
RTVSPost2010PropOp41
 70
     0
102
RTVSPost2010Prop42
 90
       50
102
RTVSPost2010PropOp42
 70
     0
102
RTVSPost2010Prop43
 90
        3
102
RTVSPost2010PropOp43
 70
     0
102
RTVSPost2010Prop44ColorIndex
 90
        5
102
RTVSPost2010Prop44ColorRGB
 90
      255
102
RTVSPost2010PropOp44
 70
     0
102
RTVSPost2010Prop45
280
     0
102
RTVSPost2010PropOp45
 70
     0
102
RTVSPost2010Prop46
 90
       50
102
RTVSPost2010PropOp46
 70
     0
102
RTVSPost2010Prop47
 90
       50
102
RTVSPost2010PropOp47
 70
     0
102
RTVSPost2010Prop48
 90
       50
102
RTVSPost2010PropOp48
 70
     0
102
RTVSPost2010Prop49
280
     0
102
RTVSPost2010PropOp49
 70
     0
102
RTVSPost2010Prop50
 90
       50
102
RTVSPost2010PropOp50
 70
     0
102
RTVSPost2010Prop51ColorIndex
 90
      256
102
RTVSPost2010Prop51ColorRGB
 90
-16777216
102
RTVSPost2010PropOp51
 70
     0
102
RTVSPost2010Prop52
140
1.0
102
RTVSPost2010PropOp52
 70
     0
102
RTVSPost2010Prop53
 90
        2
102
RTVSPost2010PropOp53
 70
     0
102
RTVSPost2010Prop54
  1
strokes_ogs.tif
102
RTVSPost2010PropOp54
 70
     0
102
RTVSPost2010Prop55
280
     0
102
RTVSPost2010PropOp55
 70
     0
102
RTVSPost2010Prop56
140
1.0
102
RTVSPost2010PropOp56
 70
     0
102
RTVSPost2010Prop57
140
1.0
102
RTVSPost2010PropOp57
 70
     0
  0
XRECORD
  5
2EC
102
{ACAD_REACTORS
330
2EB
102
}
330
2EB
100
AcDbXrecord
280
     1
102
RTVSPost2010Prop28
280
     0
102
RTVSPost2010PropOp28
 70
     1
102
RTVSPost2010Prop29
280
     1
102
RTVSPost2010PropOp29
 70
     1
102
RTVSPost2010Prop30
280
     1
102
RTVSPost2010PropOp30
 70
     1
102
RTVSPost2010Prop31
280
     0
102
RTVSPost2010PropOp31
 70
     1
102
RTVSPost2010Prop32
280
     0
102
RTVSPost2010PropOp32
 70
     1
102
RTVSPost2010Prop33
280
     0
102
RTVSPost2010PropOp33
 70
     1
102
RTVSPost2010Prop34
280
     0
102
RTVSPost2010PropOp34
 70
     1
102
RTVSPost2010Prop35
280
     0
102
RTVSPost2010PropOp35
 70
     1
102
RTVSPost2010Prop36
280
     0
102
RTVSPost2010PropOp36
 70
     1
102
RTVSPost2010Prop37
 90
       50
102
RTVSPost2010PropOp37
 70
     1
102
RTVSPost2010Prop38
140
0.0
102
RTVSPost2010PropOp38
 70
     1
102
RTVSPost2010Prop39
140
1.0
102
RTVSPost2010PropOp39
 70
     1
102
RTVSPost2010Prop40
 90
        0
102
RTVSPost2010PropOp40
 70
     1
102
RTVSPost2010Prop41ColorIndex
 90
       18
102
RTVSPost2010Prop41ColorRGB
 90
        0
102
RTVSPost2010PropOp41
 70
     1
102
RTVSPost2010Prop42
 90
       50
102
RTVSPost2010PropOp42
 70
     1
102
RTVSPost2010Prop43
 90
        3
102
RTVSPost2010PropOp43
 70
     1
102
RTVSPost2010Prop44ColorIndex
 90
        5
102
RTVSPost2010Prop44ColorRGB
 90
      255
102
RTVSPost2010PropOp44
 70
     1
102
RTVSPost2010Prop45
280
     0
102
RTVSPost2010PropOp45
 70
     1
102
RTVSPost2010Prop46
 90
       50
102
RTVSPost2010PropOp46
 70
     1
102
RTVSPost2010Prop47
 90
       50
102
RTVSPost2010PropOp47
 70
     1
102
RTVSPost2010Prop48
 90
       50
102
RTVSPost2010PropOp48
 70
     1
102
RTVSPost2010Prop49
280
     0
102
RTVSPost2010PropOp49
 70
     1
102
RTVSPost2010Prop50
 90
       50
102
RTVSPost2010PropOp50
 70
     1
102
RTVSPost2010Prop51ColorIndex
 90
      256
102
RTVSPost2010Prop51ColorRGB
 90
-16777216
102
RTVSPost2010PropOp51
 70
     0
102
RTVSPost2010Prop52
140
1.0
102
RTVSPost2010PropOp52
 70
     0
102
RTVSPost2010Prop53
 90
        2
102
RTVSPost2010PropOp53
 70
     1
102
RTVSPost2010Prop54
  1
strokes_ogs.tif
102
RTVSPost2010PropOp54
 70
     1
102
RTVSPost2010Prop55
280
     0
102
RTVSPost2010PropOp55
 70
     1
102
RTVSPost2010Prop56
140
1.0
102
RTVSPost2010PropOp56
 70
     1
102
RTVSPost2010Prop57
140
1.0
102
RTVSPost2010PropOp57
 70
     1
  0
XRECORD
  5
2D0
102
{ACAD_REACTORS
330
2CF
102
}
330
2CF
100
AcDbXrecord
280
     1
102
RTVSPost2010Prop28
280
     0
102
RTVSPost2010PropOp28
 70
     1
102
RTVSPost2010Prop29
280
     1
102
RTVSPost2010PropOp29
 70
     1
102
RTVSPost2010Prop30
280
     1
102
RTVSPost2010PropOp30
 70
     1
102
RTVSPost2010Prop31
280
     0
102
RTVSPost2010PropOp31
 70
     1
102
RTVSPost2010Prop32
280
     0
102
RTVSPost2010PropOp32
 70
     1
102
RTVSPost2010Prop33
280
     0
102
RTVSPost2010PropOp33
 70
     1
102
RTVSPost2010Prop34
280
     0
102
RTVSPost2010PropOp34
 70
     1
102
RTVSPost2010Prop35
280
     0
102
RTVSPost2010PropOp35
 70
     1
102
RTVSPost2010Prop36
280
     0
102
RTVSPost2010PropOp36
 70
     1
102
RTVSPost2010Prop37
 90
       50
102
RTVSPost2010PropOp37
 70
     1
102
RTVSPost2010Prop38
140
0.0
102
RTVSPost2010PropOp38
 70
     1
102
RTVSPost2010Prop39
140
1.0
102
RTVSPost2010PropOp39
 70
     1
102
RTVSPost2010Prop40
 90
        0
102
RTVSPost2010PropOp40
 70
     1
102
RTVSPost2010Prop41ColorIndex
 90
       18
102
RTVSPost2010Prop41ColorRGB
 90
        0
102
RTVSPost2010PropOp41
 70
     1
102
RTVSPost2010Prop42
 90
       50
102
RTVSPost2010PropOp42
 70
     1
102
RTVSPost2010Prop43
 90
        3
102
RTVSPost2010PropOp43
 70
     1
102
RTVSPost2010Prop44ColorIndex
 90
        5
102
RTVSPost2010Prop44ColorRGB
 90
      255
102
RTVSPost2010PropOp44
 70
     1
102
RTVSPost2010Prop45
280
     0
102
RTVSPost2010PropOp45
 70
     1
102
RTVSPost2010Prop46
 90
       50
102
RTVSPost2010PropOp46
 70
     1
102
RTVSPost2010Prop47
 90
       50
102
RTVSPost2010PropOp47
 70
     1
102
RTVSPost2010Prop48
 90
       50
102
RTVSPost2010PropOp48
 70
     1
102
RTVSPost2010Prop49
280
     0
102
RTVSPost2010PropOp49
 70
     1
102
RTVSPost2010Prop50
 90
       50
102
RTVSPost2010PropOp50
 70
     1
102
RTVSPost2010Prop51ColorIndex
 90
      256
102
RTVSPost2010Prop51ColorRGB
 90
-16777216
102
RTVSPost2010PropOp51
 70
     0
102
RTVSPost2010Prop52
140
1.0
102
RTVSPost2010PropOp52
 70
     0
102
RTVSPost2010Prop53
 90
        2
102
RTVSPost2010PropOp53
 70
     1
102
RTVSPost2010Prop54
  1
strokes_ogs.tif
102
RTVSPost2010PropOp54
 70
     1
102
RTVSPost2010Prop55
280
     0
102
RTVSPost2010PropOp55
 70
     1
102
RTVSPost2010Prop56
140
1.0
102
RTVSPost2010PropOp56
 70
     1
102
RTVSPost2010Prop57
140
1.0
102
RTVSPost2010PropOp57
 70
     1
  0
XRECORD
  5
2D2
102
{ACAD_REACTORS
330
2D1
102
}
330
2D1
100
AcDbXrecord
280
     1
102
RTVSPost2010Prop28
280
     0
102
RTVSPost2010PropOp28
 70
     1
102
RTVSPost2010Prop29
280
     1
102
RTVSPost2010PropOp29
 70
     1
102
RTVSPost2010Prop30
280
     1
102
RTVSPost2010PropOp30
 70
     1
102
RTVSPost2010Prop31
280
     0
102
RTVSPost2010PropOp31
 70
     1
102
RTVSPost2010Prop32
280
     0
102
RTVSPost2010PropOp32
 70
     1
102
RTVSPost2010Prop33
280
     0
102
RTVSPost2010PropOp33
 70
     1
102
RTVSPost2010Prop34
280
     0
102
RTVSPost2010PropOp34
 70
     1
102
RTVSPost2010Prop35
280
     0
102
RTVSPost2010PropOp35
 70
     1
102
RTVSPost2010Prop36
280
     0
102
RTVSPost2010PropOp36
 70
     1
102
RTVSPost2010Prop37
 90
       50
102
RTVSPost2010PropOp37
 70
     1
102
RTVSPost2010Prop38
140
0.0
102
RTVSPost2010PropOp38
 70
     1
102
RTVSPost2010Prop39
140
1.0
102
RTVSPost2010PropOp39
 70
     1
102
RTVSPost2010Prop40
 90
        0
102
RTVSPost2010PropOp40
 70
     1
102
RTVSPost2010Prop41ColorIndex
 90
       18
102
RTVSPost2010Prop41ColorRGB
 90
        0
102
RTVSPost2010PropOp41
 70
     1
102
RTVSPost2010Prop42
 90
       50
102
RTVSPost2010PropOp42
 70
     1
102
RTVSPost2010Prop43
 90
        3
102
RTVSPost2010PropOp43
 70
     1
102
RTVSPost2010Prop44ColorIndex
 90
        5
102
RTVSPost2010Prop44ColorRGB
 90
      255
102
RTVSPost2010PropOp44
 70
     1
102
RTVSPost2010Prop45
280
     0
102
RTVSPost2010PropOp45
 70
     1
102
RTVSPost2010Prop46
 90
       50
102
RTVSPost2010PropOp46
 70
     1
102
RTVSPost2010Prop47
 90
       50
102
RTVSPost2010PropOp47
 70
     1
102
RTVSPost2010Prop48
 90
       50
102
RTVSPost2010PropOp48
 70
     1
102
RTVSPost2010Prop49
280
     0
102
RTVSPost2010PropOp49
 70
     1
102
RTVSPost2010Prop50
 90
       50
102
RTVSPost2010PropOp50
 70
     1
102
RTVSPost2010Prop51ColorIndex
 90
      256
102
RTVSPost2010Prop51ColorRGB
 90
-16777216
102
RTVSPost2010PropOp51
 70
     0
102
RTVSPost2010Prop52
140
1.0
102
RTVSPost2010PropOp52
 70
     0
102
RTVSPost2010Prop53
 90
        2
102
RTVSPost2010PropOp53
 70
     1
102
RTVSPost2010Prop54
  1
strokes_ogs.tif
102
RTVSPost2010PropOp54
 70
     1
102
RTVSPost2010Prop55
280
     0
102
RTVSPost2010PropOp55
 70
     1
102
RTVSPost2010Prop56
140
1.0
102
RTVSPost2010PropOp56
 70
     1
102
RTVSPost2010Prop57
140
1.0
102
RTVSPost2010PropOp57
 70
     1
  0
XRECORD
  5
2D4
102
{ACAD_REACTORS
330
2D3
102
}
330
2D3
100
AcDbXrecord
280
     1
102
RTVSPost2010Prop28
280
     0
102
RTVSPost2010PropOp28
 70
     1
102
RTVSPost2010Prop29
280
     1
102
RTVSPost2010PropOp29
 70
     1
102
RTVSPost2010Prop30
280
     1
102
RTVSPost2010PropOp30
 70
     1
102
RTVSPost2010Prop31
280
     0
102
RTVSPost2010PropOp31
 70
     1
102
RTVSPost2010Prop32
280
     0
102
RTVSPost2010PropOp32
 70
     1
102
RTVSPost2010Prop33
280
     0
102
RTVSPost2010PropOp33
 70
     1
102
RTVSPost2010Prop34
280
     0
102
RTVSPost2010PropOp34
 70
     1
102
RTVSPost2010Prop35
280
     0
102
RTVSPost2010PropOp35
 70
     1
102
RTVSPost2010Prop36
280
     0
102
RTVSPost2010PropOp36
 70
     1
102
RTVSPost2010Prop37
 90
       50
102
RTVSPost2010PropOp37
 70
     1
102
RTVSPost2010Prop38
140
0.0
102
RTVSPost2010PropOp38
 70
     1
102
RTVSPost2010Prop39
140
1.0
102
RTVSPost2010PropOp39
 70
     1
102
RTVSPost2010Prop40
 90
        0
102
RTVSPost2010PropOp40
 70
     1
102
RTVSPost2010Prop41ColorIndex
 90
       18
102
RTVSPost2010Prop41ColorRGB
 90
        0
102
RTVSPost2010PropOp41
 70
     1
102
RTVSPost2010Prop42
 90
       50
102
RTVSPost2010PropOp42
 70
     1
102
RTVSPost2010Prop43
 90
        3
102
RTVSPost2010PropOp43
 70
     1
102
RTVSPost2010Prop44ColorIndex
 90
        5
102
RTVSPost2010Prop44ColorRGB
 90
      255
102
RTVSPost2010PropOp44
 70
     1
102
RTVSPost2010Prop45
280
     0
102
RTVSPost2010PropOp45
 70
     1
102
RTVSPost2010Prop46
 90
       50
102
RTVSPost2010PropOp46
 70
     1
102
RTVSPost2010Prop47
 90
       50
102
RTVSPost2010PropOp47
 70
     1
102
RTVSPost2010Prop48
 90
       50
102
RTVSPost2010PropOp48
 70
     1
102
RTVSPost2010Prop49
280
     0
102
RTVSPost2010PropOp49
 70
     1
102
RTVSPost2010Prop50
 90
       50
102
RTVSPost2010PropOp50
 70
     1
102
RTVSPost2010Prop51ColorIndex
 90
      256
102
RTVSPost2010Prop51ColorRGB
 90
-16777216
102
RTVSPost2010PropOp51
 70
     0
102
RTVSPost2010Prop52
140
1.0
102
RTVSPost2010PropOp52
 70
     0
102
RTVSPost2010Prop53
 90
        2
102
RTVSPost2010PropOp53
 70
     1
102
RTVSPost2010Prop54
  1
strokes_ogs.tif
102
RTVSPost2010PropOp54
 70
     1
102
RTVSPost2010Prop55
280
     0
102
RTVSPost2010PropOp55
 70
     1
102
RTVSPost2010Prop56
140
1.0
102
RTVSPost2010PropOp56
 70
     1
102
RTVSPost2010Prop57
140
1.0
102
RTVSPost2010PropOp57
 70
     1
  0
XRECORD
  5
2D6
102
{ACAD_REACTORS
330
2D5
102
}
330
2D5
100
AcDbXrecord
280
     1
102
RTVSPost2010Prop28
280
     0
102
RTVSPost2010PropOp28
 70
     1
102
RTVSPost2010Prop29
280
     1
102
RTVSPost2010PropOp29
 70
     1
102
RTVSPost2010Prop30
280
     1
102
RTVSPost2010PropOp30
 70
     1
102
RTVSPost2010Prop31
280
     0
102
RTVSPost2010PropOp31
 70
     1
102
RTVSPost2010Prop32
280
     0
102
RTVSPost2010PropOp32
 70
     1
102
RTVSPost2010Prop33
280
     0
102
RTVSPost2010PropOp33
 70
     1
102
RTVSPost2010Prop34
280
     0
102
RTVSPost2010PropOp34
 70
     1
102
RTVSPost2010Prop35
280
     0
102
RTVSPost2010PropOp35
 70
     1
102
RTVSPost2010Prop36
280
     0
102
RTVSPost2010PropOp36
 70
     1
102
RTVSPost2010Prop37
 90
       50
102
RTVSPost2010PropOp37
 70
     1
102
RTVSPost2010Prop38
140
0.0
102
RTVSPost2010PropOp38
 70
     1
102
RTVSPost2010Prop39
140
1.0
102
RTVSPost2010PropOp39
 70
     1
102
RTVSPost2010Prop40
 90
        0
102
RTVSPost2010PropOp40
 70
     1
102
RTVSPost2010Prop41ColorIndex
 90
       18
102
RTVSPost2010Prop41ColorRGB
 90
        0
102
RTVSPost2010PropOp41
 70
     1
102
RTVSPost2010Prop42
 90
       50
102
RTVSPost2010PropOp42
 70
     1
102
RTVSPost2010Prop43
 90
        3
102
RTVSPost2010PropOp43
 70
     1
102
RTVSPost2010Prop44ColorIndex
 90
        5
102
RTVSPost2010Prop44ColorRGB
 90
      255
102
RTVSPost2010PropOp44
 70
     1
102
RTVSPost2010Prop45
280
     0
102
RTVSPost2010PropOp45
 70
     1
102
RTVSPost2010Prop46
 90
       50
102
RTVSPost2010PropOp46
 70
     1
102
RTVSPost2010Prop47
 90
       50
102
RTVSPost2010PropOp47
 70
     1
102
RTVSPost2010Prop48
 90
       50
102
RTVSPost2010PropOp48
 70
     1
102
RTVSPost2010Prop49
280
     0
102
RTVSPost2010PropOp49
 70
     1
102
RTVSPost2010Prop50
 90
       50
102
RTVSPost2010PropOp50
 70
     1
102
RTVSPost2010Prop51ColorIndex
 90
      256
102
RTVSPost2010Prop51ColorRGB
 90
-16777216
102
RTVSPost2010PropOp51
 70
     0
102
RTVSPost2010Prop52
140
1.0
102
RTVSPost2010PropOp52
 70
     0
102
RTVSPost2010Prop53
 90
        2
102
RTVSPost2010PropOp53
 70
     1
102
RTVSPost2010Prop54
  1
strokes_ogs.tif
102
RTVSPost2010PropOp54
 70
     1
102
RTVSPost2010Prop55
280
     0
102
RTVSPost2010PropOp55
 70
     1
102
RTVSPost2010Prop56
140
1.0
102
RTVSPost2010PropOp56
 70
     1
102
RTVSPost2010Prop57
140
1.0
102
RTVSPost2010PropOp57
 70
     1
  0
XRECORD
  5
2DC
102
{ACAD_REACTORS
330
2DB
102
}
330
2DB
100
AcDbXrecord
280
     1
102
RTVSPost2010Prop28
280
     0
102
RTVSPost2010PropOp28
 70
     1
102
RTVSPost2010Prop29
280
     1
102
RTVSPost2010PropOp29
 70
     1
102
RTVSPost2010Prop30
280
     1
102
RTVSPost2010PropOp30
 70
     1
102
RTVSPost2010Prop31
280
     0
102
RTVSPost2010PropOp31
 70
     1
102
RTVSPost2010Prop32
280
     0
102
RTVSPost2010PropOp32
 70
     1
102
RTVSPost2010Prop33
280
     0
102
RTVSPost2010PropOp33
 70
     1
102
RTVSPost2010Prop34
280
     0
102
RTVSPost2010PropOp34
 70
     1
102
RTVSPost2010Prop35
280
     0
102
RTVSPost2010PropOp35
 70
     1
102
RTVSPost2010Prop36
280
     0
102
RTVSPost2010PropOp36
 70
     1
102
RTVSPost2010Prop37
 90
       50
102
RTVSPost2010PropOp37
 70
     1
102
RTVSPost2010Prop38
140
0.0
102
RTVSPost2010PropOp38
 70
     1
102
RTVSPost2010Prop39
140
1.0
102
RTVSPost2010PropOp39
 70
     1
102
RTVSPost2010Prop40
 90
        0
102
RTVSPost2010PropOp40
 70
     1
102
RTVSPost2010Prop41ColorIndex
 90
       18
102
RTVSPost2010Prop41ColorRGB
 90
        0
102
RTVSPost2010PropOp41
 70
     1
102
RTVSPost2010Prop42
 90
       50
102
RTVSPost2010PropOp42
 70
     1
102
RTVSPost2010Prop43
 90
        3
102
RTVSPost2010PropOp43
 70
     1
102
RTVSPost2010Prop44ColorIndex
 90
        5
102
RTVSPost2010Prop44ColorRGB
 90
      255
102
RTVSPost2010PropOp44
 70
     1
102
RTVSPost2010Prop45
280
     0
102
RTVSPost2010PropOp45
 70
     1
102
RTVSPost2010Prop46
 90
       50
102
RTVSPost2010PropOp46
 70
     1
102
RTVSPost2010Prop47
 90
       50
102
RTVSPost2010PropOp47
 70
     1
102
RTVSPost2010Prop48
 90
       50
102
RTVSPost2010PropOp48
 70
     1
102
RTVSPost2010Prop49
280
     0
102
RTVSPost2010PropOp49
 70
     1
102
RTVSPost2010Prop50
 90
       50
102
RTVSPost2010PropOp50
 70
     1
102
RTVSPost2010Prop51ColorIndex
 90
      256
102
RTVSPost2010Prop51ColorRGB
 90
-16777216
102
RTVSPost2010PropOp51
 70
     0
102
RTVSPost2010Prop52
140
1.0
102
RTVSPost2010PropOp52
 70
     0
102
RTVSPost2010Prop53
 90
        2
102
RTVSPost2010PropOp53
 70
     1
102
RTVSPost2010Prop54
  1
strokes_ogs.tif
102
RTVSPost2010PropOp54
 70
     1
102
RTVSPost2010Prop55
280
     0
102
RTVSPost2010PropOp55
 70
     1
102
RTVSPost2010Prop56
140
1.0
102
RTVSPost2010PropOp56
 70
     1
102
RTVSPost2010Prop57
140
1.0
102
RTVSPost2010PropOp57
 70
     1
  0
XRECORD
  5
2F0
102
{ACAD_REACTORS
330
2EF
102
}
330
2EF
100
AcDbXrecord
280
     1
102
RTVSPost2010Prop28
280
     0
102
RTVSPost2010PropOp28
 70
     0
102
RTVSPost2010Prop29
280
     1
102
RTVSPost2010PropOp29
 70
     0
102
RTVSPost2010Prop30
280
     1
102
RTVSPost2010PropOp30
 70
     0
102
RTVSPost2010Prop31
280
     0
102
RTVSPost2010PropOp31
 70
     0
102
RTVSPost2010Prop32
280
     0
102
RTVSPost2010PropOp32
 70
     0
102
RTVSPost2010Prop33
280
     0
102
RTVSPost2010PropOp33
 70
     0
102
RTVSPost2010Prop34
280
     0
102
RTVSPost2010PropOp34
 70
     0
102
RTVSPost2010Prop35
280
     0
102
RTVSPost2010PropOp35
 70
     0
102
RTVSPost2010Prop36
280
     0
102
RTVSPost2010PropOp36
 70
     0
102
RTVSPost2010Prop37
 90
       50
102
RTVSPost2010PropOp37
 70
     0
102
RTVSPost2010Prop38
140
0.0
102
RTVSPost2010PropOp38
 70
     0
102
RTVSPost2010Prop39
140
1.0
102
RTVSPost2010PropOp39
 70
     0
102
RTVSPost2010Prop40
 90
        0
102
RTVSPost2010PropOp40
 70
     0
102
RTVSPost2010Prop41ColorIndex
 90
       18
102
RTVSPost2010Prop41ColorRGB
 90
        0
102
RTVSPost2010PropOp41
 70
     0
102
RTVSPost2010Prop42
 90
       50
102
RTVSPost2010PropOp42
 70
     0
102
RTVSPost2010Prop43
 90
        3
102
RTVSPost2010PropOp43
 70
     0
102
RTVSPost2010Prop44ColorIndex
 90
        5
102
RTVSPost2010Prop44ColorRGB
 90
      255
102
RTVSPost2010PropOp44
 70
     0
102
RTVSPost2010Prop45
280
     0
102
RTVSPost2010PropOp45
 70
     0
102
RTVSPost2010Prop46
 90
       50
102
RTVSPost2010PropOp46
 70
     0
102
RTVSPost2010Prop47
 90
       50
102
RTVSPost2010PropOp47
 70
     0
102
RTVSPost2010Prop48
 90
       50
102
RTVSPost2010PropOp48
 70
     0
102
RTVSPost2010Prop49
280
     0
102
RTVSPost2010PropOp49
 70
     0
102
RTVSPost2010Prop50
 90
       50
102
RTVSPost2010PropOp50
 70
     0
102
RTVSPost2010Prop51ColorIndex
 90
      256
102
RTVSPost2010Prop51ColorRGB
 90
-16777216
102
RTVSPost2010PropOp51
 70
     0
102
RTVSPost2010Prop52
140
1.0
102
RTVSPost2010PropOp52
 70
     0
102
RTVSPost2010Prop53
 90
        2
102
RTVSPost2010PropOp53
 70
     0
102
RTVSPost2010Prop54
  1
strokes_ogs.tif
102
RTVSPost2010PropOp54
 70
     0
102
RTVSPost2010Prop55
280
     0
102
RTVSPost2010PropOp55
 70
     0
102
RTVSPost2010Prop56
140
1.0
102
RTVSPost2010PropOp56
 70
     0
102
RTVSPost2010Prop57
140
1.0
102
RTVSPost2010PropOp57
 70
     0
  0
XRECORD
  5
2EA
102
{ACAD_REACTORS
330
2E9
102
}
330
2E9
100
AcDbXrecord
280
     1
102
RTVSPost2010Prop28
280
     0
102
RTVSPost2010PropOp28
 70
     1
102
RTVSPost2010Prop29
280
     1
102
RTVSPost2010PropOp29
 70
     1
102
RTVSPost2010Prop30
280
     1
102
RTVSPost2010PropOp30
 70
     1
102
RTVSPost2010Prop31
280
     0
102
RTVSPost2010PropOp31
 70
     1
102
RTVSPost2010Prop32
280
     0
102
RTVSPost2010PropOp32
 70
     1
102
RTVSPost2010Prop33
280
     0
102
RTVSPost2010PropOp33
 70
     1
102
RTVSPost2010Prop34
280
     0
102
RTVSPost2010PropOp34
 70
     1
102
RTVSPost2010Prop35
280
     0
102
RTVSPost2010PropOp35
 70
     1
102
RTVSPost2010Prop36
280
     0
102
RTVSPost2010PropOp36
 70
     1
102
RTVSPost2010Prop37
 90
       50
102
RTVSPost2010PropOp37
 70
     1
102
RTVSPost2010Prop38
140
0.0
102
RTVSPost2010PropOp38
 70
     1
102
RTVSPost2010Prop39
140
1.0
102
RTVSPost2010PropOp39
 70
     1
102
RTVSPost2010Prop40
 90
        0
102
RTVSPost2010PropOp40
 70
     1
102
RTVSPost2010Prop41ColorIndex
 90
       18
102
RTVSPost2010Prop41ColorRGB
 90
        0
102
RTVSPost2010PropOp41
 70
     1
102
RTVSPost2010Prop42
 90
       50
102
RTVSPost2010PropOp42
 70
     1
102
RTVSPost2010Prop43
 90
        3
102
RTVSPost2010PropOp43
 70
     1
102
RTVSPost2010Prop44ColorIndex
 90
        5
102
RTVSPost2010Prop44ColorRGB
 90
      255
102
RTVSPost2010PropOp44
 70
     1
102
RTVSPost2010Prop45
280
     0
102
RTVSPost2010PropOp45
 70
     1
102
RTVSPost2010Prop46
 90
       50
102
RTVSPost2010PropOp46
 70
     1
102
RTVSPost2010Prop47
 90
       50
102
RTVSPost2010PropOp47
 70
     1
102
RTVSPost2010Prop48
 90
       50
102
RTVSPost2010PropOp48
 70
     1
102
RTVSPost2010Prop49
280
     0
102
RTVSPost2010PropOp49
 70
     1
102
RTVSPost2010Prop50
 90
       50
102
RTVSPost2010PropOp50
 70
     1
102
RTVSPost2010Prop51ColorIndex
 90
      256
102
RTVSPost2010Prop51ColorRGB
 90
-16777216
102
RTVSPost2010PropOp51
 70
     0
102
RTVSPost2010Prop52
140
1.0
102
RTVSPost2010PropOp52
 70
     0
102
RTVSPost2010Prop53
 90
        2
102
RTVSPost2010PropOp53
 70
     1
102
RTVSPost2010Prop54
  1
strokes_ogs.tif
102
RTVSPost2010PropOp54
 70
     1
102
RTVSPost2010Prop55
280
     0
102
RTVSPost2010PropOp55
 70
     1
102
RTVSPost2010Prop56
140
1.0
102
RTVSPost2010PropOp56
 70
     1
102
RTVSPost2010Prop57
140
1.0
102
RTVSPost2010PropOp57
 70
     1
  0
XRECORD
  5
2F2
102
{ACAD_REACTORS
330
2F1
102
}
330
2F1
100
AcDbXrecord
280
     1
102
RTVSPost2010Prop28
280
     0
102
RTVSPost2010PropOp28
 70
     0
102
RTVSPost2010Prop29
280
     1
102
RTVSPost2010PropOp29
 70
     0
102
RTVSPost2010Prop30
280
     1
102
RTVSPost2010PropOp30
 70
     0
102
RTVSPost2010Prop31
280
     0
102
RTVSPost2010PropOp31
 70
     0
102
RTVSPost2010Prop32
280
     0
102
RTVSPost2010PropOp32
 70
     0
102
RTVSPost2010Prop33
280
     0
102
RTVSPost2010PropOp33
 70
     0
102
RTVSPost2010Prop34
280
     0
102
RTVSPost2010PropOp34
 70
     0
102
RTVSPost2010Prop35
280
     0
102
RTVSPost2010PropOp35
 70
     0
102
RTVSPost2010Prop36
280
     0
102
RTVSPost2010PropOp36
 70
     0
102
RTVSPost2010Prop37
 90
       50
102
RTVSPost2010PropOp37
 70
     0
102
RTVSPost2010Prop38
140
0.0
102
RTVSPost2010PropOp38
 70
     0
102
RTVSPost2010Prop39
140
1.0
102
RTVSPost2010PropOp39
 70
     0
102
RTVSPost2010Prop40
 90
        0
102
RTVSPost2010PropOp40
 70
     0
102
RTVSPost2010Prop41ColorIndex
 90
       18
102
RTVSPost2010Prop41ColorRGB
 90
        0
102
RTVSPost2010PropOp41
 70
     0
102
RTVSPost2010Prop42
 90
       50
102
RTVSPost2010PropOp42
 70
     0
102
RTVSPost2010Prop43
 90
        3
102
RTVSPost2010PropOp43
 70
     0
102
RTVSPost2010Prop44ColorIndex
 90
        5
102
RTVSPost2010Prop44ColorRGB
 90
      255
102
RTVSPost2010PropOp44
 70
     0
102
RTVSPost2010Prop45
280
     0
102
RTVSPost2010PropOp45
 70
     0
102
RTVSPost2010Prop46
 90
       50
102
RTVSPost2010PropOp46
 70
     0
102
RTVSPost2010Prop47
 90
       50
102
RTVSPost2010PropOp47
 70
     0
102
RTVSPost2010Prop48
 90
       50
102
RTVSPost2010PropOp48
 70
     0
102
RTVSPost2010Prop49
280
     0
102
RTVSPost2010PropOp49
 70
     0
102
RTVSPost2010Prop50
 90
       50
102
RTVSPost2010PropOp50
 70
     0
102
RTVSPost2010Prop51ColorIndex
 90
      256
102
RTVSPost2010Prop51ColorRGB
 90
-16777216
102
RTVSPost2010PropOp51
 70
     0
102
RTVSPost2010Prop52
140
1.0
102
RTVSPost2010PropOp52
 70
     0
102
RTVSPost2010Prop53
 90
        2
102
RTVSPost2010PropOp53
 70
     0
102
RTVSPost2010Prop54
  1
strokes_ogs.tif
102
RTVSPost2010PropOp54
 70
     0
102
RTVSPost2010Prop55
280
     0
102
RTVSPost2010PropOp55
 70
     0
102
RTVSPost2010Prop56
140
1.0
102
RTVSPost2010PropOp56
 70
     0
102
RTVSPost2010Prop57
140
1.0
102
RTVSPost2010PropOp57
 70
     0
  0
XRECORD
  5
2E0
102
{ACAD_REACTORS
330
2DF
102
}
330
2DF
100
AcDbXrecord
280
     1
102
RTVSPost2010Prop28
280
     0
102
RTVSPost2010PropOp28
 70
     1
102
RTVSPost2010Prop29
280
     1
102
RTVSPost2010PropOp29
 70
     1
102
RTVSPost2010Prop30
280
     1
102
RTVSPost2010PropOp30
 70
     1
102
RTVSPost2010Prop31
280
     0
102
RTVSPost2010PropOp31
 70
     1
102
RTVSPost2010Prop32
280
     0
102
RTVSPost2010PropOp32
 70
     1
102
RTVSPost2010Prop33
280
     0
102
RTVSPost2010PropOp33
 70
     1
102
RTVSPost2010Prop34
280
     0
102
RTVSPost2010PropOp34
 70
     1
102
RTVSPost2010Prop35
280
     0
102
RTVSPost2010PropOp35
 70
     1
102
RTVSPost2010Prop36
280
     0
102
RTVSPost2010PropOp36
 70
     1
102
RTVSPost2010Prop37
 90
       50
102
RTVSPost2010PropOp37
 70
     1
102
RTVSPost2010Prop38
140
0.0
102
RTVSPost2010PropOp38
 70
     1
102
RTVSPost2010Prop39
140
1.0
102
RTVSPost2010PropOp39
 70
     1
102
RTVSPost2010Prop40
 90
        0
102
RTVSPost2010PropOp40
 70
     1
102
RTVSPost2010Prop41ColorIndex
 90
       18
102
RTVSPost2010Prop41ColorRGB
 90
        0
102
RTVSPost2010PropOp41
 70
     1
102
RTVSPost2010Prop42
 90
       50
102
RTVSPost2010PropOp42
 70
     1
102
RTVSPost2010Prop43
 90
        3
102
RTVSPost2010PropOp43
 70
     1
102
RTVSPost2010Prop44ColorIndex
 90
        5
102
RTVSPost2010Prop44ColorRGB
 90
      255
102
RTVSPost2010PropOp44
 70
     1
102
RTVSPost2010Prop45
280
     0
102
RTVSPost2010PropOp45
 70
     1
102
RTVSPost2010Prop46
 90
       50
102
RTVSPost2010PropOp46
 70
     1
102
RTVSPost2010Prop47
 90
       50
102
RTVSPost2010PropOp47
 70
     1
102
RTVSPost2010Prop48
 90
       50
102
RTVSPost2010PropOp48
 70
     1
102
RTVSPost2010Prop49
280
     0
102
RTVSPost2010PropOp49
 70
     1
102
RTVSPost2010Prop50
 90
       50
102
RTVSPost2010PropOp50
 70
     1
102
RTVSPost2010Prop51ColorIndex
 90
      256
102
RTVSPost2010Prop51ColorRGB
 90
-16777216
102
RTVSPost2010PropOp51
 70
     0
102
RTVSPost2010Prop52
140
1.0
102
RTVSPost2010PropOp52
 70
     0
102
RTVSPost2010Prop53
 90
        2
102
RTVSPost2010PropOp53
 70
     1
102
RTVSPost2010Prop54
  1
strokes_ogs.tif
102
RTVSPost2010PropOp54
 70
     1
102
RTVSPost2010Prop55
280
     0
102
RTVSPost2010PropOp55
 70
     1
102
RTVSPost2010Prop56
140
1.0
102
RTVSPost2010PropOp56
 70
     1
102
RTVSPost2010Prop57
140
1.0
102
RTVSPost2010PropOp57
 70
     1
  0
XRECORD
  5
2FE
102
{ACAD_REACTORS
330
2FD
102
}
330
2FD
100
AcDbXrecord
280
     1
102
RTVSPost2010Prop28
280
     0
102
RTVSPost2010PropOp28
 70
     1
102
RTVSPost2010Prop29
280
     1
102
RTVSPost2010PropOp29
 70
     1
102
RTVSPost2010Prop30
280
     1
102
RTVSPost2010PropOp30
 70
     1
102
RTVSPost2010Prop31
280
     0
102
RTVSPost2010PropOp31
 70
     1
102
RTVSPost2010Prop32
280
     0
102
RTVSPost2010PropOp32
 70
     1
102
RTVSPost2010Prop33
280
     0
102
RTVSPost2010PropOp33
 70
     1
102
RTVSPost2010Prop34
280
     0
102
RTVSPost2010PropOp34
 70
     1
102
RTVSPost2010Prop35
280
     0
102
RTVSPost2010PropOp35
 70
     1
102
RTVSPost2010Prop36
280
     0
102
RTVSPost2010PropOp36
 70
     1
102
RTVSPost2010Prop37
 90
       50
102
RTVSPost2010PropOp37
 70
     1
102
RTVSPost2010Prop38
140
0.0
102
RTVSPost2010PropOp38
 70
     1
102
RTVSPost2010Prop39
140
1.0
102
RTVSPost2010PropOp39
 70
     1
102
RTVSPost2010Prop40
 90
        0
102
RTVSPost2010PropOp40
 70
     1
102
RTVSPost2010Prop41ColorIndex
 90
       18
102
RTVSPost2010Prop41ColorRGB
 90
        0
102
RTVSPost2010PropOp41
 70
     1
102
RTVSPost2010Prop42
 90
       50
102
RTVSPost2010PropOp42
 70
     1
102
RTVSPost2010Prop43
 90
        3
102
RTVSPost2010PropOp43
 70
     1
102
RTVSPost2010Prop44ColorIndex
 90
        5
102
RTVSPost2010Prop44ColorRGB
 90
      255
102
RTVSPost2010PropOp44
 70
     1
102
RTVSPost2010Prop45
280
     0
102
RTVSPost2010PropOp45
 70
     1
102
RTVSPost2010Prop46
 90
       50
102
RTVSPost2010PropOp46
 70
     1
102
RTVSPost2010Prop47
 90
       50
102
RTVSPost2010PropOp47
 70
     1
102
RTVSPost2010Prop48
 90
       50
102
RTVSPost2010PropOp48
 70
     1
102
RTVSPost2010Prop49
280
     0
102
RTVSPost2010PropOp49
 70
     1
102
RTVSPost2010Prop50
 90
       50
102
RTVSPost2010PropOp50
 70
     1
102
RTVSPost2010Prop51ColorIndex
 90
      256
102
RTVSPost2010Prop51ColorRGB
 90
-16777216
102
RTVSPost2010PropOp51
 70
     0
102
RTVSPost2010Prop52
140
1.0
102
RTVSPost2010PropOp52
 70
     0
102
RTVSPost2010Prop53
 90
        2
102
RTVSPost2010PropOp53
 70
     1
102
RTVSPost2010Prop54
  1
strokes_ogs.tif
102
RTVSPost2010PropOp54
 70
     1
102
RTVSPost2010Prop55
280
     0
102
RTVSPost2010PropOp55
 70
     1
102
RTVSPost2010Prop56
140
1.0
102
RTVSPost2010PropOp56
 70
     1
102
RTVSPost2010Prop57
140
1.0
102
RTVSPost2010PropOp57
 70
     1
  0
XRECORD
  5
2FC
102
{ACAD_REACTORS
330
2FB
102
}
330
2FB
100
AcDbXrecord
280
     1
102
RTVSPost2010Prop28
280
     0
102
RTVSPost2010PropOp28
 70
     1
102
RTVSPost2010Prop29
280
     1
102
RTVSPost2010PropOp29
 70
     1
102
RTVSPost2010Prop30
280
     1
102
RTVSPost2010PropOp30
 70
     1
102
RTVSPost2010Prop31
280
     0
102
RTVSPost2010PropOp31
 70
     1
102
RTVSPost2010Prop32
280
     0
102
RTVSPost2010PropOp32
 70
     1
102
RTVSPost2010Prop33
280
     0
102
RTVSPost2010PropOp33
 70
     1
102
RTVSPost2010Prop34
280
     0
102
RTVSPost2010PropOp34
 70
     1
102
RTVSPost2010Prop35
280
     0
102
RTVSPost2010PropOp35
 70
     1
102
RTVSPost2010Prop36
280
     0
102
RTVSPost2010PropOp36
 70
     1
102
RTVSPost2010Prop37
 90
       50
102
RTVSPost2010PropOp37
 70
     1
102
RTVSPost2010Prop38
140
0.0
102
RTVSPost2010PropOp38
 70
     1
102
RTVSPost2010Prop39
140
1.0
102
RTVSPost2010PropOp39
 70
     1
102
RTVSPost2010Prop40
 90
        0
102
RTVSPost2010PropOp40
 70
     1
102
RTVSPost2010Prop41ColorIndex
 90
       18
102
RTVSPost2010Prop41ColorRGB
 90
        0
102
RTVSPost2010PropOp41
 70
     1
102
RTVSPost2010Prop42
 90
       50
102
RTVSPost2010PropOp42
 70
     1
102
RTVSPost2010Prop43
 90
        3
102
RTVSPost2010PropOp43
 70
     1
102
RTVSPost2010Prop44ColorIndex
 90
        5
102
RTVSPost2010Prop44ColorRGB
 90
      255
102
RTVSPost2010PropOp44
 70
     1
102
RTVSPost2010Prop45
280
     0
102
RTVSPost2010PropOp45
 70
     1
102
RTVSPost2010Prop46
 90
       50
102
RTVSPost2010PropOp46
 70
     1
102
RTVSPost2010Prop47
 90
       50
102
RTVSPost2010PropOp47
 70
     1
102
RTVSPost2010Prop48
 90
       50
102
RTVSPost2010PropOp48
 70
     1
102
RTVSPost2010Prop49
280
     0
102
RTVSPost2010PropOp49
 70
     1
102
RTVSPost2010Prop50
 90
       50
102
RTVSPost2010PropOp50
 70
     1
102
RTVSPost2010Prop51ColorIndex
 90
      256
102
RTVSPost2010Prop51ColorRGB
 90
-16777216
102
RTVSPost2010PropOp51
 70
     0
102
RTVSPost2010Prop52
140
1.0
102
RTVSPost2010PropOp52
 70
     0
102
RTVSPost2010Prop53
 90
        2
102
RTVSPost2010PropOp53
 70
     1
102
RTVSPost2010Prop54
  1
strokes_ogs.tif
102
RTVSPost2010PropOp54
 70
     1
102
RTVSPost2010Prop55
280
     0
102
RTVSPost2010PropOp55
 70
     1
102
RTVSPost2010Prop56
140
1.0
102
RTVSPost2010PropOp56
 70
     1
102
RTVSPost2010Prop57
140
1.0
102
RTVSPost2010PropOp57
 70
     1
  0
XRECORD
  5
2F6
102
{ACAD_REACTORS
330
2F5
102
}
330
2F5
100
AcDbXrecord
280
     1
102
RTVSPost2010Prop28
280
     0
102
RTVSPost2010PropOp28
 70
     1
102
RTVSPost2010Prop29
280
     1
102
RTVSPost2010PropOp29
 70
     1
102
RTVSPost2010Prop30
280
     1
102
RTVSPost2010PropOp30
 70
     1
102
RTVSPost2010Prop31
280
     0
102
RTVSPost2010PropOp31
 70
     1
102
RTVSPost2010Prop32
280
     0
102
RTVSPost2010PropOp32
 70
     1
102
RTVSPost2010Prop33
280
     0
102
RTVSPost2010PropOp33
 70
     1
102
RTVSPost2010Prop34
280
     0
102
RTVSPost2010PropOp34
 70
     1
102
RTVSPost2010Prop35
280
     0
102
RTVSPost2010PropOp35
 70
     1
102
RTVSPost2010Prop36
280
     0
102
RTVSPost2010PropOp36
 70
     1
102
RTVSPost2010Prop37
 90
       50
102
RTVSPost2010PropOp37
 70
     1
102
RTVSPost2010Prop38
140
0.0
102
RTVSPost2010PropOp38
 70
     1
102
RTVSPost2010Prop39
140
1.0
102
RTVSPost2010PropOp39
 70
     1
102
RTVSPost2010Prop40
 90
        0
102
RTVSPost2010PropOp40
 70
     1
102
RTVSPost2010Prop41ColorIndex
 90
       18
102
RTVSPost2010Prop41ColorRGB
 90
        0
102
RTVSPost2010PropOp41
 70
     1
102
RTVSPost2010Prop42
 90
       50
102
RTVSPost2010PropOp42
 70
     1
102
RTVSPost2010Prop43
 90
        3
102
RTVSPost2010PropOp43
 70
     1
102
RTVSPost2010Prop44ColorIndex
 90
        5
102
RTVSPost2010Prop44ColorRGB
 90
      255
102
RTVSPost2010PropOp44
 70
     1
102
RTVSPost2010Prop45
280
     0
102
RTVSPost2010PropOp45
 70
     1
102
RTVSPost2010Prop46
 90
       50
102
RTVSPost2010PropOp46
 70
     1
102
RTVSPost2010Prop47
 90
       50
102
RTVSPost2010PropOp47
 70
     1
102
RTVSPost2010Prop48
 90
       50
102
RTVSPost2010PropOp48
 70
     1
102
RTVSPost2010Prop49
280
     0
102
RTVSPost2010PropOp49
 70
     1
102
RTVSPost2010Prop50
 90
       50
102
RTVSPost2010PropOp50
 70
     1
102
RTVSPost2010Prop51ColorIndex
 90
      256
102
RTVSPost2010Prop51ColorRGB
 90
-16777216
102
RTVSPost2010PropOp51
 70
     0
102
RTVSPost2010Prop52
140
1.0
102
RTVSPost2010PropOp52
 70
     0
102
RTVSPost2010Prop53
 90
        2
102
RTVSPost2010PropOp53
 70
     1
102
RTVSPost2010Prop54
  1
strokes_ogs.tif
102
RTVSPost2010PropOp54
 70
     1
102
RTVSPost2010Prop55
280
     0
102
RTVSPost2010PropOp55
 70
     1
102
RTVSPost2010Prop56
140
1.0
102
RTVSPost2010PropOp56
 70
     1
102
RTVSPost2010Prop57
140
1.0
102
RTVSPost2010PropOp57
 70
     1
  0
XRECORD
  5
2F8
102
{ACAD_REACTORS
330
2F7
102
}
330
2F7
100
AcDbXrecord
280
     1
102
RTVSPost2010Prop28
280
     0
102
RTVSPost2010PropOp28
 70
     1
102
RTVSPost2010Prop29
280
     1
102
RTVSPost2010PropOp29
 70
     1
102
RTVSPost2010Prop30
280
     1
102
RTVSPost2010PropOp30
 70
     1
102
RTVSPost2010Prop31
280
     0
102
RTVSPost2010PropOp31
 70
     1
102
RTVSPost2010Prop32
280
     0
102
RTVSPost2010PropOp32
 70
     1
102
RTVSPost2010Prop33
280
     0
102
RTVSPost2010PropOp33
 70
     1
102
RTVSPost2010Prop34
280
     0
102
RTVSPost2010PropOp34
 70
     1
102
RTVSPost2010Prop35
280
     0
102
RTVSPost2010PropOp35
 70
     1
102
RTVSPost2010Prop36
280
     0
102
RTVSPost2010PropOp36
 70
     1
102
RTVSPost2010Prop37
 90
       50
102
RTVSPost2010PropOp37
 70
     1
102
RTVSPost2010Prop38
140
0.0
102
RTVSPost2010PropOp38
 70
     1
102
RTVSPost2010Prop39
140
1.0
102
RTVSPost2010PropOp39
 70
     1
102
RTVSPost2010Prop40
 90
        0
102
RTVSPost2010PropOp40
 70
     1
102
RTVSPost2010Prop41ColorIndex
 90
       18
102
RTVSPost2010Prop41ColorRGB
 90
        0
102
RTVSPost2010PropOp41
 70
     1
102
RTVSPost2010Prop42
 90
       50
102
RTVSPost2010PropOp42
 70
     1
102
RTVSPost2010Prop43
 90
        3
102
RTVSPost2010PropOp43
 70
     1
102
RTVSPost2010Prop44ColorIndex
 90
        5
102
RTVSPost2010Prop44ColorRGB
 90
      255
102
RTVSPost2010PropOp44
 70
     1
102
RTVSPost2010Prop45
280
     0
102
RTVSPost2010PropOp45
 70
     1
102
RTVSPost2010Prop46
 90
       50
102
RTVSPost2010PropOp46
 70
     1
102
RTVSPost2010Prop47
 90
       50
102
RTVSPost2010PropOp47
 70
     1
102
RTVSPost2010Prop48
 90
       50
102
RTVSPost2010PropOp48
 70
     1
102
RTVSPost2010Prop49
280
     0
102
RTVSPost2010PropOp49
 70
     1
102
RTVSPost2010Prop50
 90
       50
102
RTVSPost2010PropOp50
 70
     1
102
RTVSPost2010Prop51ColorIndex
 90
      256
102
RTVSPost2010Prop51ColorRGB
 90
-16777216
102
RTVSPost2010PropOp51
 70
     0
102
RTVSPost2010Prop52
140
1.0
102
RTVSPost2010PropOp52
 70
     0
102
RTVSPost2010Prop53
 90
        2
102
RTVSPost2010PropOp53
 70
     1
102
RTVSPost2010Prop54
  1
strokes_ogs.tif
102
RTVSPost2010PropOp54
 70
     1
102
RTVSPost2010Prop55
280
     0
102
RTVSPost2010PropOp55
 70
     1
102
RTVSPost2010Prop56
140
1.0
102
RTVSPost2010PropOp56
 70
     1
102
RTVSPost2010Prop57
140
1.0
102
RTVSPost2010PropOp57
 70
     1
  0
XRECORD
  5
2E8
102
{ACAD_REACTORS
330
2E7
102
}
330
2E7
100
AcDbXrecord
280
     1
102
RTVSPost2010Prop28
280
     0
102
RTVSPost2010PropOp28
 70
     1
102
RTVSPost2010Prop29
280
     1
102
RTVSPost2010PropOp29
 70
     1
102
RTVSPost2010Prop30
280
     1
102
RTVSPost2010PropOp30
 70
     1
102
RTVSPost2010Prop31
280
     0
102
RTVSPost2010PropOp31
 70
     1
102
RTVSPost2010Prop32
280
     0
102
RTVSPost2010PropOp32
 70
     1
102
RTVSPost2010Prop33
280
     0
102
RTVSPost2010PropOp33
 70
     1
102
RTVSPost2010Prop34
280
     0
102
RTVSPost2010PropOp34
 70
     1
102
RTVSPost2010Prop35
280
     0
102
RTVSPost2010PropOp35
 70
     1
102
RTVSPost2010Prop36
280
     0
102
RTVSPost2010PropOp36
 70
     1
102
RTVSPost2010Prop37
 90
       50
102
RTVSPost2010PropOp37
 70
     1
102
RTVSPost2010Prop38
140
0.0
102
RTVSPost2010PropOp38
 70
     1
102
RTVSPost2010Prop39
140
1.0
102
RTVSPost2010PropOp39
 70
     1
102
RTVSPost2010Prop40
 90
        0
102
RTVSPost2010PropOp40
 70
     1
102
RTVSPost2010Prop41ColorIndex
 90
       18
102
RTVSPost2010Prop41ColorRGB
 90
        0
102
RTVSPost2010PropOp41
 70
     1
102
RTVSPost2010Prop42
 90
       50
102
RTVSPost2010PropOp42
 70
     1
102
RTVSPost2010Prop43
 90
        3
102
RTVSPost2010PropOp43
 70
     1
102
RTVSPost2010Prop44ColorIndex
 90
        5
102
RTVSPost2010Prop44ColorRGB
 90
      255
102
RTVSPost2010PropOp44
 70
     1
102
RTVSPost2010Prop45
280
     0
102
RTVSPost2010PropOp45
 70
     1
102
RTVSPost2010Prop46
 90
       50
102
RTVSPost2010PropOp46
 70
     1
102
RTVSPost2010Prop47
 90
       50
102
RTVSPost2010PropOp47
 70
     1
102
RTVSPost2010Prop48
 90
       50
102
RTVSPost2010PropOp48
 70
     1
102
RTVSPost2010Prop49
280
     0
102
RTVSPost2010PropOp49
 70
     1
102
RTVSPost2010Prop50
 90
       50
102
RTVSPost2010PropOp50
 70
     1
102
RTVSPost2010Prop51ColorIndex
 90
      256
102
RTVSPost2010Prop51ColorRGB
 90
-16777216
102
RTVSPost2010PropOp51
 70
     0
102
RTVSPost2010Prop52
140
1.0
102
RTVSPost2010PropOp52
 70
     0
102
RTVSPost2010Prop53
 90
        2
102
RTVSPost2010PropOp53
 70
     1
102
RTVSPost2010Prop54
  1
strokes_ogs.tif
102
RTVSPost2010PropOp54
 70
     1
102
RTVSPost2010Prop55
280
     0
102
RTVSPost2010PropOp55
 70
     1
102
RTVSPost2010Prop56
140
1.0
102
RTVSPost2010PropOp56
 70
     1
102
RTVSPost2010Prop57
140
1.0
102
RTVSPost2010PropOp57
 70
     1
  0
XRECORD
  5
2DA
102
{ACAD_REACTORS
330
2D9
102
}
330
2D9
100
AcDbXrecord
280
     1
102
RTVSPost2010Prop28
280
     0
102
RTVSPost2010PropOp28
 70
     1
102
RTVSPost2010Prop29
280
     1
102
RTVSPost2010PropOp29
 70
     1
102
RTVSPost2010Prop30
280
     1
102
RTVSPost2010PropOp30
 70
     1
102
RTVSPost2010Prop31
280
     0
102
RTVSPost2010PropOp31
 70
     1
102
RTVSPost2010Prop32
280
     0
102
RTVSPost2010PropOp32
 70
     1
102
RTVSPost2010Prop33
280
     0
102
RTVSPost2010PropOp33
 70
     1
102
RTVSPost2010Prop34
280
     0
102
RTVSPost2010PropOp34
 70
     1
102
RTVSPost2010Prop35
280
     0
102
RTVSPost2010PropOp35
 70
     1
102
RTVSPost2010Prop36
280
     0
102
RTVSPost2010PropOp36
 70
     1
102
RTVSPost2010Prop37
 90
       50
102
RTVSPost2010PropOp37
 70
     1
102
RTVSPost2010Prop38
140
0.0
102
RTVSPost2010PropOp38
 70
     1
102
RTVSPost2010Prop39
140
1.0
102
RTVSPost2010PropOp39
 70
     1
102
RTVSPost2010Prop40
 90
        0
102
RTVSPost2010PropOp40
 70
     1
102
RTVSPost2010Prop41ColorIndex
 90
       18
102
RTVSPost2010Prop41ColorRGB
 90
        0
102
RTVSPost2010PropOp41
 70
     1
102
RTVSPost2010Prop42
 90
       50
102
RTVSPost2010PropOp42
 70
     1
102
RTVSPost2010Prop43
 90
        3
102
RTVSPost2010PropOp43
 70
     1
102
RTVSPost2010Prop44ColorIndex
 90
        5
102
RTVSPost2010Prop44ColorRGB
 90
      255
102
RTVSPost2010PropOp44
 70
     1
102
RTVSPost2010Prop45
280
     0
102
RTVSPost2010PropOp45
 70
     1
102
RTVSPost2010Prop46
 90
       50
102
RTVSPost2010PropOp46
 70
     1
102
RTVSPost2010Prop47
 90
       50
102
RTVSPost2010PropOp47
 70
     1
102
RTVSPost2010Prop48
 90
       50
102
RTVSPost2010PropOp48
 70
     1
102
RTVSPost2010Prop49
280
     0
102
RTVSPost2010PropOp49
 70
     1
102
RTVSPost2010Prop50
 90
       50
102
RTVSPost2010PropOp50
 70
     1
102
RTVSPost2010Prop51ColorIndex
 90
      256
102
RTVSPost2010Prop51ColorRGB
 90
-16777216
102
RTVSPost2010PropOp51
 70
     0
102
RTVSPost2010Prop52
140
1.0
102
RTVSPost2010PropOp52
 70
     0
102
RTVSPost2010Prop53
 90
        2
102
RTVSPost2010PropOp53
 70
     1
102
RTVSPost2010Prop54
  1
strokes_ogs.tif
102
RTVSPost2010PropOp54
 70
     1
102
RTVSPost2010Prop55
280
     0
102
RTVSPost2010PropOp55
 70
     1
102
RTVSPost2010Prop56
140
1.0
102
RTVSPost2010PropOp56
 70
     1
102
RTVSPost2010Prop57
140
1.0
102
RTVSPost2010PropOp57
 70
     1
  0
XRECORD
  5
2FA
102
{ACAD_REACTORS
330
2F9
102
}
330
2F9
100
AcDbXrecord
280
     1
102
RTVSPost2010Prop28
280
     0
102
RTVSPost2010PropOp28
 70
     1
102
RTVSPost2010Prop29
280
     1
102
RTVSPost2010PropOp29
 70
     1
102
RTVSPost2010Prop30
280
     1
102
RTVSPost2010PropOp30
 70
     1
102
RTVSPost2010Prop31
280
     0
102
RTVSPost2010PropOp31
 70
     1
102
RTVSPost2010Prop32
280
     0
102
RTVSPost2010PropOp32
 70
     1
102
RTVSPost2010Prop33
280
     0
102
RTVSPost2010PropOp33
 70
     1
102
RTVSPost2010Prop34
280
     0
102
RTVSPost2010PropOp34
 70
     1
102
RTVSPost2010Prop35
280
     0
102
RTVSPost2010PropOp35
 70
     1
102
RTVSPost2010Prop36
280
     0
102
RTVSPost2010PropOp36
 70
     1
102
RTVSPost2010Prop37
 90
       50
102
RTVSPost2010PropOp37
 70
     1
102
RTVSPost2010Prop38
140
0.0
102
RTVSPost2010PropOp38
 70
     1
102
RTVSPost2010Prop39
140
1.0
102
RTVSPost2010PropOp39
 70
     1
102
RTVSPost2010Prop40
 90
        0
102
RTVSPost2010PropOp40
 70
     1
102
RTVSPost2010Prop41ColorIndex
 90
       18
102
RTVSPost2010Prop41ColorRGB
 90
        0
102
RTVSPost2010PropOp41
 70
     1
102
RTVSPost2010Prop42
 90
       50
102
RTVSPost2010PropOp42
 70
     1
102
RTVSPost2010Prop43
 90
        3
102
RTVSPost2010PropOp43
 70
     1
102
RTVSPost2010Prop44ColorIndex
 90
        5
102
RTVSPost2010Prop44ColorRGB
 90
      255
102
RTVSPost2010PropOp44
 70
     1
102
RTVSPost2010Prop45
280
     0
102
RTVSPost2010PropOp45
 70
     1
102
RTVSPost2010Prop46
 90
       50
102
RTVSPost2010PropOp46
 70
     1
102
RTVSPost2010Prop47
 90
       50
102
RTVSPost2010PropOp47
 70
     1
102
RTVSPost2010Prop48
 90
       50
102
RTVSPost2010PropOp48
 70
     1
102
RTVSPost2010Prop49
280
     0
102
RTVSPost2010PropOp49
 70
     1
102
RTVSPost2010Prop50
 90
       50
102
RTVSPost2010PropOp50
 70
     1
102
RTVSPost2010Prop51ColorIndex
 90
      256
102
RTVSPost2010Prop51ColorRGB
 90
-16777216
102
RTVSPost2010PropOp51
 70
     0
102
RTVSPost2010Prop52
140
1.0
102
RTVSPost2010PropOp52
 70
     0
102
RTVSPost2010Prop53
 90
        2
102
RTVSPost2010PropOp53
 70
     1
102
RTVSPost2010Prop54
  1
strokes_ogs.tif
102
RTVSPost2010PropOp54
 70
     1
102
RTVSPost2010Prop55
280
     0
102
RTVSPost2010PropOp55
 70
     1
102
RTVSPost2010Prop56
140
1.0
102
RTVSPost2010PropOp56
 70
     1
102
RTVSPost2010Prop57
140
1.0
102
RTVSPost2010PropOp57
 70
     1
  0
ENDSEC
  0
EOF