0
SECTION
  2
HEADER
  9
$ACADVER
  1
AC1024
  9
$ACADMAINTVER
 70
     6
  9
$DWGCODEPAGE
  3
ANSI_1252
  9
$LASTSAVEDBY
  1
BirnerR
  9
$INSBASE
 10
0.0
 20
0.0
 30
0.0
  9
$EXTMIN
 10
14.719645
 20
-0.608434
 30
14.719645
  9
$EXTMAX
 10
15.769645
 20
0.876566
 30
15.769645
  9
$LIMMIN
 10
14.719645
 20
-0.608434
  9
$LIMMAX
 10
15.769645
 20
0.876566
  9
$ORTHOMODE
 70
     0
  9
$REGENMODE
 70
     1
  9
$FILLMODE
 70
     1
  9
$QTEXTMODE
 70
     0
  9
$MIRRTEXT
 70
     1
  9
$LTSCALE
 40
1.0
  9
$ATTMODE
 70
     1
  9
$TEXTSIZE
 40
0.2
  9
$TRACEWID
 40
0.05
  9
$TEXTSTYLE
  7
Standard
  9
$CLAYER
  8
0
  9
$CELTYPE
  6
ByLayer
  9
$CECOLOR
 62
   256
  9
$CELTSCALE
 40
1.0
  9
$DISPSILH
 70
     0
  9
$DIMSCALE
 40
1.0
  9
$DIMASZ
 40
0.18
  9
$DIMEXO
 40
0.0625
  9
$DIMDLI
 40
0.38
  9
$DIMRND
 40
0.0
  9
$DIMDLE
 40
0.0
  9
$DIMEXE
 40
0.18
  9
$DIMTP
 40
0.0
  9
$DIMTM
 40
0.0
  9
$DIMTXT
 40
0.18
  9
$DIMCEN
 40
0.09
  9
$DIMTSZ
 40
0.0
  9
$DIMTOL
 70
     0
  9
$DIMLIM
 70
     0
  9
$DIMTIH
 70
     1
  9
$DIMTOH
 70
     1
  9
$DIMSE1
 70
     0
  9
$DIMSE2
 70
     0
  9
$DIMTAD
 70
     0
  9
$DIMZIN
 70
     0
  9
$DIMBLK
  1

  9
$DIMASO
 70
     1
  9
$DIMSHO
 70
     1
  9
$DIMPOST
  1

  9
$DIMAPOST
  1

  9
$DIMALT
 70
     0
  9
$DIMALTD
 70
     2
  9
$DIMALTF
 40
25.4
  9
$DIMLFAC
 40
1.0
  9
$DIMTOFL
 70
     0
  9
$DIMTVP
 40
0.0
  9
$DIMTIX
 70
     0
  9
$DIMSOXD
 70
     0
  9
$DIMSAH
 70
     0
  9
$DIMBLK1
  1

  9
$DIMBLK2
  1

  9
$DIMSTYLE
  2
Standard
  9
$DIMCLRD
 70
     0
  9
$DIMCLRE
 70
     0
  9
$DIMCLRT
 70
     0
  9
$DIMTFAC
 40
1.0
  9
$DIMGAP
 40
0.09
  9
$DIMJUST
 70
     0
  9
$DIMSD1
 70
     0
  9
$DIMSD2
 70
     0
  9
$DIMTOLJ
 70
     1
  9
$DIMTZIN
 70
     0
  9
$DIMALTZ
 70
     0
  9
$DIMALTTZ
 70
     0
  9
$DIMUPT
 70
     0
  9
$DIMDEC
 70
     4
  9
$DIMTDEC
 70
     4
  9
$DIMALTU
 70
     2
  9
$DIMALTTD
 70
     2
  9
$DIMTXSTY
  7
Standard
  9
$DIMAUNIT
 70
     0
  9
$DIMADEC
 70
     0
  9
$DIMALTRND
 40
0.0
  9
$DIMAZIN
 70
     0
  9
$DIMDSEP
 70
    46
  9
$DIMATFIT
 70
     3
  9
$DIMFRAC
 70
     0
  9
$DIMLDRBLK
  1

  9
$DIMLUNIT
 70
     2
  9
$DIMLWD
 70
    -2
  9
$DIMLWE
 70
    -2
  9
$DIMTMOVE
 70
     0
  9
$DIMFXL
 40
1.0
  9
$DIMFXLON
 70
     0
  9
$DIMJOGANG
 40
0.785398
  9
$DIMTFILL
 70
     0
  9
$DIMTFILLCLR
 70
     0
  9
$DIMARCSYM
 70
     0
  9
$DIMLTYPE
  6

  9
$DIMLTEX1
  6

  9
$DIMLTEX2
  6

  9
$DIMTXTDIRECTION
 70
     0
  9
$LUNITS
 70
     2
  9
$LUPREC
 70
     4
  9
$SKETCHINC
 40
0.1
  9
$FILLETRAD
 40
0.5
  9
$AUNITS
 70
     0
  9
$AUPREC
 70
     0
  9
$MENU
  1
.
  9
$ELEVATION
 40
0.0
  9
$PELEVATION
 40
0.0
  9
$THICKNESS
 40
0.0
  9
$LIMCHECK
 70
     0
  9
$CHAMFERA
 40
0.0
  9
$CHAMFERB
 40
0.0
  9
$CHAMFERC
 40
0.0
  9
$CHAMFERD
 40
0.0
  9
$SKPOLY
 70
     0
  9
$TDCREATE
 40
2459144.489002396
  9
$TDUCREATE
 40
2459144.405669062
  9
$TDUPDATE
 40
2459144.489012697
  9
$TDUUPDATE
 40
2459144.405679363
  9
$TDINDWG
 40
0.0000000116
  9
$TDUSRTIMER
 40
0.0000000116
  9
$USRTIMER
 70
     1
  9
$ANGBASE
 50
0.0
  9
$ANGDIR
 70
     0
  9
$PDMODE
 70
    65
  9
$PDSIZE
 40
0.0
  9
$PLINEWID
 40
0.0
  9
$SPLFRAME
 70
     0
  9
$SPLINETYPE
 70
     6
  9
$SPLINESEGS
 70
     8
  9
$HANDSEED
  5
1B1
  9
$SURFTAB1
 70
     6
  9
$SURFTAB2
 70
     6
  9
$SURFTYPE
 70
     6
  9
$SURFU
 70
     6
  9
$SURFV
 70
     6
  9
$UCSBASE
  2

  9
$UCSNAME
  2

  9
$UCSORG
 10
0.0
 20
0.0
 30
0.0
  9
$UCSXDIR
 10
1.0
 20
0.0
 30
0.0
  9
$UCSYDIR
 10
0.0
 20
1.0
 30
0.0
  9
$UCSORTHOREF
  2

  9
$UCSORTHOVIEW
 70
     0
  9
$UCSORGTOP
 10
0.0
 20
0.0
 30
0.0
  9
$UCSORGBOTTOM
 10
0.0
 20
0.0
 30
0.0
  9
$UCSORGLEFT
 10
0.0
 20
0.0
 30
0.0
  9
$UCSORGRIGHT
 10
0.0
 20
0.0
 30
0.0
  9
$UCSORGFRONT
 10
0.0
 20
0.0
 30
0.0
  9
$UCSORGBACK
 10
0.0
 20
0.0
 30
0.0
  9
$PUCSBASE
  2

  9
$PUCSNAME
  2

  9
$PUCSORG
 10
0.0
 20
0.0
 30
0.0
  9
$PUCSXDIR
 10
1.0
 20
0.0
 30
0.0
  9
$PUCSYDIR
 10
0.0
 20
1.0
 30
0.0
  9
$PUCSORTHOREF
  2

  9
$PUCSORTHOVIEW
 70
     0
  9
$PUCSORGTOP
 10
0.0
 20
0.0
 30
0.0
  9
$PUCSORGBOTTOM
 10
0.0
 20
0.0
 30
0.0
  9
$PUCSORGLEFT
 10
0.0
 20
0.0
 30
0.0
  9
$PUCSORGRIGHT
 10
0.0
 20
0.0
 30
0.0
  9
$PUCSORGFRONT
 10
0.0
 20
0.0
 30
0.0
  9
$PUCSORGBACK
 10
0.0
 20
0.0
 30
0.0
  9
$USERI1
 70
     0
  9
$USERI2
 70
     0
  9
$USERI3
 70
     0
  9
$USERI4
 70
     0
  9
$USERI5
 70
     0
  9
$USERR1
 40
0.0
  9
$USERR2
 40
0.0
  9
$USERR3
 40
0.0
  9
$USERR4
 40
0.0
  9
$USERR5
 40
0.0
  9
$WORLDVIEW
 70
     1
  9
$SHADEDGE
 70
     3
  9
$SHADEDIF
 70
    70
  9
$TILEMODE
 70
     0
  9
$MAXACTVP
 70
    64
  9
$PINSBASE
 10
0.0
 20
0.0
 30
0.0
  9
$PLIMCHECK
 70
     0
  9
$PEXTMIN
 10
-0.0001
 20
-0.0001
 30
0.0
  9
$PEXTMAX
 10
0.2101
 20
0.2971
 30
0.0
  9
$PLIMMIN
 10
-0.0001
 20
-0.0001
  9
$PLIMMAX
 10
0.2101
 20
0.2971
  9
$UNITMODE
 70
     0
  9
$VISRETAIN
 70
     1
  9
$PLINEGEN
 70
     0
  9
$PSLTSCALE
 70
     0
  9
$TREEDEPTH
 70
  3020
  9
$CMLSTYLE
  2
Standard
  9
$CMLJUST
 70
     0
  9
$CMLSCALE
 40
1.0
  9
$PROXYGRAPHICS
 70
     1
  9
$MEASUREMENT
 70
     1
  9
$CELWEIGHT
370
    -1
  9
$ENDCAPS
280
     0
  9
$JOINSTYLE
280
     0
  9
$LWDISPLAY
290
     0
  9
$INSUNITS
 70
     6
  9
$HYPERLINKBASE
  1

  9
$STYLESHEET
  1

  9
$XEDIT
290
     1
  9
$CEPSNTYPE
380
     0
  9
$PSTYLEMODE
290
     1
  9
$FINGERPRINTGUID
  2
{a5c9f4e7-225f-4e8a-8634-9ed8e2150fd1}
  9
$VERSIONGUID
  2
{FAEB1C32-E019-11D5-929B-00C0DF256EC4}
  9
$EXTNAMES
290
     1
  9
$PSVPSCALE
 40
0.0
  9
$OLESTARTUP
290
     0
  9
$SORTENTS
280
   127
  9
$INDEXCTL
280
     0
  9
$HIDETEXT
280
     1
  9
$XCLIPFRAME
280
     2
  9
$HALOGAP
280
     0
  9
$OBSCOLOR
 70
   257
  9
$OBSLTYPE
280
     0
  9
$INTERSECTIONDISPLAY
280
     0
  9
$INTERSECTIONCOLOR
 70
   257
  9
$DIMASSOC
280
     2
  9
$PROJECTNAME
  1

  9
$CAMERADISPLAY
290
     0
  9
$LENSLENGTH
 40
50.0
  9
$CAMERAHEIGHT
 40
0.0
  9
$STEPSPERSEC
 40
2.0
  9
$STEPSIZE
 40
6.0
  9
$3DDWFPREC
 40
2.0
  9
$PSOLWIDTH
 40
0.25
  9
$PSOLHEIGHT
 40
4.0
  9
$LOFTANG1
 40
1.570796
  9
$LOFTANG2
 40
1.570796
  9
$LOFTMAG1
 40
0.0
  9
$LOFTMAG2
 40
0.0
  9
$LOFTPARAM
 70
     7
  9
$LOFTNORMALS
280
     1
  9
$LATITUDE
 40
37.795
  9
$LONGITUDE
 40
-122.394
  9
$NORTHDIRECTION
 40
0.0
  9
$TIMEZONE
 70
 -8000
  9
$LIGHTGLYPHDISPLAY
280
     1
  9
$TILEMODELIGHTSYNCH
280
     1
  9
$CMATERIAL
347
44
  9
$SOLIDHIST
280
     0
  9
$SHOWHIST
280
     1
  9
$DWFFRAME
280
     2
  9
$DGNFRAME
280
     2
  9
$REALWORLDSCALE
290
     1
  9
$INTERFERECOLOR
 62
   256
  9
$CSHADOW
280
     0
  9
$SHADOWPLANELOCATION
 40
0.0
  0
ENDSEC
  0
SECTION
  2
CLASSES
  0
CLASS
  1
ACDBDICTIONARYWDFLT
  2
AcDbDictionaryWithDefault
  3
ObjectDBX Classes
 90
        0
 91
        3
280
     0
281
     0
  0
CLASS
  1
VISUALSTYLE
  2
AcDbVisualStyle
  3
ObjectDBX Classes
 90
     4095
 91
        3
280
     0
281
     0
  0
CLASS
  1
MATERIAL
  2
AcDbMaterial
  3
ObjectDBX Classes
 90
     1153
 91
        3
280
     0
281
     0
  0
CLASS
  1
SCALE
  2
AcDbScale
  3
ObjectDBX Classes
 90
     1153
 91
        3
280
     0
281
     0
  0
CLASS
  1
TABLESTYLE
  2
AcDbTableStyle
  3
ObjectDBX Classes
 90
     4095
 91
        3
280
     0
281
     0
  0
CLASS
  1
MLEADERSTYLE
  2
AcDbMLeaderStyle
  3
ACDB_MLEADERSTYLE_CLASS
 90
     4095
 91
        3
280
     0
281
     0
  0
CLASS
  1
SUN
  2
AcDbSun
  3
SCENEOE
 90
     1153
 91
        3
280
     0
281
     0
  0
CLASS
  1
SORTENTSTABLE
  2
AcDbSortentsTable
  3
ObjectDBX Classes
 90
        0
 91
        3
280
     0
281
     0
  0
CLASS
  1
DICTIONARYVAR
  2
AcDbDictionaryVar
  3
ObjectDBX Classes
 90
        0
 91
        3
280
     0
281
     0
  0
CLASS
  1
CELLSTYLEMAP
  2
AcDbCellStyleMap
  3
ObjectDBX Classes
 90
     1152
 91
        3
280
     0
281
     0
  0
ENDSEC
  0
SECTION
  2
TABLES
  0
TABLE
  2
VPORT
  5
8
330
0
100
AcDbSymbolTable
 70
     1
  0
VPORT
  5
29
330
8
100
AcDbSymbolTableRecord
100
AcDbViewportTableRecord
  2
*Active
 70
     0
 10
0.0
 20
0.0
 11
1.0
 21
1.0
 12
15.244645
 22
0.134066
 13
0.0
 23
0.0
 14
0.5
 24
0.5
 15
0.5
 25
0.5
 16
0.0
 26
0.0
 36
1.0
 17
0.0
 27
0.0
 37
0.0
 40
1.782
 41
0.848485
 42
50.0
 43
0.0
 44
0.0
 50
0.0
 51
0.0
 71
     0
 72
   100
 73
     1
 74
     3
 75
     0
 76
     0
 77
     0
 78
     0
281
     0
 65
     1
110
0.0
120
0.0
130
0.0
111
1.0
121
0.0
131
0.0
112
0.0
122
1.0
132
0.0
 79
     0
146
0.0
348
2F
 60
     3
 61
     5
292
     1
282
     1
141
0.0
142
0.0
 63
   250
361
6D
  0
ENDTAB
  0
TABLE
  2
LTYPE
  5
5
330
0
100
AcDbSymbolTable
 70
     4
  0
LTYPE
  5
14
330
5
100
AcDbSymbolTableRecord
100
AcDbLinetypeTableRecord
  2
ByBlock
 70
     0
  3

 72
    65
 73
     0
 40
0.0
  0
LTYPE
  5
15
330
5
100
AcDbSymbolTableRecord
100
AcDbLinetypeTableRecord
  2
ByLayer
 70
     0
  3

 72
    65
 73
     0
 40
0.0
  0
LTYPE
  5
16
330
5
100
AcDbSymbolTableRecord
100
AcDbLinetypeTableRecord
  2
Continuous
 70
     0
  3
Solid line
 72
    65
 73
     0
 40
0.0
  0
LTYPE
  5
74
330
5
100
AcDbSymbolTableRecord
100
AcDbLinetypeTableRecord
  2
AUSGEZOGEN
 70
     0
  3
durchgezogene Linie
 72
    65
 73
     0
 40
0.0
  0
LTYPE
  5
7A
330
5
100
AcDbSymbolTableRecord
100
AcDbLinetypeTableRecord
  2
STRICHPUNKT2_S5
 70
     0
  3
Lang eng gestrichelt bzw. punktiert
 72
    65
 73
     4
 40
0.05
 49
0.035
 74
     0
 49
-0.005
 74
     0
 49
0.005
 74
     0
 49
-0.005
 74
     0
  0
LTYPE
  5
7B
330
5
100
AcDbSymbolTableRecord
100
AcDbLinetypeTableRecord
  2
VERDECKT2_S2
 70
     0
  3
Kurzgestrichelt
 72
    65
 73
     2
 40
0.015
 49
0.01
 74
     0
 49
-0.005
 74
     0
  0
ENDTAB
  0
TABLE
  2
LAYER
  5
2
330
0
100
AcDbSymbolTable
 70
     4
  0
LAYER
  5
10
330
2
100
AcDbSymbolTableRecord
100
AcDbLayerTableRecord
  2
0
 70
     0
 62
     7
  6
Continuous
370
    -3
390
F
347
46
  0
LAYER
  5
76
330
2
100
AcDbSymbolTableRecord
100
AcDbLayerTableRecord
  2
PLAN_814
 70
     0
 62
     7
  6
AUSGEZOGEN
370
    -3
390
F
347
46
1001
AcCmTransparency
1071
 33554687
1001
AcAecLayerStandard
1000

1000
Dokument-Layer
  0
LAYER
  5
78
330
2
100
AcDbSymbolTableRecord
100
AcDbLayerTableRecord
  2
TB_814
 70
     0
 62
     7
  6
AUSGEZOGEN
370
    -3
390
F
347
46
1001
AcCmTransparency
1071
 33554687
1001
AcAecLayerStandard
1000

1000
Dokument-Layer
  0
LAYER
  5
7C
330
2
100
AcDbSymbolTableRecord
100
AcDbLayerTableRecord
  2
XR$1$TB_814_1
 70
     0
 62
     7
  6
AUSGEZOGEN
370
    -3
390
F
347
46
1001
AcCmTransparency
1071
 33554687
1001
AcAecLayerStandard
1000

1000
Dokument-Layer
  0
ENDTAB
  0
TABLE
  2
STYLE
  5
3
330
0
100
AcDbSymbolTable
 70
     2
  0
STYLE
  5
11
330
3
100
AcDbSymbolTableRecord
100
AcDbTextStyleTableRecord
  2
Standard
 70
     0
 40
0.0
 41
1.0
 50
0.0
 71
     0
 42
0.2
  3
txt
  4

  0
STYLE
  5
79
330
3
100
AcDbSymbolTableRecord
100
AcDbTextStyleTableRecord
  2
ARIAL
 70
     0
 40
0.0
 41
1.0
 50
0.0
 71
     0
 42
0.2
  3
ARIAL.TTF
  4

1001
ACAD
1000
Arial
1071
       34
  0
ENDTAB
  0
TABLE
  2
VIEW
  5
6
330
0
100
AcDbSymbolTable
 70
     0
  0
ENDTAB
  0
TABLE
  2
UCS
  5
7
330
0
100
AcDbSymbolTable
 70
     0
  0
ENDTAB
  0
TABLE
  2
APPID
  5
9
330
0
100
AcDbSymbolTable
 70
     4
  0
APPID
  5
12
330
9
100
AcDbSymbolTableRecord
100
AcDbRegAppTableRecord
  2
ACAD
 70
     0
  0
APPID
  5
75
330
9
100
AcDbSymbolTableRecord
100
AcDbRegAppTableRecord
  2
AcCmTransparency
 70
     0
  0
APPID
  5
77
330
9
100
AcDbSymbolTableRecord
100
AcDbRegAppTableRecord
  2
AcAecLayerStandard
 70
     0
  0
APPID
  5
7E
330
9
100
AcDbSymbolTableRecord
100
AcDbRegAppTableRecord
  2
NEM_ODX
 70
     0
  0
ENDTAB
  0
TABLE
  2
DIMSTYLE
  5
A
330
0
100
AcDbSymbolTable
 70
     1
100
AcDbDimStyleTable
  0
DIMSTYLE
105
27
330
A
100
AcDbSymbolTableRecord
100
AcDbDimStyleTableRecord
  2
Standard
 70
     0
178
     0
340
11
  0
ENDTAB
  0
TABLE
  2
BLOCK_RECORD
  5
1
330
0
100
AcDbSymbolTable
 70
     0
  0
BLOCK_RECORD
  5
1F
102
{ACAD_XDICTIONARY
360
174
102
}
330
1
100
AcDbSymbolTableRecord
100
AcDbBlockTableRecord
  2
*Model_Space
340
22
 70
     0
280
     1
281
     0
  0
BLOCK_RECORD
  5
6E
330
1
100
AcDbSymbolTableRecord
100
AcDbBlockTableRecord
  2
*Paper_Space
340
6F
 70
     0
280
     1
281
     0
  0
ENDTAB
  0
ENDSEC
  0
SECTION
  2
BLOCKS
  0
BLOCK
  5
20
330
1F
100
AcDbEntity
  8
0
100
AcDbBlockBegin
  2
*Model_Space
 70
     0
 10
0.0
 20
0.0
 30
0.0
  3
*Model_Space
  1

  0
ENDBLK
  5
21
330
1F
100
AcDbEntity
  8
0
100
AcDbBlockEnd
  0
BLOCK
  5
70
330
6E
100
AcDbEntity
 67
     1
  8
0
100
AcDbBlockBegin
  2
*Paper_Space
 70
     0
 10
0.0
 20
0.0
 30
0.0
  3
*Paper_Space
  1

  0
ENDBLK
  5
71
330
6E
100
AcDbEntity
 67
     1
  8
0
100
AcDbBlockEnd
  0
ENDSEC
  0
SECTION
  2
ENTITIES
  0
LWPOLYLINE
  5
7D
330
1F
100
AcDbEntity
  8
XR$1$TB_814_1
  6
AUSGEZOGEN
 62
    52
440
 33554687
370
    -3
100
AcDbPolyline
 90
        2
 70
     1
 43
0.0
 10
15.517034
 20
0.389406
 10
15.517034
 20
0.389406
  0
HATCH
  5
7F
330
1F
100
AcDbEntity
  8
XR$1$TB_814_1
  6
AUSGEZOGEN
 62
     7
440
 33554687
370
    -3
100
AcDbHatch
 10
0.0
 20
0.0
 30
0.0
210
0.0
220
0.0
230
1.0
  2
SCHRAFFUR_3
 70
     0
 71
     0
 91
        1
 92
        0
 93
        8
 72
     1
 10
15.5520337370194
 20
-0.2553428466909396
 11
15.55203371498999
 21
-0.1205148003813696
 72
     1
 10
15.55203371498999
 20
-0.1205148003813696
 11
15.66625285451738
 21
-0.1205148003813696
 72
     1
 10
15.66625285451738
 20
-0.1205148003813696
 11
15.66625285451738
 21
0.0294851996186306
 72
     1
 10
15.66625285451738
 20
0.0294851996186306
 11
15.55203369048165
 21
0.0334851996186306
 72
     1
 10
15.55203369048165
 20
0.0334851996186306
 11
15.51703363592724
 21
0.3534060495358904
 72
     1
 10
15.51703363592724
 20
0.3534060495358904
 11
15.25203373950489
 21
0.3534060495358904
 72
     1
 10
15.25203373950489
 20
0.3534060495358904
 11
15.25203373701941
 21
-0.2553428972166286
 72
     1
 10
15.25203373701941
 20
-0.2553428972166286
 11
15.5520337370194
 21
-0.2553428466909396
 97
        0
 75
     0
 76
     2
 52
315.0
 41
0.005
 77
     0
 78
     2
 53
44.99999999999999
 43
0.0
 44
0.0
 45
-0.0353553390593274
 46
0.0353553390593274
 79
     0
 53
44.99999999999999
 43
-0.0176776695296637
 44
0.0176776695296637
 45
-0.0353553390593274
 46
0.0353553390593274
 79
     0
 98
        0
1001
ACAD
1010
0.0
1020
0.0
1030
0.0
1001
NEM_ODX
1002
{
1000
BZM_DEPEND
1070
     1
1000
BZM_SCALE
1040
5.0
1000
SCHRAFFUR_3
1002
}
  0
LWPOLYLINE
  5
80
330
1F
100
AcDbEntity
  8
XR$1$TB_814_1
  6
AUSGEZOGEN
 62
     7
440
 33554687
370
    -3
100
AcDbPolyline
 90
        2
 70
     1
 43
0.0
 10
15.098929
 20
0.316657
 10
15.098929
 20
0.316657
  0
LWPOLYLINE
  5
81
330
1F
100
AcDbEntity
  8
XR$1$TB_814_1
  6
AUSGEZOGEN
 62
     7
440
 33554687
370
    -3
100
AcDbPolyline
 90
        2
 70
     1
 43
0.0
 10
15.128929
 20
0.294907
 10
15.128929
 20
0.294907
  0
HATCH
  5
82
330
1F
100
AcDbEntity
  8
XR$1$TB_814_1
  6
AUSGEZOGEN
 62
    18
420
        0
440
 33554687
370
    35
100
AcDbHatch
 10
0.0
 20
0.0
 30
0.0
210
0.0
220
0.0
230
1.0
  2
SOLID
 70
     1
 71
     0
 91
       18
 92
        3
 72
     0
 73
     1
 93
       27
 10
14.83890135573673
 20
-0.4704325920984336
 10
14.84289509919768
 20
-0.4704325920984336
 10
14.84347222558823
 20
-0.4704051957176216
 10
14.84400321070584
 20
-0.4703226460964866
 10
14.84449814795395
 20
-0.4701943156810996
 10
14.84494694392911
 20
-0.4700111925040796
 10
14.8453589710774
 20
-0.4697913005001806
 10
14.84572521743143
 20
-0.4695166157346596
 10
14.84635749706231
 20
-0.4688663121690446
 10
14.84660478544702
 20
-0.4684906933689416
 10
14.84682467745091
 20
-0.4680786662206596
 10
14.84716352742413
 20
-0.4671807137916326
 10
14.84735566256852
 20
-0.4661825482854126
 10
14.84741982777621
 20
-0.4651108451254426
 10
14.84735566256852
 20
-0.4639656043117026
 10
14.84716352742413
 20
-0.4629306699786106
 10
14.84700780062793
 20
-0.4624634895900055
 10
14.84682467745091
 20
-0.4620240660609036
 10
14.84660478544702
 20
-0.4616206904012976
 10
14.84635749706231
 20
-0.4612544440472706
 10
14.84572521743143
 20
-0.4606315368624596
 10
14.8453589710774
 20
-0.4603842484777526
 10
14.84494694392911
 20
-0.4601737289199296
 10
14.84449814795395
 20
-0.4600086296776496
 10
14.84400321070584
 20
-0.4598896717083276
 10
14.84289509919768
 20
-0.4597887376737506
 10
14.83890135573673
 20
-0.4597887376737506
 97
        0
 92
        3
 72
     0
 73
     1
 93
       12
 10
14.85060754087533
 20
-0.4704325920984336
 10
14.85832935499904
 20
-0.4704325920984336
 10
14.85832935499904
 20
-0.4691042281076806
 10
14.8522105896316
 20
-0.4691042281076806
 10
14.8522105896316
 20
-0.4656418302430466
 10
14.85725765183907
 20
-0.4656418302430466
 10
14.85725765183907
 20
-0.4643138267309896
 10
14.8522105896316
 20
-0.4643138267309896
 10
14.8522105896316
 20
-0.4611171016645096
 10
14.85806368220089
 20
-0.4611171016645096
 10
14.85806368220089
 20
-0.4597887376737506
 10
14.85060754087533
 20
-0.4597887376737506
 97
        0
 92
        3
 72
     0
 73
     1
 93
       38
 10
14.86790114578505
 20
-0.4597887376737506
 10
14.86790114578505
 20
-0.4667045214356516
 10
14.86786437695817
 20
-0.4673548250012686
 10
14.86775479143492
 20
-0.4679045550110136
 10
14.86755292336577
 20
-0.4683717353996196
 10
14.86726922663287
 20
-0.4687379817536566
 10
14.86690261980014
 20
-0.4690126665191786
 10
14.8664448118576
 20
-0.4692141741096316
 10
14.86589508184787
 20
-0.4693334925576506
 10
14.86524477828224
 20
-0.4693699009058326
 10
14.86459447471662
 20
-0.4693334925576506
 10
14.86404474470688
 20
-0.4692141741096316
 10
14.86358693676434
 20
-0.4690126665191786
 10
14.86321131796424
 20
-0.4687379817536566
 10
14.86293663319871
 20
-0.4683717353996196
 10
14.86273512560826
 20
-0.4679045550110136
 10
14.86262517960631
 20
-0.4673548250012686
 10
14.86257939881206
 20
-0.4667045214356516
 10
14.86257939881206
 20
-0.4597887376737506
 10
14.86125103482131
 20
-0.4597887376737506
 10
14.86125103482131
 20
-0.4669701942337976
 10
14.86132457247508
 20
-0.4678220053898766
 10
14.8615350920329
 20
-0.4685638705440056
 10
14.86188331445218
 20
-0.4692051621422546
 10
14.86235049484079
 20
-0.4697365077385616
 10
14.86292726075265
 20
-0.4701485348868406
 10
14.86361433314515
 20
-0.4704509765118706
 10
14.86438395515879
 20
-0.4706340996888906
 10
14.86524477828224
 20
-0.4706982648965856
 10
14.86610596188439
 20
-0.4706340996888906
 10
14.86687522341933
 20
-0.4704509765118706
 10
14.86756229581183
 20
-0.4701485348868406
 10
14.86813942220239
 20
-0.4697365077385616
 10
14.868606602591
 20
-0.4692051621422546
 10
14.86894545256422
 20
-0.4685638705440056
 10
14.86916534456811
 20
-0.4678220053898766
 10
14.86923852174317
 20
-0.4669701942337976
 10
14.86923852174317
 20
-0.4597887376737506
 97
        0
 92
        3
 72
     0
 73
     1
 93
        8
 10
14.87189488924599
 20
-0.4597887376737506
 10
14.87189488924599
 20
-0.4611171016645096
 10
14.87509161431247
 20
-0.4611171016645096
 10
14.87509161431247
 20
-0.4704325920984336
 10
14.87641961782452
 20
-0.4704325920984336
 10
14.87641961782452
 20
-0.4611171016645096
 10
14.87960733092364
 20
-0.4611171016645096
 10
14.87960733092364
 20
-0.4597887376737506
 97
        0
 92
        3
 72
     0
 73
     1
 93
       96
 10
14.88261192084573
 20
-0.4633520695729586
 10
14.88282244040355
 20
-0.4638740427231966
 10
14.8831522784094
 20
-0.4642864303501796
 10
14.88357367800376
 20
-0.4646252803233946
 10
14.88407726674055
 20
-0.4648909531215396
 10
14.88464538116373
 20
-0.4650924607120016
 10
14.88586343867385
 20
-0.4654129262717796
 10
14.88708185666264
 20
-0.4656879715159886
 10
14.88764961060713
 20
-0.4658433378335066
 10
14.88815355982262
 20
-0.4660448454239616
 10
14.88857459893828
 20
-0.4662924942873616
 10
14.88890443694412
 20
-0.4666129598471396
 10
14.88911531698065
 20
-0.4670069630606846
 10
14.88918849415572
 20
-0.4675015398301036
 10
14.88913334091539
 20
-0.4679687202187086
 10
14.88895959018445
 20
-0.4683533509861786
 10
14.88869391738629
 20
-0.4686831889920246
 10
14.88835506741308
 20
-0.4689394893441056
 10
14.88795205223216
 20
-0.4691319849671926
 10
14.88750289577831
 20
-0.4692599549038856
 10
14.88702670342232
 20
-0.4693425045250166
 10
14.88653212665291
 20
-0.4693699009058326
 10
14.88586343867385
 20
-0.4693334925576506
 10
14.88527730031591
 20
-0.4692141741096316
 10
14.88477335110043
 20
-0.4690126665191786
 10
14.88433392757133
 20
-0.4687379817536566
 10
14.88397669318467
 20
-0.4683717353996196
 10
14.88368326352701
 20
-0.4679045550110136
 10
14.88347274396918
 20
-0.4673548250012686
 10
14.88333540158642
 20
-0.4667045214356516
 10
14.88200703759567
 20
-0.4669701942337976
 10
14.88209895966287
 20
-0.4678951825649476
 10
14.8822179176322
 20
-0.4683075701919226
 10
14.8823736444284
 20
-0.4686738165459576
 10
14.88257515201885
 20
-0.4690126665191786
 10
14.88280405599012
 20
-0.4693241201115796
 10
14.8833721704133
 20
-0.4698370812944416
 10
14.88404049791368
 20
-0.4702217120619076
 10
14.88481011992731
 20
-0.4704873848600596
 10
14.88564354666995
 20
-0.4706431116562636
 10
14.88653212665291
 20
-0.4706982648965856
 10
14.88731076063391
 20
-0.4706431116562636
 10
14.88805262578805
 20
-0.4704967573061276
 10
14.88873032573449
 20
-0.4702310845079806
 10
14.88932583653848
 20
-0.4698644776752536
 10
14.88982041330789
 20
-0.4693882853192736
 10
14.890196032108
 20
-0.4687927745152796
 10
14.89033337449076
 20
-0.4684449125746866
 10
14.89043430852533
 20
-0.4680786662206596
 10
14.89051649766778
 20
-0.4672358670319496
 10
14.89044332049271
 20
-0.4665120258125676
 10
14.89023280093488
 20
-0.4659168754872666
 10
14.88990296292903
 20
-0.4654403226525866
 10
14.88948156333467
 20
-0.4650650643311856
 10
14.88897761411919
 20
-0.4647719951522216
 10
14.88841887214208
 20
-0.4645427307022656
 10
14.88719180266459
 20
-0.4642128926964126
 10
14.88597338467579
 20
-0.4639475803769586
 10
14.88541464269868
 20
-0.4637918535807586
 10
14.88491069348319
 20
-0.4636083699250446
 10
14.88448028192147
 20
-0.4633704539864016
 10
14.88415044391563
 20
-0.4630680123613726
 10
14.88393992435779
 20
-0.4626743696265296
 10
14.88386674718273
 20
-0.4621794323784146
 10
14.88393091239042
 20
-0.4618221979917566
 10
14.88409565115399
 20
-0.4615291288127916
 10
14.8843429395387
 20
-0.4612912128741496
 10
14.88466340509848
 20
-0.4611171016645096
 10
14.88503902389858
 20
-0.4609981436951816
 10
14.88544203907949
 20
-0.4609155940740496
 10
14.88626645385476
 20
-0.4608514288663556
 10
14.88683456827794
 20
-0.4608788252471676
 10
14.8873471689821
 20
-0.4609613748683026
 10
14.88780533740334
 20
-0.4611080896971286
 10
14.8881899681708
 20
-0.4613186092549656
 10
14.88850142176321
 20
-0.4616116784339286
 10
14.88873032573449
 20
-0.4619779247879576
 10
14.88887704056331
 20
-0.4624360932091936
 10
14.88892282135756
 20
-0.4629858232189306
 10
14.89051649766778
 20
-0.4629858232189306
 10
14.89026920928306
 20
-0.4621430240302256
 10
14.88993035930985
 20
-0.4614285552569086
 10
14.88949994774811
 20
-0.4608330444529166
 10
14.88898698656526
 20
-0.4603568520969346
 10
14.88840084820733
 20
-0.4599902452642086
 10
14.88775054464171
 20
-0.4597249329447546
 10
14.88703607586839
 20
-0.4595782181159306
 10
14.88626645385476
 20
-0.4595234253543006
 10
14.88557036949488
 20
-0.4595692061485496
 10
14.88489266954844
 20
-0.4597249329447546
 10
14.88426976236363
 20
-0.4599722213294676
 10
14.88370164794045
 20
-0.4603200832700546
 10
14.88322545558448
 20
-0.4607688792452226
 10
14.88285920923044
 20
-0.4613186092549656
 10
14.88262093281311
 20
-0.4619689128205916
 10
14.88253838319197
 20
-0.4627201504207846
 97
        0
 92
        3
 72
     0
 73
     1
 93
       78
 10
14.89484007913455
 20
-0.4642406495559206
 10
14.89502320231157
 20
-0.4634346191940986
 10
14.89533465590397
 20
-0.4627107779747116
 10
14.89577443991176
 20
-0.4620878707899026
 10
14.89633318188888
 20
-0.4615658976396736
 10
14.89701989380269
 20
-0.4611812668722046
 10
14.89783529661058
 20
-0.4609429904548616
 10
14.89876965738779
 20
-0.4608514288663556
 10
14.89927324612458
 20
-0.4608881976932386
 10
14.89978620730745
 20
-0.4610071556625606
 10
14.90029015652294
 20
-0.4611902788395706
 10
14.90076634887891
 20
-0.4614559516377306
 10
14.90118774847327
 20
-0.4617857896435706
 10
14.90153597089255
 20
-0.4621978167918566
 10
14.90180128321201
 20
-0.4626833815939026
 10
14.90195701000821
 20
-0.4632511355383936
 10
14.90329438596633
 20
-0.4629858232189306
 10
14.90302871316818
 20
-0.4621430240302256
 10
14.90266246681415
 20
-0.4614285552569086
 10
14.90218627445817
 20
-0.4608330444529166
 10
14.90162753248105
 20
-0.4603568520969346
 10
14.90099525285018
 20
-0.4599902452642086
 10
14.9002991684903
 20
-0.4597249329447546
 10
14.8995482913688
 20
-0.4595782181159306
 10
14.89876965738779
 20
-0.4595234253543006
 10
14.89813737775692
 20
-0.4595508217351066
 10
14.89754222743162
 20
-0.4596330108775496
 10
14.89699249742188
 20
-0.4597613412929346
 10
14.89647953623901
 20
-0.4599444644699546
 10
14.89600334388304
 20
-0.4601737289199296
 10
14.89556355987523
 20
-0.4604484136854476
 10
14.89516991714039
 20
-0.4607688792452226
 10
14.89481268275374
 20
-0.4611171016645096
 10
14.89449185671527
 20
-0.4615111048780486
 10
14.89421717194974
 20
-0.4619415164397686
 10
14.89398826797847
 20
-0.4623993243823136
 10
14.89379577235539
 20
-0.4628939011517306
 10
14.89353009955725
 20
-0.4639565923443366
 10
14.8934479104148
 20
-0.4651108451254426
 10
14.89353009955725
 20
-0.4662647374278536
 10
14.89379577235539
 20
-0.4673274286204616
 10
14.89398826797847
 20
-0.4678220053898766
 10
14.89421717194974
 20
-0.4682801738111086
 10
14.89449185671527
 20
-0.4687105853728406
 10
14.89481268275374
 20
-0.4691042281076806
 10
14.89516991714039
 20
-0.4694524505269596
 10
14.89556355987523
 20
-0.4697729160867496
 10
14.89600334388304
 20
-0.4700479613309596
 10
14.89647953623901
 20
-0.4702768653022326
 10
14.89699249742188
 20
-0.4704599884792476
 10
14.89754222743162
 20
-0.4705883188946336
 10
14.89813737775692
 20
-0.4706708685157696
 10
14.89876965738779
 20
-0.4706982648965856
 10
14.89956631530354
 20
-0.4706247272428266
 10
14.90033593731719
 20
-0.4704051957176216
 10
14.90107780247132
 20
-0.4700569732983386
 10
14.90176487486382
 20
-0.4695714084962946
 10
14.90236939763518
 20
-0.4689578737575466
 10
14.90288235881805
 20
-0.4682250205707846
 10
14.90328537399896
 20
-0.4673915938281516
 10
14.90356005876448
 20
-0.4664388486374996
 10
14.90195701000821
 20
-0.4664388486374996
 10
14.90181065565807
 20
-0.4670985246491906
 10
14.90157237924074
 20
-0.4676846630071156
 10
14.90125191368096
 20
-0.4681882517439116
 10
14.90086728291349
 20
-0.4686006393708846
 10
14.90040911449225
 20
-0.4689304773767396
 10
14.89990552575546
 20
-0.4691683933153836
 10
14.89935579574572
 20
-0.4693151081442006
 10
14.89876965738779
 20
-0.4693699009058326
 10
14.89783529661058
 20
-0.4692877117633906
 10
14.89701989380269
 20
-0.4690404233786796
 10
14.89633318188888
 20
-0.4686554321325166
 10
14.89577443991176
 20
-0.4681334589822836
 10
14.89533465590397
 20
-0.4675105517974696
 10
14.89502320231157
 20
-0.4667870710567826
 10
14.89484007913455
 20
-0.4659810406949636
 10
14.89477591392686
 20
-0.4651108451254426
 97
        0
 92
        3
 72
     0
 73
     1
 93
       12
 10
14.9067477718636
 20
-0.4704325920984336
 10
14.90807577537566
 20
-0.4704325920984336
 10
14.90807577537566
 20
-0.4656418302430466
 10
14.9136631951468
 20
-0.4656418302430466
 10
14.9136631951468
 20
-0.4704325920984336
 10
14.91526624390307
 20
-0.4704325920984336
 10
14.91526624390307
 20
-0.4597887376737506
 10
14.9136631951468
 20
-0.4597887376737506
 10
14.9136631951468
 20
-0.4643138267309896
 10
14.90807577537566
 20
-0.4643138267309896
 10
14.90807577537566
 20
-0.4597887376737506
 10
14.9067477718636
 20
-0.4597887376737506
 97
        0
 92
        3
 72
     0
 73
     1
 93
       12
 10
14.91871962980034
 20
-0.4704325920984336
 10
14.92617541064721
 20
-0.4704325920984336
 10
14.92617541064721
 20
-0.4691042281076806
 10
14.92005700575845
 20
-0.4691042281076806
 10
14.92005700575845
 20
-0.4656418302430466
 10
14.92536938028538
 20
-0.4656418302430466
 10
14.92536938028538
 20
-0.4643138267309896
 10
14.92005700575845
 20
-0.4643138267309896
 10
14.92005700575845
 20
-0.4611171016645096
 10
14.92617541064721
 20
-0.4611171016645096
 10
14.92617541064721
 20
-0.4597887376737506
 10
14.91871962980034
 20
-0.4597887376737506
 97
        0
 92
        3
 72
     0
 73
     1
 93
       90
 10
14.84142939282416
 20
-0.4779986794259516
 10
14.84112731167782
 20
-0.4777052497682946
 10
14.84105377402406
 20
-0.4775405110047196
 10
14.84103575008931
 20
-0.4773480153816366
 10
14.84108153088357
 20
-0.4770733306161096
 10
14.84120950082026
 20
-0.4768444266448406
 10
14.84139298447597
 20
-0.4766613034678286
 10
14.84163090041461
 20
-0.4765145886389927
 10
14.84215323404354
 20
-0.4763404774293596
 10
14.84262942639952
 20
-0.4762856846677206
 10
14.8434170723479
 20
-0.4763772462562266
 10
14.84380170311538
 20
-0.4764962042255606
 10
14.84415893750204
 20
-0.4766519310217556
 10
14.84480022910028
 20
-0.4770733306161096
 10
14.84528579390233
 20
-0.4776136881797826
 10
14.84741982777621
 20
-0.4762856846677206
 10
14.84690686659335
 20
-0.4758094923117476
 10
14.84637588147575
 20
-0.4753880927173926
 10
14.84582615146601
 20
-0.4750308583307416
 10
14.84525839752152
 20
-0.4747194047383306
 10
14.84467189868489
 20
-0.4744811283209946
 10
14.84408576032697
 20
-0.4742980051439786
 10
14.84349024952298
 20
-0.4741970711093996
 10
14.84289509919768
 20
-0.4741606627612166
 10
14.84202490362816
 20
-0.4742064435554746
 10
14.84121887326633
 20
-0.4743621703516786
 10
14.84049503204695
 20
-0.4746184707037596
 10
14.83987212486213
 20
-0.4749850775364826
 10
14.83935015171191
 20
-0.4754702818598346
 10
14.83896552094444
 20
-0.4760657926638346
 10
14.83882817856168
 20
-0.4764046426370456
 10
14.83871823255972
 20
-0.4767802614371446
 10
14.8386356829386
 20
-0.4776136881797826
 10
14.83869083617891
 20
-0.4781908145703456
 10
14.83884656297511
 20
-0.4787131481992656
 10
14.83909385135983
 20
-0.4791799681091796
 10
14.83943270133303
 20
-0.4795923557361566
 10
14.83985410092739
 20
-0.4799402176767486
 10
14.84035768966418
 20
-0.4802152629209646
 10
14.84094382802211
 20
-0.4804257824787996
 10
14.84158511962036
 20
-0.4805631248615596
 10
14.84371951397294
 20
-0.4810029088693486
 10
14.84418669436154
 20
-0.4811128548712986
 10
14.84450715992132
 20
-0.4812869660809396
 10
14.8446996555444
 20
-0.4815248820195866
 10
14.84475444830603
 20
-0.4818731044388696
 10
14.84470866751177
 20
-0.4821571616504586
 10
14.84458033709639
 20
-0.4824134620025416
 10
14.84437882950593
 20
-0.4826423659738066
 10
14.84412252915384
 20
-0.4828348615968986
 10
14.84383847194226
 20
-0.4829905883931026
 10
14.84351800638248
 20
-0.4831095463624156
 10
14.84289509919768
 20
-0.4832011079509306
 10
14.84198813480127
 20
-0.4831095463624156
 10
14.84159449206643
 20
-0.4829905883931026
 10
14.8412278852337
 20
-0.4828348615968986
 10
14.84057758166809
 20
-0.4824134620025416
 10
14.83996404692934
 20
-0.4818731044388696
 10
14.83783866454414
 20
-0.4829357956314706
 10
14.83842516338076
 20
-0.4834851651625156
 10
14.8390022897713
 20
-0.4839433335837476
 10
14.83956103174843
 20
-0.4843095799377846
 10
14.84013779766028
 20
-0.4846026491167526
 10
14.84071492405084
 20
-0.4848135291532726
 10
14.84131944682221
 20
-0.4849598835034046
 10
14.84195172645309
 20
-0.4850424331245376
 10
14.84262942639952
 20
-0.4850698295053536
 10
14.84337129155366
 20
-0.4850330606784736
 10
14.84415893750204
 20
-0.4849324871225906
 10
14.84496496786385
 20
-0.4847309795321326
 10
14.84572521743143
 20
-0.4844011415262906
 10
14.84607343985072
 20
-0.4841812495223916
 10
14.84639390541049
 20
-0.4839249491703106
 10
14.84667796262208
 20
-0.4836225075452786
 10
14.84693462345286
 20
-0.4832652731586256
 10
14.84713613104332
 20
-0.4828716304237766
 10
14.84729185783951
 20
-0.4824134620025416
 10
14.84738341942803
 20
-0.4819098732657496
 10
14.84741982777621
 20
-0.4813417588425696
 10
14.84738341942803
 20
-0.4809113472808436
 10
14.84728248539345
 20
-0.4805267165133666
 10
14.84712675859724
 20
-0.4801968785075226
 10
14.84692525100679
 20
-0.4799038093285676
 10
14.8466689506547
 20
-0.4796471484977846
 10
14.84638489344312
 20
-0.4794276169725836
 10
14.84570719349669
 20
-0.4790793945532966
 10
14.84494694392911
 20
-0.4788411181359586
 10
14.84414091356728
 20
-0.4786670069263126
 10
14.84262942639952
 20
-0.4784107065742316
 10
14.84193334203965
 20
-0.4782275833972196
 97
        0
 92
        3
 72
     0
 73
     1
 93
        8
 10
14.8538042659418
 20
-0.4765513574658766
 10
14.85646063344461
 20
-0.4765513574658766
 10
14.85646063344461
 20
-0.4744263355593646
 10
14.84848251896882
 20
-0.4744263355593646
 10
14.84848251896882
 20
-0.4765513574658766
 10
14.85113888647162
 20
-0.4765513574658766
 10
14.85113888647162
 20
-0.4847951447398296
 10
14.8538042659418
 20
-0.4847951447398296
 97
        0
 92
        3
 72
     0
 73
     1
 93
       12
 10
14.85832935499904
 20
-0.4847951447398296
 10
14.86630746947484
 20
-0.4847951447398296
 10
14.86630746947484
 20
-0.4829357956314706
 10
14.8607200497037
 20
-0.4829357956314706
 10
14.8607200497037
 20
-0.4805451009268076
 10
14.86551045108039
 20
-0.4805451009268076
 10
14.86551045108039
 20
-0.4784107065742316
 10
14.8607200497037
 20
-0.4784107065742316
 10
14.8607200497037
 20
-0.4765513574658766
 10
14.86577612387855
 20
-0.4765513574658766
 10
14.86577612387855
 20
-0.4744263355593646
 10
14.85832935499904
 20
-0.4744263355593646
 97
        0
 92
        3
 72
     0
 73
     1
 93
        4
 10
14.8681668185832
 20
-0.4847951447398296
 10
14.87083219805338
 20
-0.4847951447398296
 10
14.87083219805338
 20
-0.4744263355593646
 10
14.8681668185832
 20
-0.4744263355593646
 97
        0
 92
        3
 72
     0
 73
     1
 93
       10
 10
14.87562295990877
 20
-0.4847951447398296
 10
14.87562295990877
 20
-0.4784107065742316
 10
14.87934165812548
 20
-0.4847951447398296
 10
14.88200703759567
 20
-0.4847951447398296
 10
14.88200703759567
 20
-0.4744263355593646
 10
14.87960733092364
 20
-0.4744263355593646
 10
14.87960733092364
 20
-0.4810760860444226
 10
14.87588863270692
 20
-0.4744263355593646
 10
14.87322289275805
 20
-0.4744263355593646
 10
14.87322289275805
 20
-0.4847951447398296
 97
        0
 92
        3
 72
     0
 73
     1
 93
       10
 10
14.8929165648185
 20
-0.4765513574658766
 10
14.8929165648185
 20
-0.4744263355593646
 10
14.88439773230033
 20
-0.4744263355593646
 10
14.88439773230033
 20
-0.4765513574658766
 10
14.88971983975201
 20
-0.4765513574658766
 10
14.88413241998087
 20
-0.4829357956314706
 10
14.88413241998087
 20
-0.4847951447398296
 10
14.8929165648185
 20
-0.4847951447398296
 10
14.8929165648185
 20
-0.4829357956314706
 10
14.88732914504735
 20
-0.4829357956314706
 97
        0
 92
        3
 72
     0
 73
     1
 93
       12
 10
14.89504158672501
 20
-0.4847951447398296
 10
14.90302871316818
 20
-0.4847951447398296
 10
14.90302871316818
 20
-0.4829357956314706
 10
14.8977069661952
 20
-0.4829357956314706
 10
14.8977069661952
 20
-0.4805451009268076
 10
14.90222268280636
 20
-0.4805451009268076
 10
14.90222268280636
 20
-0.4784107065742316
 10
14.8977069661952
 20
-0.4784107065742316
 10
14.8977069661952
 20
-0.4765513574658766
 10
14.90275402840266
 20
-0.4765513574658766
 10
14.90275402840266
 20
-0.4744263355593646
 10
14.89504158672501
 20
-0.4744263355593646
 97
        0
 92
        3
 72
     0
 73
     1
 93
       42
 10
14.90754479025805
 20
-0.4744263355593646
 10
14.90488842275524
 20
-0.4744263355593646
 10
14.90488842275524
 20
-0.4813417588425696
 10
14.90491581913605
 20
-0.4818183116772396
 10
14.90499836875718
 20
-0.4822671076524076
 10
14.90512633869388
 20
-0.4826701228333226
 10
14.90529143793614
 20
-0.4830453811547266
 10
14.90575861832475
 20
-0.4836866727529746
 10
14.90635376865006
 20
-0.4841996339358316
 10
14.90704084104256
 20
-0.4845842647033026
 10
14.90780109061013
 20
-0.4848593099475256
 10
14.90860712097195
 20
-0.4850150367437216
 10
14.90941315133378
 20
-0.4850698295053536
 10
14.91012762010708
 20
-0.4850150367437216
 10
14.91086047329385
 20
-0.4848593099475256
 10
14.91157494206717
 20
-0.4845842647033026
 10
14.91223425760016
 20
-0.4841996339358316
 10
14.91281138399072
 20
-0.4836866727529746
 10
14.91326017996588
 20
-0.4830453811547266
 10
14.91343429117553
 20
-0.4826701228333226
 10
14.91356262159091
 20
-0.4822671076524076
 10
14.91363579876599
 20
-0.4818183116772396
 10
14.9136631951468
 20
-0.4813417588425696
 10
14.9136631951468
 20
-0.4744263355593646
 10
14.91127250044213
 20
-0.4744263355593646
 10
14.91127250044213
 20
-0.4810760860444226
 10
14.91124510406132
 20
-0.4814700892579566
 10
14.91117192688625
 20
-0.4818547200254326
 10
14.91103458450349
 20
-0.4822119544120836
 10
14.91084208888041
 20
-0.4825417924179276
 10
14.91058578852832
 20
-0.4828074652160796
 10
14.91026496248985
 20
-0.4830179847739126
 10
14.90987131975501
 20
-0.4831553271566696
 10
14.90941315133378
 20
-0.4832011079509306
 10
14.90894597094517
 20
-0.4831553271566696
 10
14.9085613401777
 20
-0.4830179847739126
 10
14.90824087461792
 20
-0.4828074652160796
 10
14.90798421378714
 20
-0.4825417924179276
 10
14.90778270619669
 20
-0.4822119544120836
 10
14.9076543757813
 20
-0.4818547200254326
 10
14.90757218663885
 20
-0.4814700892579566
 10
14.90754479025805
 20
-0.4810760860444226
 97
        0
 92
        3
 72
     0
 73
     1
 93
       75
 10
14.91587076667444
 20
-0.4808929628674016
 10
14.91609065867834
 20
-0.4819188852331206
 10
14.91626476988798
 20
-0.4823950775891026
 10
14.91646627747843
 20
-0.4828348615968986
 10
14.91671356586315
 20
-0.4832378767778066
 10
14.91699762307473
 20
-0.4836041231318376
 10
14.9176663110538
 20
-0.4842270303166446
 10
14.91805995378864
 20
-0.4844743187013536
 10
14.91849036535037
 20
-0.4846851987378796
 10
14.91895754573897
 20
-0.4848499375014546
 10
14.91946149495446
 20
-0.4849692559494746
 10
14.92058799087606
 20
-0.4850698295053536
 10
14.92153172409934
 20
-0.4850150367437216
 10
14.92234676642853
 20
-0.4848315530880116
 10
14.9227040008152
 20
-0.4846851987378796
 10
14.9230154544076
 20
-0.4845020755608586
 10
14.92329013917313
 20
-0.4842728111109026
 10
14.92351003117703
 20
-0.4839981263453776
 10
14.92351003117703
 20
-0.4847951447398296
 10
14.9256444255296
 20
-0.4847951447398296
 10
14.9256444255296
 20
-0.4792077249686846
 10
14.92111933647236
 20
-0.4792077249686846
 10
14.92111933647236
 20
-0.4810760860444226
 10
14.92324435837887
 20
-0.4810760860444226
 10
14.92318956561724
 20
-0.4815342544656546
 10
14.92302446637497
 20
-0.4819278972004936
 10
14.92278655043632
 20
-0.4822487232389646
 10
14.9224841088113
 20
-0.4825050235910526
 10
14.92214525883808
 20
-0.4826975192141286
 10
14.92178802445143
 20
-0.4828348615968986
 10
14.92111933647236
 20
-0.4829357956314706
 10
14.92046903290674
 20
-0.4828806423911486
 10
14.91991930289699
 20
-0.4826975192141286
 10
14.91945248298709
 20
-0.4824134620025416
 10
14.91908587615437
 20
-0.4820378432024466
 10
14.91881119138884
 20
-0.4815706628138356
 10
14.91860968379838
 20
-0.4810303052501656
 10
14.91849036535037
 20
-0.4804167705114196
 10
14.91845395700218
 20
-0.4797480825323636
 10
14.91850874976381
 20
-0.4789052833436546
 10
14.91864609214657
 20
-0.4781908145703456
 10
14.91887535659654
 20
-0.4775956642450396
 10
14.91918681018894
 20
-0.4771191114103606
 10
14.91957144095641
 20
-0.4767528650563346
 10
14.92002924889895
 20
-0.4764871922581826
 10
14.9205422100818
 20
-0.4763314654619806
 10
14.92111933647236
 20
-0.4762856846677206
 10
14.92186120162649
 20
-0.4763772462562266
 10
14.92220041207841
 20
-0.4764962042255606
 10
14.92251150519212
 20
-0.4766519310217556
 10
14.92306123520185
 20
-0.4770733306161096
 10
14.92351003117703
 20
-0.4776136881797826
 10
14.9256444255296
 20
-0.4768170302640286
 10
14.92521365348918
 20
-0.4761667266984056
 10
14.9247374611332
 20
-0.4756169966886606
 10
14.92421548798296
 20
-0.4751588282674296
 10
14.92364737355978
 20
-0.4747925819133996
 10
14.92302446637497
 20
-0.4745085247018146
 10
14.92234676642853
 20
-0.4743070171113536
 10
14.92162328568786
 20
-0.4741970711093996
 10
14.92085366367422
 20
-0.4741606627612166
 10
14.92022174452203
 20
-0.4741880591420326
 10
14.91964461813147
 20
-0.4742706087631726
 10
14.9191042605678
 20
-0.4743985786998596
 10
14.91860031135231
 20
-0.4745820623555646
 10
14.91814250340977
 20
-0.4748109663268426
 10
14.9177301157828
 20
-0.4750856510923606
 10
14.9173548574614
 20
-0.4753971046847726
 10
14.91702501945556
 20
-0.4757543390714236
 10
14.91673195027658
 20
-0.4761483422849636
 10
14.91648466189187
 20
-0.4765697418793136
 10
14.91627378185535
 20
-0.4770365617892316
 10
14.91609967064571
 20
-0.4775221265912766
 10
14.91587076667444
 20
-0.4785848177838776
 10
14.91579758949937
 20
-0.4797480825323636
 97
        0
 92
       18
 72
     0
 73
     1
 93
       19
 10
14.84262942639952
 20
-0.4611171016645096
 10
14.84346285314216
 20
-0.4611902788395706
 10
14.84417732191548
 20
-0.4614101708434716
 10
14.84477283271948
 20
-0.4617490208166896
 10
14.84525839752152
 20
-0.4622162012052976
 10
14.84562464387555
 20
-0.4627933275958456
 10
14.84588094422763
 20
-0.4634803999883556
 10
14.84603667102383
 20
-0.4642496615232926
 10
14.84608245181809
 20
-0.4651108451254426
 10
14.84603667102383
 20
-0.4659716682488866
 10
14.84588094422763
 20
-0.4667412902625366
 10
14.84562464387555
 20
-0.4674280021763446
 10
14.84525839752152
 20
-0.4680051285668926
 10
14.84477283271948
 20
-0.4684723089554986
 10
14.84417732191548
 20
-0.4688111589287186
 10
14.84346285314216
 20
-0.4690310509326116
 10
14.84262942639952
 20
-0.4691042281076806
 10
14.8402293592488
 20
-0.4691042281076806
 10
14.8402293592488
 20
-0.4611171016645096
 97
        0
 75
     0
 76
     1
 98
        0
  0
HATCH
  5
83
330
1F
100
AcDbEntity
  8
XR$1$TB_814_1
  6
AUSGEZOGEN
 62
    18
420
        0
440
 33554687
370
    35
100
AcDbHatch
 10
0.0
 20
0.0
 30
0.0
210
0.0
220
0.0
230
1.0
  2
SOLID
 70
     1
 71
     0
 91
       20
 92
        3
 72
     0
 73
     1
 93
        8
 10
14.97193782048764
 20
-0.4600544104719086
 10
14.96209098445741
 20
-0.4847951447398296
 10
14.96448167916207
 20
-0.4847951447398296
 10
14.9674127314304
 20
-0.4773480153816366
 10
14.97832225865323
 20
-0.4773480153816366
 10
14.98097862615604
 20
-0.4847951447398296
 10
14.98364400562623
 20
-0.4847951447398296
 10
14.97406284239415
 20
-0.4600544104719086
 97
        0
 92
        3
 72
     0
 73
     1
 93
      116
 10
14.98656604592719
 20
-0.4725576140049376
 10
14.98660245427538
 20
-0.4716048688142876
 10
14.98669401586388
 20
-0.4706431116562636
 10
14.98684974266008
 20
-0.4696723425308596
 10
14.98707900711004
 20
-0.4687195973402066
 10
14.98737207628901
 20
-0.4677946090090626
 10
14.98772931067567
 20
-0.4668876446126636
 10
14.98815972223739
 20
-0.4660268214892096
 10
14.98866367145289
 20
-0.4652114186813196
 10
14.98924043736474
 20
-0.4644605415598256
 10
14.98988172896299
 20
-0.4637734691673196
 10
14.9905961977363
 20
-0.4631595739498846
 10
14.99139321613076
 20
-0.4626466127670246
 10
14.99226341170028
 20
-0.4622255736513656
 10
14.99321579641224
 20
-0.4619141200589606
 10
14.99424171877796
 20
-0.4617216244358766
 10
14.99535019076482
 20
-0.4616484472608076
 10
14.99666918230949
 20
-0.4617306364032506
 10
14.99785083147142
 20
-0.4619599008532166
 10
14.9983911890351
 20
-0.4621336515841576
 10
14.99889477777189
 20
-0.4623535435880586
 10
14.99936195816049
 20
-0.4626102044188336
 10
14.99980174216829
 20
-0.4629122855651696
 10
15.00058938811668
 20
-0.4636541507192996
 10
15.00125807609573
 20
-0.4645701270830706
 10
15.00181681807285
 20
-0.4656785990699246
 10
15.00226561404801
 20
-0.4669701942337976
 10
15.00465630875267
 20
-0.4656418302430466
 10
15.00391444359855
 20
-0.4642312771098536
 10
15.00305362047509
 20
-0.4630038471536786
 10
15.00209186331706
 20
-0.4619505284071416
 10
15.00156051772076
 20
-0.4614927204646046
 10
15.00100177574364
 20
-0.4610897052836876
 10
15.00041563738573
 20
-0.4607230984509656
 10
14.99979273020091
 20
-0.4604116448585696
 10
14.99913305418922
 20
-0.4601369600930376
 10
14.99844598179672
 20
-0.4599170680891436
 10
14.99697126345583
 20
-0.4596239989101816
 10
14.99535019076482
 20
-0.4595234253543006
 10
14.99394864959899
 20
-0.4595966025293676
 10
14.99265705443512
 20
-0.4598071220871936
 10
14.99144800889238
 20
-0.4601553445064806
 10
14.9903489093516
 20
-0.4606225248950866
 10
14.98934137139932
 20
-0.4612086632530176
 10
14.98842539503554
 20
-0.4618957356455176
 10
14.98760098026028
 20
-0.4626743696265296
 10
14.98686812707352
 20
-0.4635445651960476
 10
14.98622683547527
 20
-0.4644969499080066
 10
14.98567746594423
 20
-0.4655138603063566
 10
14.98521028555562
 20
-0.4665855634663296
 10
14.98483466675552
 20
-0.4677214318339936
 10
14.98454159757657
 20
-0.4688846965824776
 10
14.9843400899861
 20
-0.4700937421252206
 10
14.98421175957072
 20
-0.4713211720813956
 10
14.98417535122253
 20
-0.4725576140049376
 10
14.98421175957072
 20
-0.4738949899630646
 10
14.9843400899861
 20
-0.4751865851269326
 10
14.98454159757657
 20
-0.4764320390178616
 10
14.98482565478814
 20
-0.4776320725932236
 10
14.98519190114218
 20
-0.4787679409608936
 10
14.98565006956342
 20
-0.4798396441208696
 10
14.98618105468101
 20
-0.4808471820731446
 10
14.98680396186583
 20
-0.4817721704042956
 10
14.98750004622571
 20
-0.4826149695930036
 10
14.98828805265278
 20
-0.4833662071931976
 10
14.98916726018967
 20
-0.4840165107588216
 10
14.99012000538032
 20
-0.4845752527359286
 10
14.99116395168079
 20
-0.4850056642976596
 10
14.99229982004846
 20
-0.4853355023035006
 10
14.9935088655912
 20
-0.4855279979265856
 10
14.99481884516852
 20
-0.4856011751016526
 10
14.9959179447093
 20
-0.4855370098939566
 10
14.99702641669615
 20
-0.4853445142708766
 10
14.9981071318235
 20
-0.4850240487110966
 10
14.99914242663529
 20
-0.4845662407685666
 10
15.00009481134725
 20
-0.4839707299645666
 10
15.0009559949494
 20
-0.4832378767778066
 10
15.00168884813615
 20
-0.4823676812082956
 10
15.00199092928249
 20
-0.4818731044388696
 10
15.00226561404801
 20
-0.4813417588425696
 10
15.00226561404801
 20
-0.4847951447398296
 10
15.00439063595453
 20
-0.4847951447398296
 10
15.00439063595453
 20
-0.4720262684086406
 10
14.99321579641224
 20
-0.4720262684086406
 10
14.99321579641224
 20
-0.4741606627612166
 10
15.00226561404801
 20
-0.4741606627612166
 10
15.00226561404801
 20
-0.4754886662732716
 10
15.00216504049213
 20
-0.4768260422314016
 10
15.00185358689973
 20
-0.4781908145703456
 10
15.00160629851501
 20
-0.4788685145167746
 10
15.00131322933606
 20
-0.4795281905284646
 10
15.0009559949494
 20
-0.4801694821267116
 10
15.00053459535504
 20
-0.4807740048980776
 10
15.00005840299906
 20
-0.4813417588425696
 10
14.99950867298933
 20
-0.4818547200254326
 10
14.99890415021795
 20
-0.4823128884466646
 10
14.99822645027152
 20
-0.4827065311815056
 10
14.99748422463869
 20
-0.4830273572199766
 10
14.99665980986343
 20
-0.4832652731586256
 10
14.99578060232654
 20
-0.4834209999548216
 10
14.99481884516852
 20
-0.4834667807490766
 10
14.99375615397591
 20
-0.4834026155413846
 10
14.99278538485051
 20
-0.4832104803969946
 10
14.9918784204541
 20
-0.4828990268045886
 10
14.99105436615754
 20
-0.4824776272102406
 10
14.99031214052472
 20
-0.4819556540600026
 10
14.98963444057827
 20
-0.4813511312886326
 10
14.98902991780692
 20
-0.4806640588961346
 10
14.98849857221062
 20
-0.4799128212959386
 10
14.98803139182201
 20
-0.4790977789667376
 10
14.98763774908716
 20
-0.4782365953645896
 10
14.98729853863524
 20
-0.4773299914468827
 10
14.98703322631579
 20
-0.4763956306696706
 10
14.98683171872534
 20
-0.4754428854790276
 10
14.98668500389651
 20
-0.4744811283209946
 10
14.98659344230799
 20
-0.4735193711629686
 97
        0
 92
        3
 72
     0
 73
     1
 93
       37
 10
15.00785303381915
 20
-0.4847951447398296
 10
15.01024372852382
 20
-0.4847951447398296
 10
15.01024372852382
 20
-0.4738949899630646
 10
15.01583150877365
 20
-0.4738949899630646
 10
15.02381863521682
 20
-0.4847951447398296
 10
15.02674067551779
 20
-0.4847951447398296
 10
15.01876256104199
 20
-0.4738949899630646
 10
15.02036560979826
 20
-0.4736934823726096
 10
15.02110747495239
 20
-0.4735193711629686
 10
15.0217941868662
 20
-0.4732994791590716
 10
15.02243547846445
 20
-0.4730247943935466
 10
15.02302161682238
 20
-0.4727043288337696
 10
15.02356233486475
 20
-0.4723377220010466
 10
15.02404753918809
 20
-0.4719256948527616
 10
15.02448732319589
 20
-0.4714675264315286
 10
15.02486294199599
 20
-0.4709639376947346
 10
15.02519278000184
 20
-0.4704142076849916
 10
15.02545809232129
 20
-0.4698096849136236
 10
15.02566897235781
 20
-0.4691683933153836
 10
15.02582469915401
 20
-0.4684816814015667
 10
15.02591626074252
 20
-0.4677488282148096
 10
15.02594365712333
 20
-0.4669701942337976
 10
15.02584308356745
 20
-0.4656785990699246
 10
15.02553162997505
 20
-0.4644327847003116
 10
15.02529335355772
 20
-0.4638376343750056
 10
15.02500929634612
 20
-0.4632605079844576
 10
15.02465206195946
 20
-0.4627201504207846
 10
15.02424904677856
 20
-0.4622162012052976
 10
15.02378186638995
 20
-0.4617490208166896
 10
15.02325989323971
 20
-0.4613369936684026
 10
15.02266438243572
 20
-0.4609613748683026
 10
15.02201407887009
 20
-0.4606499212759026
 10
15.02129961009678
 20
-0.4603936209238166
 10
15.02052097611577
 20
-0.4602101372681086
 10
15.01967853740576
 20
-0.4600911792987896
 10
15.01876256104199
 20
-0.4600544104719086
 10
15.00785303381915
 20
-0.4600544104719086
 97
        0
 92
        3
 72
     0
 73
     1
 93
       64
 10
15.02770243267582
 20
-0.4750308583307416
 10
15.02791295223364
 20
-0.4762305314274036
 10
15.02819700944524
 20
-0.4774031686219566
 10
15.02857262824533
 20
-0.4785296645435536
 10
15.02903043618787
 20
-0.4796107401495996
 10
15.02957115423024
 20
-0.4806272900692546
 10
15.03020307338242
 20
-0.4815706628138356
 10
15.03091754215574
 20
-0.4824408583833536
 10
15.03172357251756
 20
-0.4832288648104346
 10
15.03262116446789
 20
-0.4839155767242426
 10
15.03360130603936
 20
-0.4844927031147966
 10
15.03468202116672
 20
-0.4849598835034046
 10
15.03584528591519
 20
-0.4853081059226856
 10
15.03710047273087
 20
-0.4855279979265856
 10
15.03843712773161
 20
-0.4856011751016526
 10
15.03974710730892
 20
-0.4855279979265856
 10
15.04096552529772
 20
-0.4853081059226856
 10
15.04209202121933
 20
-0.4849598835034046
 10
15.04313632799849
 20
-0.4844927031147966
 10
15.04408871271045
 20
-0.4839155767242426
 10
15.04496828072603
 20
-0.4832288648104346
 10
15.04575592667442
 20
-0.4824408583833536
 10
15.0464520110343
 20
-0.4815706628138356
 10
15.04707491821909
 20
-0.4806272900692546
 10
15.04760626381541
 20
-0.4796107401495996
 10
15.04806407175794
 20
-0.4785296645435536
 10
15.04843067859067
 20
-0.4774031686219566
 10
15.04871437532356
 20
-0.4762305314274036
 10
15.04892525536008
 20
-0.4750308583307416
 10
15.0490442133294
 20
-0.4738034283745656
 10
15.04908098215629
 20
-0.4725576140049376
 10
15.0490442133294
 20
-0.4713211720813956
 10
15.04892525536008
 20
-0.4700937421252206
 10
15.04871437532356
 20
-0.4688846965824776
 10
15.04843067859067
 20
-0.4677214318339936
 10
15.04806407175794
 20
-0.4665855634663296
 10
15.04760626381541
 20
-0.4655138603063566
 10
15.04707491821909
 20
-0.4644969499080066
 10
15.0464520110343
 20
-0.4635445651960476
 10
15.04575592667442
 20
-0.4626743696265296
 10
15.04496828072603
 20
-0.4618957356455176
 10
15.04408871271045
 20
-0.4612086632530176
 10
15.04313632799849
 20
-0.4606225248950866
 10
15.04209202121933
 20
-0.4601553445064806
 10
15.04096552529772
 20
-0.4598071220871936
 10
15.03974710730892
 20
-0.4595966025293676
 10
15.03843712773161
 20
-0.4595234253543006
 10
15.03710047273087
 20
-0.4595966025293676
 10
15.03584528591519
 20
-0.4598071220871936
 10
15.03468202116672
 20
-0.4601553445064806
 10
15.03360130603936
 20
-0.4606225248950866
 10
15.03262116446789
 20
-0.4612086632530176
 10
15.03172357251756
 20
-0.4618957356455176
 10
15.03091754215574
 20
-0.4626743696265296
 10
15.03020307338242
 20
-0.4635445651960476
 10
15.02957115423024
 20
-0.4644969499080066
 10
15.02903043618787
 20
-0.4655138603063566
 10
15.02857262824533
 20
-0.4665855634663296
 10
15.02819700944524
 20
-0.4677214318339936
 10
15.02791295223364
 20
-0.4688846965824776
 10
15.02770243267582
 20
-0.4700937421252206
 10
15.02758347470649
 20
-0.4713211720813956
 10
15.02754670587961
 20
-0.4725576140049376
 10
15.02758347470649
 20
-0.4738034283745656
 97
        0
 92
        3
 72
     0
 73
     1
 93
       57
 10
15.06292120116875
 20
-0.4847951447398296
 10
15.06392873912103
 20
-0.4847583759129486
 10
15.06486309989825
 20
-0.4846578023570696
 10
15.06573329546777
 20
-0.4844836911474226
 10
15.06652130189485
 20
-0.4842454147300846
 10
15.06724478263553
 20
-0.4839523455511227
 10
15.06790409816854
 20
-0.4836041231318376
 10
15.06849059700515
 20
-0.4832104803969946
 10
15.06900355818802
 20
-0.4827706963892036
 10
15.06946136613055
 20
-0.4822851315871556
 10
15.06984599689803
 20
-0.4817721704042956
 10
15.07017583490387
 20
-0.4812228008732456
 10
15.07044150770203
 20
-0.4806456744826956
 10
15.07064301529248
 20
-0.4800501636786976
 10
15.0707897301213
 20
-0.4794276169725836
 10
15.07087191926374
 20
-0.4787953373417096
 10
15.07089931564456
 20
-0.4781450337760866
 10
15.07082613846949
 20
-0.4768902074390936
 10
15.07059723449822
 20
-0.4757269426906136
 10
15.07041411132121
 20
-0.4751772126808666
 10
15.07020323128468
 20
-0.4746642514980066
 10
15.06993755848653
 20
-0.4741790471746606
 10
15.0696354773402
 20
-0.4737208787534256
 10
15.06928725492092
 20
-0.4733088516051416
 10
15.06890262415344
 20
-0.4729238603589766
 10
15.06846284014565
 20
-0.4725759984183826
 10
15.06798664778967
 20
-0.4722735567933486
 10
15.06745530219336
 20
-0.4720078839952036
 10
15.06687817580281
 20
-0.4717973644373666
 10
15.0662556290967
 20
-0.4716232532277336
 10
15.06557756867156
 20
-0.4714949228123366
 10
15.06669505262579
 20
-0.4712386224602556
 10
15.06718061742784
 20
-0.4710554992832386
 10
15.067629413403
 20
-0.4708446192467126
 10
15.06841705935139
 20
-0.4703410305099276
 10
15.0690399665362
 20
-0.4696997389116746
 10
15.06951651937087
 20
-0.4689394893441056
 10
15.06969964254789
 20
-0.4685090777823786
 10
15.06984599689803
 20
-0.4680509093611506
 10
15.07003849252111
 20
-0.4670433714088666
 10
15.07010265772881
 20
-0.4659075030411966
 10
15.07005687693455
 20
-0.4652755838890166
 10
15.06987375375754
 20
-0.4644327847003116
 10
15.06971802696133
 20
-0.4639656043117026
 10
15.06949813495743
 20
-0.4634710275422806
 10
15.06922308971322
 20
-0.4629764507728666
 10
15.06887522777262
 20
-0.4624818740034427
 10
15.0684448162109
 20
-0.4620056816474646
 10
15.06793185502804
 20
-0.4615568856722966
 10
15.06732733225668
 20
-0.4611444980453196
 10
15.06662187545073
 20
-0.4607872636586616
 10
15.06580683312153
 20
-0.4604851825123226
 10
15.06488148431169
 20
-0.4602559180623576
 10
15.06383717753253
 20
-0.4601095637122306
 10
15.06265552837061
 20
-0.4600544104719086
 10
15.05201203442462
 20
-0.4600544104719086
 10
15.05201203442462
 20
-0.4847951447398296
 97
        0
 92
        3
 72
     0
 73
     1
 93
       56
 10
15.07888680256643
 20
-0.4847951447398296
 10
15.09006164210871
 20
-0.4847951447398296
 10
15.09232400639799
 20
-0.4847125951186956
 10
15.09335930120978
 20
-0.4845936371493696
 10
15.09433007033516
 20
-0.4844285379071046
 10
15.0952276622855
 20
-0.4842090063819016
 10
15.09606144950684
 20
-0.4839433335837476
 10
15.0968216990744
 20
-0.4836225075452786
 10
15.0975087714669
 20
-0.4832378767778066
 10
15.09812230620565
 20
-0.4827980927700156
 10
15.09865365180195
 20
-0.4822945040332196
 10
15.09911145974449
 20
-0.4817263896100376
 10
15.09948707854459
 20
-0.4810944704578546
 10
15.09978014772355
 20
-0.4803983860979806
 10
15.09999102776008
 20
-0.4796291245630366
 10
15.10012837014284
 20
-0.4787953373417096
 10
15.10016477849102
 20
-0.4778793609779316
 10
15.10013738211021
 20
-0.4772106729988716
 10
15.1000458205217
 20
-0.4765787538466866
 10
15.09989946617156
 20
-0.4760016274561386
 10
15.09969795858112
 20
-0.4754702818598346
 10
15.09945030971771
 20
-0.4749850775364826
 10
15.09915724053874
 20
-0.4745452935286936
 10
15.09881839056553
 20
-0.4741512903151526
 10
15.09844277176542
 20
-0.4737940559284906
 10
15.09802137217107
 20
-0.4734735903687196
 10
15.09757257619591
 20
-0.4731989056031886
 10
15.09708737187256
 20
-0.4729606291858566
 10
15.09657441068969
 20
-0.4727591215953976
 10
15.09548432311628
 20
-0.4724566799703716
 10
15.09431168592172
 20
-0.4722919412067896
 10
15.09431168592172
 20
-0.4720262684086406
 10
15.0954475542894
 20
-0.4716874184354236
 10
15.09645509224168
 20
-0.4712660188410756
 10
15.09731627584383
 20
-0.4707530576582126
 10
15.09803975658451
 20
-0.4701301504734016
 10
15.09860787100769
 20
-0.4693976577653376
 10
15.09883677497896
 20
-0.4689946425844296
 10
15.09902927060205
 20
-0.4685454861305696
 10
15.09928557095414
 20
-0.4675657050377926
 10
15.09936812057527
 20
-0.4664388486374996
 10
15.09933135174839
 20
-0.4656238063083016
 10
15.09921239377907
 20
-0.4648725687081056
 10
15.09901989815598
 20
-0.4641764843482266
 10
15.09875422535783
 20
-0.4635351927499796
 10
15.09842474783068
 20
-0.4629580663594256
 10
15.09802137217107
 20
-0.4624360932091936
 10
15.09756356422853
 20
-0.4619689128205916
 10
15.09704159107831
 20
-0.4615568856722966
 10
15.09646446468775
 20
-0.4611902788395706
 10
15.09583254553557
 20
-0.4608788252471676
 10
15.09515448511043
 20
-0.4606225248950866
 10
15.09443100436975
 20
-0.4604210173046326
 10
15.09285535199429
 20
-0.4601459720604126
 10
15.09112433330131
 20
-0.4600544104719086
 10
15.07888680256643
 20
-0.4600544104719086
 97
        0
 92
        3
 72
     0
 73
     1
 93
       58
 10
15.10442419475011
 20
-0.4762856846677206
 10
15.1044883599578
 20
-0.4774857182430936
 10
15.10467148313482
 20
-0.4785938297512516
 10
15.10497392475985
 20
-0.4796107401495996
 10
15.10537693994077
 20
-0.4805451009268076
 10
15.10587151671018
 20
-0.4813969120828876
 10
15.10644864310074
 20
-0.4821571616504586
 10
15.10709894666636
 20
-0.4828348615968986
 10
15.10781341543967
 20
-0.4834393843682596
 10
15.10859204942069
 20
-0.4839613575184996
 10
15.10941646419595
 20
-0.4844011415262906
 10
15.11026827535202
 20
-0.4847767603263926
 10
15.11115649485629
 20
-0.4850788414727196
 10
15.1120634592527
 20
-0.4853081059226856
 10
15.11297943561647
 20
-0.4854728446862646
 10
15.11389541198024
 20
-0.4855644062747706
 10
15.11480237637664
 20
-0.4856011751016526
 10
15.11570898029434
 20
-0.4855644062747706
 10
15.11662495665812
 20
-0.4854728446862646
 10
15.11754093302189
 20
-0.4853081059226856
 10
15.11843852497222
 20
-0.4850788414727196
 10
15.11932710495518
 20
-0.4847767603263926
 10
15.12018828855733
 20
-0.4844011415262906
 10
15.1210127033326
 20
-0.4839613575184996
 10
15.12178196486753
 20
-0.4834393843682596
 10
15.12250544560822
 20
-0.4828348615968986
 10
15.12315610965254
 20
-0.4821571616504586
 10
15.1237328755644
 20
-0.4813969120828876
 10
15.12422781281251
 20
-0.4805451009268076
 10
15.12463082799343
 20
-0.4796107401495996
 10
15.12493290913977
 20
-0.4785938297512516
 10
15.12511603231678
 20
-0.4774857182430936
 10
15.12518019752447
 20
-0.4762856846677206
 10
15.12518019752447
 20
-0.4600544104719086
 10
15.11906143215703
 20
-0.4600544104719086
 10
15.11906143215703
 20
-0.4757543390714236
 10
15.1190066393954
 20
-0.4767254686755146
 10
15.11884154015313
 20
-0.4776230606258546
 10
15.11855784342023
 20
-0.4784381029550516
 10
15.11812707137981
 20
-0.4791435597609977
 10
15.11755030546795
 20
-0.4797296981189176
 10
15.11720208304866
 20
-0.4799679745362536
 10
15.1168174522812
 20
-0.4801694821267116
 10
15.11637766827341
 20
-0.4803252089229136
 10
15.11590147591742
 20
-0.4804441668922376
 10
15.11480237637664
 20
-0.4805451009268076
 10
15.11370291635716
 20
-0.4804441668922376
 10
15.11322672400117
 20
-0.4803252089229136
 10
15.11278693999338
 20
-0.4801694821267116
 10
15.11240230922591
 20
-0.4799679745362536
 10
15.11205444728531
 20
-0.4797296981189176
 10
15.11147732089476
 20
-0.4791435597609977
 10
15.11104690933304
 20
-0.4784381029550516
 10
15.11076285212144
 20
-0.4776230606258546
 10
15.11059775287919
 20
-0.4767254686755146
 10
15.11054296011756
 20
-0.4757543390714236
 10
15.11054296011756
 20
-0.4600544104719086
 10
15.10442419475011
 20
-0.4600544104719086
 97
        0
 92
        3
 72
     0
 73
     1
 93
      105
 10
15.135558379151
 20
-0.4725576140049376
 10
15.13558577553182
 20
-0.4715500760526606
 10
15.13567733712032
 20
-0.4706157152754536
 10
15.13582405194915
 20
-0.4697455197059356
 10
15.1360255595396
 20
-0.4689578737575466
 10
15.13627284792432
 20
-0.4682340325381626
 10
15.13657492907066
 20
-0.4675837289725456
 10
15.13692315148994
 20
-0.4669975906146176
 10
15.13731679422479
 20
-0.4664756174643776
 10
15.13774756626521
 20
-0.4660174490431456
 10
15.13821474665381
 20
-0.4656328182756716
 10
15.1387183353906
 20
-0.4653029802698256
 10
15.13925869295428
 20
-0.4650373074716776
 10
15.13982680737746
 20
-0.4648357998812186
 10
15.14042195770277
 20
-0.4646894455310906
 10
15.14103585292019
 20
-0.4646068959099536
 10
15.14167714451844
 20
-0.4645794995291366
 10
15.1424738024342
 20
-0.4646526767042106
 10
15.14325243641521
 20
-0.4648635567407366
 10
15.14399430156933
 20
-0.4651930342678806
 10
15.14469975837528
 20
-0.4656418302430466
 10
15.14534104997353
 20
-0.4661915602527876
 10
15.14589979195065
 20
-0.4668234794049746
 10
15.14636661186055
 20
-0.4675289362109106
 10
15.14673321869328
 20
-0.4683075701919226
 10
15.15178028090076
 20
-0.4659075030411966
 10
15.15084592012354
 20
-0.4644879379406286
 10
15.14982900972519
 20
-0.4632237391575726
 10
15.14871152577097
 20
-0.4621336515841576
 10
15.14811637544567
 20
-0.4616574592281776
 10
15.14749346826086
 20
-0.4612176752203886
 10
15.14684316469523
 20
-0.4608330444529166
 10
15.1461651042701
 20
-0.4604941944796956
 10
15.14545063549678
 20
-0.4602011253007336
 10
15.14470877034266
 20
-0.4599628488833946
 10
15.14393950880771
 20
-0.4597707137390096
 10
15.14313347844588
 20
-0.4596330108775496
 10
15.14229067925719
 20
-0.4595508217351066
 10
15.1414114717203
 20
-0.4595234253543006
 10
15.1400009185871
 20
-0.4595966025293676
 10
15.13868156656372
 20
-0.4597981101198216
 10
15.1374361126728
 20
-0.4601369600930376
 10
15.13628185989169
 20
-0.4605857560682016
 10
15.13521015673172
 20
-0.4611538704913876
 10
15.13423001516025
 20
-0.4618221979917566
 10
15.13333242320991
 20
-0.4625918200053896
 10
15.13252639284808
 20
-0.4634436311614696
 10
15.13181192407477
 20
-0.4643870039060606
 10
15.13118901688996
 20
-0.4653945418583386
 10
15.13065767129366
 20
-0.4664756174643776
 10
15.13021824776457
 20
-0.4676021133859826
 10
15.12987903731266
 20
-0.4687927745152796
 10
15.12963174892794
 20
-0.4700111925040796
 10
15.12948539457781
 20
-0.4712753912871376
 10
15.12943024133748
 20
-0.4725576140049376
 10
15.12948539457781
 20
-0.4738492091688116
 10
15.12964112137401
 20
-0.4751040355058066
 10
15.12990679417216
 20
-0.4763314654619806
 10
15.13026402855882
 20
-0.4775131146239036
 10
15.13073120894742
 20
-0.4786489829915736
 10
15.13128995092455
 20
-0.4797296981189176
 10
15.13194025449017
 20
-0.4807372360711976
 10
15.13269113161167
 20
-0.4816715968484166
 10
15.13354294276774
 20
-0.4825324199718596
 10
15.13447730354496
 20
-0.4832930300181306
 10
15.13550322591068
 20
-0.4839707299645666
 10
15.13662070986491
 20
-0.4845294719416776
 10
15.13782074344027
 20
-0.4849872798842166
 10
15.13911233860414
 20
-0.4853171178900626
 10
15.14048612291045
 20
-0.4855279979265856
 10
15.1419424568379
 20
-0.4856011751016526
 10
15.14268468247072
 20
-0.4855737787208416
 10
15.14341717517879
 20
-0.4854912290997056
 10
15.14486449713886
 20
-0.4851613910938596
 10
15.14556058149874
 20
-0.4849234751552176
 10
15.14624765389124
 20
-0.4846300454975556
 10
15.14691634187029
 20
-0.4842911955243396
 10
15.14755763346855
 20
-0.4838975527894986
 10
15.14878506342473
 20
-0.4829905883931026
 10
15.14991155934633
 20
-0.4818914888523126
 10
15.15091008533124
 20
-0.4806366625153206
 10
15.15136789327377
 20
-0.4799402176767486
 10
15.15178028090076
 20
-0.4792077249686846
 10
15.14699889149143
 20
-0.4768170302640286
 10
15.14654072307021
 20
-0.4776504570066626
 10
15.14598198109309
 20
-0.4783649257799826
 10
15.14535006194091
 20
-0.4789604365839786
 10
15.1446629895484
 20
-0.4794456409073246
 10
15.14395789322115
 20
-0.4798122477400506
 10
15.14325243641521
 20
-0.4800685480921346
 10
15.14257473646877
 20
-0.4802242748883386
 10
15.1419424568379
 20
-0.4802794281286626
 10
15.14103585292019
 20
-0.4802242748883386
 10
15.14021143814493
 20
-0.4800869325055796
 10
15.1394695729908
 20
-0.4798580285343066
 10
15.13880989697911
 20
-0.4795555869092786
 10
15.13821474665381
 20
-0.4791799681091796
 10
15.13770178547095
 20
-0.4787495565474526
 10
15.13724361704972
 20
-0.4782549797780306
 10
15.13684961383618
 20
-0.4777146222143606
 10
15.13652013630903
 20
-0.4771374958238026
 10
15.13624509106481
 20
-0.4765239610850626
 10
15.13601618709354
 20
-0.4758826694868126
 10
15.13584207588389
 20
-0.4752229934751266
 10
15.13562254435869
 20
-0.4738856175170036
 97
        0
 92
        3
 72
     0
 73
     1
 93
       12
 10
15.15524267876539
 20
-0.4847951447398296
 10
15.16136144413283
 20
-0.4847951447398296
 10
15.16136144413283
 20
-0.4744263355593646
 10
15.17067693456676
 20
-0.4744263355593646
 10
15.17067693456676
 20
-0.4847951447398296
 10
15.1767953394555
 20
-0.4847951447398296
 10
15.1767953394555
 20
-0.4600544104719086
 10
15.17067693456676
 20
-0.4600544104719086
 10
15.17067693456676
 20
-0.4691042281076806
 10
15.16136144413283
 20
-0.4691042281076806
 10
15.16136144413283
 20
-0.4600544104719086
 10
15.15524267876539
 20
-0.4600544104719086
 97
        0
 92
        3
 72
     0
 73
     1
 93
        8
 10
15.19276094085319
 20
-0.4648451723272916
 10
15.19914537901877
 20
-0.4648451723272916
 10
15.19914537901877
 20
-0.4600544104719086
 10
15.17998305255462
 20
-0.4600544104719086
 10
15.17998305255462
 20
-0.4648451723272916
 10
15.18664217548574
 20
-0.4648451723272916
 10
15.18664217548574
 20
-0.4847951447398296
 10
15.19276094085319
 20
-0.4847951447398296
 97
        0
 92
        3
 72
     0
 73
     1
 93
        8
 10
15.19727665746434
 20
-0.4847951447398296
 10
15.20393578039547
 20
-0.4847951447398296
 10
15.20526414438621
 20
-0.4810760860444226
 10
15.21430458957592
 20
-0.4810760860444226
 10
15.21564196553405
 20
-0.4847951447398296
 10
15.22229207649779
 20
-0.4847951447398296
 10
15.21297658606387
 20
-0.4600544104719086
 10
15.20659214789828
 20
-0.4600544104719086
 97
        0
 92
        3
 72
     0
 73
     1
 93
        6
 10
15.2249484440006
 20
-0.4847951447398296
 10
15.24091368491958
 20
-0.4847951447398296
 10
15.24091368491958
 20
-0.4797480825323636
 10
15.2313328821662
 20
-0.4797480825323636
 10
15.2313328821662
 20
-0.4600544104719086
 10
15.2249484440006
 20
-0.4600544104719086
 97
        0
 92
       18
 72
     0
 73
     1
 93
        3
 10
14.97300015120155
 20
-0.4632511355383936
 10
14.97752524025878
 20
-0.4754886662732716
 10
14.96820974982485
 20
-0.4754886662732716
 97
        0
 92
       18
 72
     0
 73
     1
 93
       29
 10
15.01796554264754
 20
-0.4624544776226306
 10
15.01944026098842
 20
-0.4625276547976996
 10
15.02067670291197
 20
-0.4627475468015906
 10
15.02120804850827
 20
-0.4629122855651696
 10
15.02168460134294
 20
-0.4631137931556226
 10
15.02211501290467
 20
-0.4633430576055926
 10
15.02249063170477
 20
-0.4636177423711156
 10
15.02281109726455
 20
-0.4639198235174446
 10
15.02308578203006
 20
-0.4642590339693666
 10
15.02331504648003
 20
-0.4646252803233946
 10
15.02349816965705
 20
-0.4650282955043026
 10
15.0237360855957
 20
-0.4659352599007036
 10
15.02381863521682
 20
-0.4669701942337976
 10
15.02375447000914
 20
-0.4678677861841316
 10
15.02353457800524
 20
-0.4687289697862776
 10
15.02336082727429
 20
-0.4691409969345636
 10
15.02314093527039
 20
-0.4695440121154716
 10
15.02287526247224
 20
-0.4699196309155736
 10
15.02255479691246
 20
-0.4702678533348626
 10
15.02217917811237
 20
-0.4705883188946336
 10
15.02173939410457
 20
-0.4708813880735976
 10
15.02123544488908
 20
-0.4711376884256786
 10
15.02067670291197
 20
-0.4713485684622026
 10
15.02004478375978
 20
-0.4715226796718486
 10
15.01933968743254
 20
-0.4716506496085426
 10
15.01855168100546
 20
-0.4717331992296786
 10
15.01769986984938
 20
-0.4717605956104966
 10
15.01024372852382
 20
-0.4717605956104966
 10
15.01024372852382
 20
-0.4624544776226306
 97
        0
 92
       18
 72
     0
 73
     1
 93
       64
 10
15.02996479696508
 20
-0.4716048688142876
 10
15.03006573099966
 20
-0.4706431116562636
 10
15.03022145779586
 20
-0.4696723425308596
 10
15.03044134979976
 20
-0.4687195973402066
 10
15.03073441897872
 20
-0.4677946090090626
 10
15.03109165336538
 20
-0.4668876446126636
 10
15.03151269248104
 20
-0.4660268214892096
 10
15.03199825728308
 20
-0.4652114186813196
 10
15.0325569992602
 20
-0.4644605415598256
 10
15.03318927889108
 20
-0.4637734691673196
 10
15.03388536325095
 20
-0.4631595739498846
 10
15.03465462478589
 20
-0.4626466127670246
 10
15.03548805152853
 20
-0.4622255736513656
 10
15.0364040278923
 20
-0.4619141200589606
 10
15.03738380898507
 20
-0.4617216244358766
 10
15.03843712773161
 20
-0.4616484472608076
 10
15.03949981892421
 20
-0.4617216244358766
 10
15.04047996049568
 20
-0.4619141200589606
 10
15.04137755244601
 20
-0.4622255736513656
 10
15.04220196722128
 20
-0.4626466127670246
 10
15.0429438323754
 20
-0.4631595739498846
 10
15.04362189280053
 20
-0.4637734691673196
 10
15.0442264155719
 20
-0.4644605415598256
 10
15.04475740068951
 20
-0.4652114186813196
 10
15.04522458107811
 20
-0.4660268214892096
 10
15.04561858429165
 20
-0.4668876446126636
 10
15.04595743426487
 20
-0.4677946090090626
 10
15.04622310706303
 20
-0.4687195973402066
 10
15.04643362662085
 20
-0.4696723425308596
 10
15.04657132948231
 20
-0.4706431116562636
 10
15.04666289107081
 20
-0.4716048688142876
 10
15.04669028745163
 20
-0.4725576140049376
 10
15.04666289107081
 20
-0.4735193711629686
 10
15.04657132948231
 20
-0.4744811283209946
 10
15.04643362662085
 20
-0.4754428854790276
 10
15.04622310706303
 20
-0.4763956306696706
 10
15.04595743426487
 20
-0.4773299914468827
 10
15.04561858429165
 20
-0.4782365953645896
 10
15.04522458107811
 20
-0.4790977789667376
 10
15.04475740068951
 20
-0.4799128212959386
 10
15.0442264155719
 20
-0.4806640588961346
 10
15.04362189280053
 20
-0.4813511312886326
 10
15.0429438323754
 20
-0.4819556540600026
 10
15.04220196722128
 20
-0.4824776272102406
 10
15.04137755244601
 20
-0.4828990268045886
 10
15.04047996049568
 20
-0.4832104803969946
 10
15.03949981892421
 20
-0.4834026155413846
 10
15.03843712773161
 20
-0.4834667807490766
 10
15.03738380898507
 20
-0.4834026155413846
 10
15.0364040278923
 20
-0.4832104803969946
 10
15.03548805152853
 20
-0.4828990268045886
 10
15.03465462478589
 20
-0.4824776272102406
 10
15.03388536325095
 20
-0.4819556540600026
 10
15.03318927889108
 20
-0.4813511312886326
 10
15.0325569992602
 20
-0.4806640588961346
 10
15.03199825728308
 20
-0.4799128212959386
 10
15.03151269248104
 20
-0.4790977789667376
 10
15.03109165336538
 20
-0.4782365953645896
 10
15.03073441897872
 20
-0.4773299914468827
 10
15.03044134979976
 20
-0.4763956306696706
 10
15.03022145779586
 20
-0.4754428854790276
 10
15.03006573099966
 20
-0.4744811283209946
 10
15.02996479696508
 20
-0.4735193711629686
 10
15.02993740058427
 20
-0.4725576140049376
 97
        0
 92
       18
 72
     0
 73
     1
 93
       26
 10
15.06212454325299
 20
-0.4624544776226306
 10
15.06343416235162
 20
-0.4624908859708196
 10
15.06456101875191
 20
-0.4626285888322786
 10
15.06552277590995
 20
-0.4628665047709146
 10
15.0659441755043
 20
-0.4630406159805606
 10
15.06631042185832
 20
-0.4632511355383936
 10
15.06664025986417
 20
-0.4634894119557306
 10
15.06692431707575
 20
-0.4637734691673196
 10
15.0671622330144
 20
-0.4641033071731616
 10
15.06735472863748
 20
-0.4644695535271916
 10
15.06751045543369
 20
-0.4648909531215396
 10
15.06762040143564
 20
-0.4653487610640826
 10
15.06771196302415
 20
-0.4664388486374996
 10
15.06761102898956
 20
-0.4673915938281516
 10
15.06749207102025
 20
-0.4678220053898766
 10
15.0673179598106
 20
-0.4682250205707846
 10
15.06710744025277
 20
-0.4686096513382586
 10
15.06685077942199
 20
-0.4689578737575466
 10
15.06620984830244
 20
-0.4695714084962946
 10
15.06541282990798
 20
-0.4700569732983386
 10
15.06494564951939
 20
-0.4702494689214216
 10
15.06445107274996
 20
-0.4704051957176216
 10
15.06335197320918
 20
-0.4706247272428266
 10
15.06212454325299
 20
-0.4706982648965856
 10
15.05440272912928
 20
-0.4706982648965856
 10
15.05440272912928
 20
-0.4624544776226306
 97
        0
 92
       18
 72
     0
 73
     1
 93
       28
 10
15.06212454325299
 20
-0.4728232868030976
 10
15.06361764600733
 20
-0.4729238603589766
 10
15.06491825313857
 20
-0.4732079175705656
 10
15.06548600708305
 20
-0.4734187976070896
 10
15.06600834071199
 20
-0.4736660859917996
 10
15.06648453306797
 20
-0.4739591551707596
 10
15.06690593266232
 20
-0.4742886326979115
 10
15.06728155146241
 20
-0.4746552395306386
 10
15.06761102898956
 20
-0.4750582547115516
 10
15.06788607423378
 20
-0.4754980387193486
 10
15.06810560575899
 20
-0.4759652191079476
 10
15.06827971696863
 20
-0.4764688078447436
 10
15.06840804738402
 20
-0.4770001534410406
 10
15.06850862093989
 20
-0.4781450337760866
 10
15.06842643179746
 20
-0.4789510641379106
 10
15.06819752782619
 20
-0.4797480825323636
 10
15.06779415216658
 20
-0.4805173440673066
 10
15.06720801380865
 20
-0.4812044164598046
 10
15.06685077942199
 20
-0.4815158700522116
 10
15.06643875227372
 20
-0.4817999272638006
 10
15.06598058385248
 20
-0.4820472156485136
 10
15.06547699511569
 20
-0.4822671076524076
 10
15.06491825313857
 20
-0.4824318464159826
 10
15.06430435792114
 20
-0.4825601768313686
 10
15.06363566994207
 20
-0.4826423659738066
 10
15.06292120116875
 20
-0.4826701228333226
 10
15.05440272912928
 20
-0.4826701228333226
 10
15.05440272912928
 20
-0.4728232868030976
 97
        0
 92
       18
 72
     0
 73
     1
 93
       19
 10
15.09006164210871
 20
-0.4648451723272916
 10
15.09073033008777
 20
-0.4648725687081056
 10
15.09134422530521
 20
-0.4649551183292386
 10
15.09188458286888
 20
-0.4651108451254426
 10
15.09235176325749
 20
-0.4653397490967076
 10
15.09272738205759
 20
-0.4656602146564876
 10
15.09301107879049
 20
-0.4660816142508406
 10
15.09318519000013
 20
-0.4666039478797716
 10
15.09324935520783
 20
-0.4672358670319496
 10
15.09318519000013
 20
-0.4678861705975686
 10
15.09301107879049
 20
-0.4684449125746866
 10
15.09272738205759
 20
-0.4689027205172256
 10
15.09235176325749
 20
-0.4692693273499536
 10
15.09188458286888
 20
-0.4695533845615396
 10
15.09134422530521
 20
-0.4697455197059356
 10
15.09073033008777
 20
-0.4698644776752536
 10
15.09006164210871
 20
-0.4699012465021336
 10
15.08473989513573
 20
-0.4699012465021336
 10
15.08473989513573
 20
-0.4648451723272916
 97
        0
 92
       18
 72
     0
 73
     1
 93
       19
 10
15.09112433330131
 20
-0.4744263355593646
 10
15.09185718648807
 20
-0.4744721163536216
 10
15.09247973319418
 20
-0.4746184707037596
 10
15.09298368240967
 20
-0.4748567471210916
 10
15.09338669759058
 20
-0.4751865851269326
 10
15.09367976676955
 20
-0.4756079847212916
 10
15.09389064680608
 20
-0.4761025614907086
 10
15.09400960477539
 20
-0.4766886998486406
 10
15.09404637360227
 20
-0.4773480153816366
 10
15.09400960477539
 20
-0.4779345142182516
 10
15.09387226239263
 20
-0.4784838837493046
 10
15.09362497400792
 20
-0.4789784605187236
 10
15.09324935520783
 20
-0.4794092325591426
 10
15.09272738205759
 20
-0.4797754789131736
 10
15.09203093721903
 20
-0.4800411517113266
 10
15.09114271771475
 20
-0.4802152629209646
 10
15.09006164210871
 20
-0.4802794281286626
 10
15.08500556793387
 20
-0.4802794281286626
 10
15.08500556793387
 20
-0.4744263355593646
 97
        0
 92
       18
 72
     0
 73
     1
 93
        3
 10
15.20978887296475
 20
-0.4661731758393466
 10
15.21271091326572
 20
-0.4765513574658766
 10
15.20659214789828
 20
-0.4765513574658766
 97
        0
 75
     0
 76
     1
 98
        0
  0
HATCH
  5
85
102
{ACAD_REACTORS
330
84
102
}
330
1F
100
AcDbEntity
  8
XR$1$TB_814_1
  6
AUSGEZOGEN
 62
     3
440
 33554687
370
    35
100
AcDbHatch
 10
0.0
 20
0.0
 30
0.0
210
0.0
220
0.0
230
1.0
  2
SOLID
 70
     1
 71
     0
 91
        1
 92
        3
 72
     0
 73
     1
 93
       22
 10
14.9330911944091
 20
-0.4850698295053536
 10
14.94825977741232
 20
-0.4850698295053536
 10
14.94697755469451
 20
-0.4842270303166446
 10
14.9457317403249
 20
-0.4833110539528756
 10
14.94453170674953
 20
-0.4823035160005966
 10
14.94339583838186
 20
-0.4812044164598046
 10
14.94234251963534
 20
-0.4800137553305106
 10
14.94137175050993
 20
-0.4787037757531976
 10
14.94050155494042
 20
-0.4772842106526336
 10
14.93974130537284
 20
-0.4757543390714236
 10
14.93927412498424
 20
-0.4747558130865216
 10
14.93887110980333
 20
-0.4737482751342436
 10
14.93852288738403
 20
-0.4727407371819576
 10
14.93822981820508
 20
-0.4717331992296786
 10
14.93782680302417
 20
-0.4697087508790536
 10
14.93764367984714
 20
-0.4677030474205566
 10
14.93768008819534
 20
-0.4657243798641816
 10
14.9379093526453
 20
-0.4637824811346856
 10
14.93833075223965
 20
-0.4618863631994496
 10
14.93861444897255
 20
-0.4609613748683026
 10
14.93894428697839
 20
-0.4600544104719086
 10
14.9330911944091
 20
-0.4600544104719086
 97
        0
 75
     0
 76
     1
 98
        0
  0
HATCH
  5
86
102
{ACAD_REACTORS
330
84
102
}
330
1F
100
AcDbEntity
  8
XR$1$TB_814_1
  6
AUSGEZOGEN
 62
     3
440
 33554687
370
    35
100
AcDbHatch
 10
0.0
 20
0.0
 30
0.0
210
0.0
220
0.0
230
1.0
  2
SOLID
 70
     1
 71
     0
 91
        1
 92
        3
 72
     0
 73
     1
 93
       24
 10
14.94565856314983
 20
-0.4813511312886326
 10
14.94686760869256
 20
-0.4824686152428626
 10
14.94819561220462
 20
-0.4834761531951446
 10
14.94963356171863
 20
-0.4843369763185906
 10
14.95118181771328
 20
-0.4850698295053536
 10
14.95809724099649
 20
-0.4850698295053536
 10
14.95809724099649
 20
-0.4600544104719086
 10
14.94453170674953
 20
-0.4600544104719086
 10
14.94397296477242
 20
-0.4606957020701556
 10
14.94349677241644
 20
-0.4614191828108446
 10
14.94267235764118
 20
-0.4629858232189306
 10
14.94229673884108
 20
-0.4637824811346856
 10
14.94196690083523
 20
-0.4645978839425846
 10
14.94169221606972
 20
-0.4654129262717796
 10
14.94146331209844
 20
-0.4662373410470386
 10
14.94114248605996
 20
-0.4678861705975686
 10
14.9410051436772
 20
-0.4695350001481006
 10
14.94104191250409
 20
-0.4711838296986366
 10
14.94124342009454
 20
-0.4727958904222776
 10
14.94160966644858
 20
-0.4743805547651156
 10
14.9421320000775
 20
-0.4759190778349986
 10
14.94280970002394
 20
-0.4773937961758896
 10
14.94362510283183
 20
-0.4788047097877766
 10
14.94457748754378
 20
-0.4801237013324586
 97
        0
 75
     0
 76
     1
 98
        0
  0
HATCH
  5
87
330
1F
100
AcDbEntity
  8
XR$1$TB_814_1
  6
AUSGEZOGEN
 62
     9
440
 33554687
370
    -3
100
AcDbHatch
 10
0.0
 20
0.0
 30
0.0
210
0.0
220
0.0
230
1.0
  2
SOLID
 70
     1
 71
     0
 91
        1
 92
        3
 72
     0
 73
     1
 93
        4
 10
15.07218476483597
 20
0.3031571662125004
 10
15.07218476483597
 20
-0.2553428466909396
 10
15.0921847648359
 20
-0.2553428466909396
 10
15.0921847648359
 20
0.3031571662125004
 97
        0
 75
     0
 76
     1
 98
        0
  0
HATCH
  5
88
330
1F
100
AcDbEntity
  8
XR$1$TB_814_1
  6
AUSGEZOGEN
 62
    18
420
        0
440
 33554687
370
    -3
100
AcDbHatch
 10
0.0
 20
0.0
 30
0.0
210
0.0
220
0.0
230
1.0
  2
SOLID
 70
     1
 71
     0
 91
        2
 92
        3
 72
     0
 73
     1
 93
       18
 10
15.10163638925612
 20
0.2288250594313244
 10
15.10092928247493
 20
0.2295321662125104
 10
15.10163638925612
 20
0.2302392729936974
 10
15.10092928247493
 20
0.2309463797748844
 10
15.10092928247493
 20
0.2404071662125104
 10
15.12892928247493
 20
0.2404071662125104
 10
15.12892928247493
 20
0.2949071662125104
 10
15.10092928247493
 20
0.2949071662125104
 10
15.10092928247493
 20
0.3043679526501374
 10
15.10163638925612
 20
0.3050750594313244
 10
15.10092928247493
 20
0.3057821662125104
 10
15.10163638925612
 20
0.3064892729936974
 10
15.10092928247493
 20
0.3071963797748844
 10
15.10092928247493
 20
0.3166571662125104
 10
15.09892928247493
 20
0.3166571662125104
 10
15.09892928247493
 20
0.2186571662125104
 10
15.10092928247493
 20
0.2186571662125104
 10
15.10092928247493
 20
0.2281179526501374
 97
        0
 92
       18
 72
     0
 73
     1
 93
        4
 10
15.12642928247493
 20
0.2929071662125104
 10
15.12642928247493
 20
0.2424071662125104
 10
15.10092928247493
 20
0.2424071662125104
 10
15.10092928247493
 20
0.2929071662125104
 97
        0
 75
     0
 76
     1
 98
        0
  0
HATCH
  5
89
330
1F
100
AcDbEntity
  8
XR$1$TB_814_1
  6
AUSGEZOGEN
 62
    18
420
        0
440
 33554687
370
    -3
100
AcDbHatch
 10
0.0
 20
0.0
 30
0.0
210
0.0
220
0.0
230
1.0
  2
SOLID
 70
     1
 71
     0
 91
        1
 92
        3
 72
     0
 73
     1
 93
       16
 10
15.57203363592724
 20
0.4219600314818104
 10
15.57203363592724
 20
0.2900122535392414
 10
15.57503363592724
 20
0.2900122535392414
 10
15.57503363592724
 20
0.4248988974113204
 10
15.48856425391251
 20
0.4266792997873404
 10
15.45829100366107
 20
0.3964060495358904
 10
15.3107762850353
 20
0.3964060495358904
 10
15.27612899827434
 20
0.4310533362968504
 10
15.04377768081725
 20
0.4353123578394974
 10
15.04377768081725
 20
0.2904090303695384
 10
15.04677768081725
 20
0.2904090303695384
 10
15.04677768081725
 20
0.4322499520626274
 10
15.27486088297874
 20
0.4280788109053414
 10
15.30953364434819
 20
0.3934060495358904
 10
15.45953364434819
 20
0.3934060495358904
 10
15.48978120181997
 20
0.4236536070076805
 97
        0
 75
     0
 76
     1
 98
        0
  0
HATCH
  5
8A
330
1F
100
AcDbEntity
  8
XR$1$TB_814_1
  6
AUSGEZOGEN
 62
    18
420
        0
440
 33554687
370
    -3
100
AcDbHatch
 10
0.0
 20
0.0
 30
0.0
210
0.0
220
0.0
230
1.0
  2
SOLID
 70
     1
 71
     0
 91
        1
 92
        3
 72
     0
 73
     1
 93
       12
 10
15.03777768081725
 20
0.4416025292407385
 10
15.03777768081725
 20
0.2704090303695384
 10
15.05899088425284
 20
0.2916222338051384
 10
15.05686956390929
 20
0.2937435541486874
 10
15.04077768081725
 20
0.2776516710566584
 10
15.04077768081725
 20
0.4385057798051384
 10
15.57803363592724
 20
0.4282932886738504
 10
15.57803363592724
 20
0.2772548942263614
 10
15.5619417528352
 20
0.2933467773183914
 10
15.55982043249164
 20
0.2912254569748314
 10
15.58103363592724
 20
0.2700122535392414
 10
15.58103363592724
 20
0.4311995619087914
 97
        0
 75
     0
 76
     1
 98
        0
  0
MTEXT
  5
8B
330
1F
100
AcDbEntity
  8
XR$1$TB_814_1
  6
AUSGEZOGEN
 62
     7
440
 33554687
370
    -3
100
AcDbMText
 10
14.837811
 20
0.797913
 30
0.0
 40
0.025
 41
0.324642
 46
0.0
 71
     7
 72
     5
  1
\W1.00;DACHABSCHLUSS
  7
ARIAL
 73
     1
 44
1.0
  0
MTEXT
  5
8C
330
1F
100
AcDbEntity
  8
XR$1$TB_814_1
  6
AUSGEZOGEN
 62
     7
440
 33554687
370
    -3
100
AcDbMText
 10
14.837811
 20
0.762902
 30
0.0
 40
0.0175
 41
0.434003
 46
0.0
 71
     7
 72
     5
  1
\W1.00;COVERING OF THE ROOF PARAPET
  7
ARIAL
 73
     1
 44
1.0
  0
MTEXT
  5
8D
330
1F
100
AcDbEntity
  8
XR$1$TB_814_1
  6
AUSGEZOGEN
 62
     7
440
 33554687
370
    -3
100
AcDbMText
 10
14.837811
 20
0.736652
 30
0.0
 40
0.0175
 41
0.359057
 46
0.0
 71
     7
 72
     5
  1
\W1.00;RECOUVREMENT D' ATTIQUE
  7
ARIAL
 73
     1
 44
1.0
  0
LINE
  5
8E
330
1F
100
AcDbEntity
  8
XR$1$TB_814_1
  6
AUSGEZOGEN
 62
    32
440
 33554687
370
    50
100
AcDbLine
 10
15.252034
 20
0.353406
 30
0.0
 11
15.517034
 21
0.353406
 31
0.0
  0
LINE
  5
8F
330
1F
100
AcDbEntity
  8
XR$1$TB_814_1
  6
AUSGEZOGEN
 62
    32
440
 33554687
370
    50
100
AcDbLine
 10
15.517034
 20
0.353406
 30
0.0
 11
15.552034
 21
0.033485
 31
0.0
  0
LINE
  5
90
330
1F
100
AcDbEntity
  8
XR$1$TB_814_1
  6
AUSGEZOGEN
 62
     7
440
 33554687
370
    -3
100
AcDbLine
 10
15.458291
 20
0.396406
 30
0.0
 11
15.310776
 21
0.396406
 31
0.0
  0
LINE
  5
91
330
1F
100
AcDbEntity
  8
XR$1$TB_814_1
  6
AUSGEZOGEN
 62
     7
440
 33554687
370
    -3
100
AcDbLine
 10
15.575034
 20
0.290012
 30
0.0
 11
15.572034
 21
0.290012
 31
0.0
  0
LINE
  5
92
330
1F
100
AcDbEntity
  8
XR$1$TB_814_1
  6
AUSGEZOGEN
 62
     7
440
 33554687
370
    -3
100
AcDbLine
 10
15.581034
 20
0.270012
 30
0.0
 11
15.55982
 21
0.291225
 31
0.0
  0
LINE
  5
93
330
1F
100
AcDbEntity
  8
XR$1$TB_814_1
  6
AUSGEZOGEN
 62
     7
440
 33554687
370
    -3
100
AcDbLine
 10
15.578034
 20
0.277255
 30
0.0
 11
15.561942
 21
0.293347
 31
0.0
  0
LINE
  5
94
330
1F
100
AcDbEntity
  8
XR$1$TB_814_1
  6
AUSGEZOGEN
 62
     7
440
 33554687
370
    -3
100
AcDbLine
 10
15.561942
 20
0.293347
 30
0.0
 11
15.55982
 21
0.291225
 31
0.0
  0
LINE
  5
95
330
1F
100
AcDbEntity
  8
XR$1$TB_814_1
  6
AUSGEZOGEN
 62
     7
440
 33554687
370
    -3
100
AcDbLine
 10
15.581034
 20
0.270012
 30
0.0
 11
15.581034
 21
0.4312
 31
0.0
  0
LINE
  5
96
330
1F
100
AcDbEntity
  8
XR$1$TB_814_1
  6
AUSGEZOGEN
 62
     7
440
 33554687
370
    -3
100
AcDbLine
 10
15.578034
 20
0.277255
 30
0.0
 11
15.578034
 21
0.428293
 31
0.0
  0
LINE
  5
97
330
1F
100
AcDbEntity
  8
XR$1$TB_814_1
  6
AUSGEZOGEN
 62
     7
440
 33554687
370
    -3
100
AcDbLine
 10
15.575034
 20
0.290012
 30
0.0
 11
15.575034
 21
0.424899
 31
0.0
  0
LINE
  5
98
330
1F
100
AcDbEntity
  8
XR$1$TB_814_1
  6
AUSGEZOGEN
 62
     7
440
 33554687
370
    -3
100
AcDbLine
 10
15.459534
 20
0.393406
 30
0.0
 11
15.489781
 21
0.423654
 31
0.0
  0
LINE
  5
99
330
1F
100
AcDbEntity
  8
XR$1$TB_814_1
  6
AUSGEZOGEN
 62
     7
440
 33554687
370
    -3
100
AcDbLine
 10
15.458291
 20
0.396406
 30
0.0
 11
15.488564
 21
0.426679
 31
0.0
  0
LINE
  5
9A
330
1F
100
AcDbEntity
  8
XR$1$TB_814_1
  6
AUSGEZOGEN
 62
     7
440
 33554687
370
    -3
100
AcDbLine
 10
15.310776
 20
0.396406
 30
0.0
 11
15.276129
 21
0.431053
 31
0.0
  0
LINE
  5
9B
330
1F
100
AcDbEntity
  8
XR$1$TB_814_1
  6
AUSGEZOGEN
 62
     7
440
 33554687
370
    -3
100
AcDbLine
 10
15.575034
 20
0.424899
 30
0.0
 11
15.488564
 21
0.426679
 31
0.0
  0
LINE
  5
9C
330
1F
100
AcDbEntity
  8
XR$1$TB_814_1
  6
AUSGEZOGEN
 62
     7
440
 33554687
370
    -3
100
AcDbLine
 10
15.309534
 20
0.393406
 30
0.0
 11
15.274861
 21
0.428079
 31
0.0
  0
LINE
  5
9D
330
1F
100
AcDbEntity
  8
XR$1$TB_814_1
  6
AUSGEZOGEN
 62
     7
440
 33554687
370
    -3
100
AcDbLine
 10
15.572034
 20
0.290012
 30
0.0
 11
15.572034
 21
0.42196
 31
0.0
  0
LINE
  5
9E
330
1F
100
AcDbEntity
  8
XR$1$TB_814_1
  6
AUSGEZOGEN
 62
     7
440
 33554687
370
    -3
100
AcDbLine
 10
15.572034
 20
0.42196
 30
0.0
 11
15.489781
 21
0.423654
 31
0.0
  0
LINE
  5
9F
330
1F
100
AcDbEntity
  8
XR$1$TB_814_1
  6
STRICHPUNKT2_S5
 62
     6
440
 33554687
370
    35
100
AcDbLine
 10
15.384534
 20
0.411406
 30
0.0
 11
15.384534
 21
0.253406
 31
0.0
  0
LINE
  5
A0
330
1F
100
AcDbEntity
  8
XR$1$TB_814_1
  6
AUSGEZOGEN
 62
     3
440
 33554687
370
    25
100
AcDbLine
 10
15.517034
 20
0.353406
 30
0.0
 11
15.517034
 21
0.393406
 31
0.0
  0
LINE
  5
A1
330
1F
100
AcDbEntity
  8
XR$1$TB_814_1
  6
AUSGEZOGEN
 62
     3
440
 33554687
370
    25
100
AcDbLine
 10
15.252034
 20
0.353406
 30
0.0
 11
15.252034
 21
0.393406
 31
0.0
  0
LINE
  5
A2
330
1F
100
AcDbEntity
  8
XR$1$TB_814_1
  6
AUSGEZOGEN
 62
     3
440
 33554687
370
    25
100
AcDbLine
 10
15.252034
 20
0.393406
 30
0.0
 11
15.517034
 21
0.393406
 31
0.0
  0
LINE
  5
A3
330
1F
100
AcDbEntity
  8
XR$1$TB_814_1
  6
AUSGEZOGEN
 62
     7
440
 33554687
370
    -3
100
AcDbLine
 10
15.517034
 20
0.393406
 30
0.0
 11
15.252034
 21
0.353406
 31
0.0
  0
LINE
  5
A4
330
1F
100
AcDbEntity
  8
XR$1$TB_814_1
  6
AUSGEZOGEN
 62
     7
440
 33554687
370
    -3
100
AcDbLine
 10
15.517034
 20
0.353406
 30
0.0
 11
15.252034
 21
0.393406
 31
0.0
  0
LINE
  5
A5
330
1F
100
AcDbEntity
  8
XR$1$TB_814_1
  6
AUSGEZOGEN
 62
    52
440
 33554687
370
    -3
100
AcDbLine
 10
15.517034
 20
0.353406
 30
0.0
 11
15.517034
 21
0.353406
 31
0.0
  0
LINE
  5
A6
330
1F
100
AcDbEntity
  8
XR$1$TB_814_1
  6
AUSGEZOGEN
 62
    52
440
 33554687
370
    -3
100
AcDbLine
 10
15.252034
 20
0.353406
 30
0.0
 11
15.252034
 21
0.353406
 31
0.0
  0
LINE
  5
A7
330
1F
100
AcDbEntity
  8
XR$1$TB_814_1
  6
AUSGEZOGEN
 62
    32
440
 33554687
370
    50
100
AcDbLine
 10
15.552034
 20
-0.120515
 30
0.0
 11
15.552034
 21
-0.255343
 31
0.0
  0
LINE
  5
A8
330
1F
100
AcDbEntity
  8
XR$1$TB_814_1
  6
AUSGEZOGEN
 62
    32
440
 33554687
370
    50
100
AcDbLine
 10
15.252034
 20
0.353406
 30
0.0
 11
15.252034
 21
-0.255343
 31
0.0
  0
LINE
  5
A9
330
1F
100
AcDbEntity
  8
XR$1$TB_814_1
  6
STRICHPUNKT2_S5
 62
     7
440
 33554687
370
    -3
100
AcDbLine
 10
15.079514
 20
-0.255343
 30
0.0
 11
15.572034
 21
-0.255343
 31
0.0
  0
LINE
  5
AA
330
1F
100
AcDbEntity
  8
XR$1$TB_814_1
  6
AUSGEZOGEN
 62
    32
440
 33554687
370
    50
100
AcDbLine
 10
15.666253
 20
-0.120515
 30
0.0
 11
15.552034
 21
-0.120515
 31
0.0
  0
LINE
  5
AB
330
1F
100
AcDbEntity
  8
XR$1$TB_814_1
  6
STRICHPUNKT2_S5
 62
     7
440
 33554687
370
    -3
100
AcDbLine
 10
15.666253
 20
0.049485
 30
0.0
 11
15.666253
 21
-0.140515
 31
0.0
  0
LINE
  5
AC
330
1F
100
AcDbEntity
  8
XR$1$TB_814_1
  6
AUSGEZOGEN
 62
    32
440
 33554687
370
    50
100
AcDbLine
 10
15.666253
 20
0.029485
 30
0.0
 11
15.552034
 21
0.033485
 31
0.0
  0
MTEXT
  5
AD
330
1F
100
AcDbEntity
  8
XR$1$TB_814_1
  6
AUSGEZOGEN
 62
     7
440
 33554687
370
    -3
100
AcDbMText
 10
14.837453
 20
-0.541056
 30
0.0
 40
0.009
 41
0.89646
 46
0.0
 71
     7
 72
     5
  1
\W0.85;THESE ARE NOT BINDING CONSTRUCTION PROPOSALS WHICH HAVE TO BE VERIFIED FOR EACH INDIVIDUAL PROJECT AS REGARDS APPLICABILITY AND CORRECTNESS.
  7
ARIAL
 73
     1
 44
1.0
  0
MTEXT
  5
AE
330
1F
100
AcDbEntity
  8
XR$1$TB_814_1
  6
AUSGEZOGEN
 62
     7
440
 33554687
370
    -3
100
AcDbMText
 10
14.837453
 20
-0.523056
 30
0.0
 40
0.009
 41
0.8975
 46
0.0
 71
     7
 72
     5
  1
\W0.91;DIES SIND UNVERBINDLICHE KONSTRUKTIONSVORSCHLÄGE, DIE FÜR JEDES PROJEKT AUF ANWENDBARKEIT UND RICHTIGKEIT GEPRÜFT WERDEN MÜSSEN.
  7
ARIAL
 73
     1
 44
1.0
  0
MTEXT
  5
AF
330
1F
100
AcDbEntity
  8
XR$1$TB_814_1
  6
AUSGEZOGEN
 62
     7
440
 33554687
370
    -3
100
AcDbMText
 10
14.837453
 20
-0.559056
 30
0.0
 40
0.009
 41
0.895804
 46
0.0
 71
     7
 72
     5
  1
\W0.80;IL S' AGIT DE PROPOSITIONS DE CONSTRUCTION SANS ENGAGEMENT DE NOTRE PART QUI DOIVENT ETRE VERIFIEES POUR CHAQUE PROJET A LEUR EXACTITUDE ET FAISABILITE.
  7
ARIAL
 73
     1
 44
1.0
  0
MTEXT
  5
B0
330
1F
100
AcDbEntity
  8
XR$1$TB_814_1
  6
AUSGEZOGEN
 62
     7
440
 33554687
370
    -3
100
AcDbMText
 10
15.252114
 20
-0.485127
 30
0.0
 40
0.009
 41
0.348436
 46
0.0
 71
     7
 72
     5
  1
\W0.92;Tel. 09435 / 391 3238   e-mail: as.fassade@deutsche-steinzeug.de
  7
ARIAL
 73
     1
 44
1.0
  0
MTEXT
  5
B1
330
1F
100
AcDbEntity
  8
XR$1$TB_814_1
  6
AUSGEZOGEN
 62
     7
440
 33554687
370
    -3
100
AcDbMText
 10
15.251663
 20
-0.468885
 30
0.0
 40
0.009
 41
0.418059
 46
0.0
 71
     7
 72
     5
  1
\W1.00;AGROB BUCHTAL GmbH   Architektenservice   D - 92521 Schwarzenfeld
  7
ARIAL
 73
     1
 44
1.0
  0
LINE
  5
B2
330
1F
100
AcDbEntity
  8
XR$1$TB_814_1
  6
AUSGEZOGEN
 62
     7
440
 33554687
370
    -3
100
AcDbLine
 10
15.128929
 20
0.330157
 30
0.0
 11
15.128929
 21
-0.255343
 31
0.0
  0
LINE
  5
B3
330
1F
100
AcDbEntity
  8
XR$1$TB_814_1
  6
VERDECKT2_S2
 62
     7
440
 33554687
370
    -3
100
AcDbLine
 10
15.130929
 20
0.330157
 30
0.0
 11
15.130929
 21
-0.255343
 31
0.0
  0
LINE
  5
B4
330
1F
100
AcDbEntity
  8
XR$1$TB_814_1
  6
AUSGEZOGEN
 62
     7
440
 33554687
370
    25
100
AcDbLine
 10
15.072185
 20
0.303157
 30
0.0
 11
15.092185
 21
0.303157
 31
0.0
  0
LINE
  5
B5
330
1F
100
AcDbEntity
  8
XR$1$TB_814_1
  6
VERDECKT2_S2
 62
     7
440
 33554687
370
    13
100
AcDbLine
 10
15.078185
 20
0.303157
 30
0.0
 11
15.078185
 21
-0.255343
 31
0.0
  0
LINE
  5
B6
330
1F
100
AcDbEntity
  8
XR$1$TB_814_1
  6
AUSGEZOGEN
 62
     7
440
 33554687
370
    25
100
AcDbLine
 10
15.072185
 20
0.303157
 30
0.0
 11
15.072185
 21
-0.255343
 31
0.0
  0
LINE
  5
B7
330
1F
100
AcDbEntity
  8
XR$1$TB_814_1
  6
AUSGEZOGEN
 62
     7
440
 33554687
370
    25
100
AcDbLine
 10
15.092185
 20
0.303157
 30
0.0
 11
15.092185
 21
-0.255343
 31
0.0
  0
LINE
  5
B8
330
1F
100
AcDbEntity
  8
XR$1$TB_814_1
  6
VERDECKT2_S2
 62
     7
440
 33554687
370
    13
100
AcDbLine
 10
15.086179
 20
0.303157
 30
0.0
 11
15.086179
 21
-0.255343
 31
0.0
  0
LINE
  5
B9
330
1F
100
AcDbEntity
  8
XR$1$TB_814_1
  6
AUSGEZOGEN
 62
     7
440
 33554687
370
    -3
100
AcDbLine
 10
15.098929
 20
0.308157
 30
0.0
 11
15.098929
 21
0.310157
 31
0.0
  0
LINE
  5
BA
330
1F
100
AcDbEntity
  8
XR$1$TB_814_1
  6
AUSGEZOGEN
 62
     7
440
 33554687
370
    -3
100
AcDbLine
 10
15.095929
 20
0.310157
 30
0.0
 11
15.095929
 21
0.308157
 31
0.0
  0
LINE
  5
BB
330
1F
100
AcDbEntity
  8
XR$1$TB_814_1
  6
AUSGEZOGEN
 62
     7
440
 33554687
370
    -3
100
AcDbLine
 10
15.095929
 20
0.310157
 30
0.0
 11
15.098929
 21
0.310157
 31
0.0
  0
LINE
  5
BC
330
1F
100
AcDbEntity
  8
XR$1$TB_814_1
  6
AUSGEZOGEN
 62
     7
440
 33554687
370
    -3
100
AcDbLine
 10
15.098929
 20
0.256657
 30
0.0
 11
15.098929
 21
0.258657
 31
0.0
  0
LINE
  5
BD
330
1F
100
AcDbEntity
  8
XR$1$TB_814_1
  6
AUSGEZOGEN
 62
     7
440
 33554687
370
    -3
100
AcDbLine
 10
15.095929
 20
0.258657
 30
0.0
 11
15.095929
 21
0.256657
 31
0.0
  0
LINE
  5
BE
330
1F
100
AcDbEntity
  8
XR$1$TB_814_1
  6
AUSGEZOGEN
 62
     7
440
 33554687
370
    -3
100
AcDbLine
 10
15.095929
 20
0.258657
 30
0.0
 11
15.095929
 21
0.308157
 31
0.0
  0
ARC
  5
BF
330
1F
100
AcDbEntity
  8
XR$1$TB_814_1
  6
AUSGEZOGEN
 62
     7
440
 33554687
370
    -3
100
AcDbCircle
 10
15.096429
 20
0.300101
 30
0.0
 40
0.0015
100
AcDbArc
 50
180.0
 51
240.0
  0
LINE
  5
C0
330
1F
100
AcDbEntity
  8
XR$1$TB_814_1
  6
AUSGEZOGEN
 62
     7
440
 33554687
370
    -3
100
AcDbLine
 10
15.094929
 20
0.306657
 30
0.0
 11
15.094929
 21
0.300101
 31
0.0
  0
LINE
  5
C1
330
1F
100
AcDbEntity
  8
XR$1$TB_814_1
  6
AUSGEZOGEN
 62
     7
440
 33554687
370
    -3
100
AcDbLine
 10
15.094929
 20
0.306714
 30
0.0
 11
15.094929
 21
0.306657
 31
0.0
  0
ARC
  5
C2
330
1F
100
AcDbEntity
  8
XR$1$TB_814_1
  6
AUSGEZOGEN
 62
     7
440
 33554687
370
    -3
100
AcDbCircle
 10
15.096429
 20
0.306714
 30
0.0
 40
0.0015
100
AcDbArc
 50
120.0
 51
180.0
  0
LINE
  5
C3
330
1F
100
AcDbEntity
  8
XR$1$TB_814_1
  6
AUSGEZOGEN
 62
     7
440
 33554687
370
    -3
100
AcDbLine
 10
15.095929
 20
0.298657
 30
0.0
 11
15.095679
 21
0.298802
 31
0.0
  0
LINE
  5
C4
330
1F
100
AcDbEntity
  8
XR$1$TB_814_1
  6
AUSGEZOGEN
 62
     7
440
 33554687
370
    -3
100
AcDbLine
 10
15.095679
 20
0.308013
 30
0.0
 11
15.095929
 21
0.308157
 31
0.0
  0
LINE
  5
C5
330
1F
100
AcDbEntity
  8
XR$1$TB_814_1
  6
AUSGEZOGEN
 62
     7
440
 33554687
370
    -3
100
AcDbLine
 10
15.092929
 20
0.310157
 30
0.0
 11
15.095929
 21
0.310157
 31
0.0
  0
ARC
  5
C6
330
1F
100
AcDbEntity
  8
XR$1$TB_814_1
  6
AUSGEZOGEN
 62
     7
440
 33554687
370
    -3
100
AcDbCircle
 10
15.088179
 20
0.306657
 30
0.0
 40
0.0015
100
AcDbArc
 50
270.0
 51
90.0
  0
LINE
  5
C7
330
1F
100
AcDbEntity
  8
XR$1$TB_814_1
  6
AUSGEZOGEN
 62
     7
440
 33554687
370
    -3
100
AcDbLine
 10
15.095054
 20
0.287023
 30
0.0
 11
15.093146
 21
0.284072
 31
0.0
  0
ARC
  5
C8
330
1F
100
AcDbEntity
  8
XR$1$TB_814_1
  6
AUSGEZOGEN
 62
     7
440
 33554687
370
    -3
100
AcDbCircle
 10
15.098185
 20
0.280815
 30
0.0
 40
0.003
100
AcDbArc
 50
176.119614
 51
192.122457
  0
ARC
  5
C9
330
1F
100
AcDbEntity
  8
XR$1$TB_814_1
  6
AUSGEZOGEN
 62
     7
440
 33554687
370
    -3
100
AcDbCircle
 10
15.098185
 20
0.280815
 30
0.0
 40
0.003
100
AcDbArc
 50
147.122457
 51
176.119614
  0
ARC
  5
CA
330
1F
100
AcDbEntity
  8
XR$1$TB_814_1
  6
AUSGEZOGEN
 62
     7
440
 33554687
370
    -3
100
AcDbCircle
 10
15.098185
 20
0.280815
 30
0.0
 40
0.006
100
AcDbArc
 50
147.122457
 51
176.119614
  0
ARC
  5
CB
330
1F
100
AcDbEntity
  8
XR$1$TB_814_1
  6
AUSGEZOGEN
 62
     7
440
 33554687
370
    -3
100
AcDbCircle
 10
15.098185
 20
0.280815
 30
0.0
 40
0.0059999999999999
100
AcDbArc
 50
176.119614
 51
192.122457
  0
LINE
  5
CC
330
1F
100
AcDbEntity
  8
XR$1$TB_814_1
  6
AUSGEZOGEN
 62
     7
440
 33554687
370
    -3
100
AcDbLine
 10
15.092319
 20
0.279555
 30
0.0
 11
15.09586
 21
0.263069
 31
0.0
  0
ARC
  5
CD
330
1F
100
AcDbEntity
  8
XR$1$TB_814_1
  6
AUSGEZOGEN
 62
     7
440
 33554687
370
    -3
100
AcDbCircle
 10
15.092927
 20
0.262439
 30
0.0
 40
0.0030000000000001
100
AcDbArc
 50
356.119614
 51
12.122457
  0
LINE
  5
CE
330
1F
100
AcDbEntity
  8
XR$1$TB_814_1
  6
AUSGEZOGEN
 62
     7
440
 33554687
370
    -3
100
AcDbLine
 10
15.095929
 20
0.277033
 30
0.0
 11
15.095252
 21
0.280185
 31
0.0
  0
LINE
  5
CF
330
1F
100
AcDbEntity
  8
XR$1$TB_814_1
  6
AUSGEZOGEN
 62
     7
440
 33554687
370
    -3
100
AcDbLine
 10
15.095666
 20
0.282443
 30
0.0
 11
15.095929
 21
0.282851
 31
0.0
  0
LINE
  5
D0
330
1F
100
AcDbEntity
  8
XR$1$TB_814_1
  6
AUSGEZOGEN
 62
     7
440
 33554687
370
    -3
100
AcDbLine
 10
15.095929
 20
0.288377
 30
0.0
 11
15.095054
 21
0.287023
 31
0.0
  0
LINE
  5
D1
330
1F
100
AcDbEntity
  8
XR$1$TB_814_1
  6
VERDECKT2_S2
 62
     7
440
 33554687
370
    13
100
AcDbLine
 10
15.080679
 20
0.293907
 30
0.0
 11
15.085179
 21
0.293907
 31
0.0
  0
ARC
  5
D2
330
1F
100
AcDbEntity
  8
XR$1$TB_814_1
  6
VERDECKT2_S2
 62
     7
440
 33554687
370
    13
100
AcDbCircle
 10
15.085679
 20
0.295313
 30
0.0
 40
0.0004999999999999
100
AcDbArc
 50
0.0
 51
21.416714
  0
LINE
  5
D3
330
1F
100
AcDbEntity
  8
XR$1$TB_814_1
  6
VERDECKT2_S2
 62
     7
440
 33554687
370
    13
100
AcDbLine
 10
15.086179
 20
0.294907
 30
0.0
 11
15.086179
 21
0.295313
 31
0.0
  0
ARC
  5
D4
330
1F
100
AcDbEntity
  8
XR$1$TB_814_1
  6
VERDECKT2_S2
 62
     7
440
 33554687
370
    13
100
AcDbCircle
 10
15.085179
 20
0.294907
 30
0.0
 40
0.001
100
AcDbArc
 50
270.0
 51
0.0
  0
LINE
  5
D5
330
1F
100
AcDbEntity
  8
XR$1$TB_814_1
  6
VERDECKT2_S2
 62
     7
440
 33554687
370
    13
100
AcDbLine
 10
15.085214
 20
0.297869
 30
0.0
 11
15.086145
 21
0.295495
 31
0.0
  0
ARC
  5
D6
330
1F
100
AcDbEntity
  8
XR$1$TB_814_1
  6
VERDECKT2_S2
 62
     7
440
 33554687
370
    13
100
AcDbCircle
 10
15.085679
 20
0.298051
 30
0.0
 40
0.0004999999999999
100
AcDbArc
 50
180.0
 51
201.416714
  0
LINE
  5
D7
330
1F
100
AcDbEntity
  8
XR$1$TB_814_1
  6
VERDECKT2_S2
 62
     7
440
 33554687
370
    13
100
AcDbLine
 10
15.085179
 20
0.303157
 30
0.0
 11
15.085179
 21
0.298051
 31
0.0
  0
ARC
  5
D8
330
1F
100
AcDbEntity
  8
XR$1$TB_814_1
  6
VERDECKT2_S2
 62
     7
440
 33554687
370
    13
100
AcDbCircle
 10
15.080679
 20
0.295907
 30
0.0
 40
0.002
100
AcDbArc
 50
180.0
 51
270.0
  0
LINE
  5
D9
330
1F
100
AcDbEntity
  8
XR$1$TB_814_1
  6
AUSGEZOGEN
 62
     7
440
 33554687
370
    -3
100
AcDbLine
 10
15.092185
 20
0.303157
 30
0.0
 11
15.094929
 21
0.303157
 31
0.0
  0
LINE
  5
DA
330
1F
100
AcDbEntity
  8
XR$1$TB_814_1
  6
VERDECKT2_S2
 62
     7
440
 33554687
370
    13
100
AcDbLine
 10
15.082185
 20
0.310157
 30
0.0
 11
15.080679
 21
0.310157
 31
0.0
  0
LINE
  5
DB
330
1F
100
AcDbEntity
  8
XR$1$TB_814_1
  6
AUSGEZOGEN
 62
     7
440
 33554687
370
    -3
100
AcDbLine
 10
15.080679
 20
0.310157
 30
0.0
 11
15.092929
 21
0.310157
 31
0.0
  0
LINE
  5
DC
330
1F
100
AcDbEntity
  8
XR$1$TB_814_1
  6
VERDECKT2_S2
 62
     7
440
 33554687
370
    13
100
AcDbLine
 10
15.078679
 20
0.303157
 30
0.0
 11
15.078679
 21
0.295907
 31
0.0
  0
LINE
  5
DD
330
1F
100
AcDbEntity
  8
XR$1$TB_814_1
  6
AUSGEZOGEN
 62
     7
440
 33554687
370
    -3
100
AcDbLine
 10
15.078679
 20
0.308157
 30
0.0
 11
15.078679
 21
0.303157
 31
0.0
  0
LINE
  5
DE
330
1F
100
AcDbEntity
  8
XR$1$TB_814_1
  6
AUSGEZOGEN
 62
     7
440
 33554687
370
    -3
100
AcDbLine
 10
15.088179
 20
0.308157
 30
0.0
 11
15.083179
 21
0.308157
 31
0.0
  0
LINE
  5
DF
330
1F
100
AcDbEntity
  8
XR$1$TB_814_1
  6
AUSGEZOGEN
 62
     7
440
 33554687
370
    -3
100
AcDbLine
 10
15.083179
 20
0.305157
 30
0.0
 11
15.088179
 21
0.305157
 31
0.0
  0
ARC
  5
E0
330
1F
100
AcDbEntity
  8
XR$1$TB_814_1
  6
AUSGEZOGEN
 62
     7
440
 33554687
370
    -3
100
AcDbCircle
 10
15.083179
 20
0.306657
 30
0.0
 40
0.0015
100
AcDbArc
 50
90.0
 51
270.0
  0
ARC
  5
E1
330
1F
100
AcDbEntity
  8
XR$1$TB_814_1
  6
VERDECKT2_S2
 62
     7
440
 33554687
370
    -3
100
AcDbCircle
 10
15.080679
 20
0.308157
 30
0.0
 40
0.002
100
AcDbArc
 50
90.0
 51
180.0
  0
LINE
  5
E2
330
1F
100
AcDbEntity
  8
XR$1$TB_814_1
  6
AUSGEZOGEN
 62
     7
440
 33554687
370
    -3
100
AcDbLine
 10
15.098929
 20
0.314657
 30
0.0
 11
15.098929
 21
0.316657
 31
0.0
  0
LINE
  5
E3
330
1F
100
AcDbEntity
  8
XR$1$TB_814_1
  6
AUSGEZOGEN
 62
     7
440
 33554687
370
    -3
100
AcDbLine
 10
15.100929
 20
0.316657
 30
0.0
 11
15.098929
 21
0.316657
 31
0.0
  0
LINE
  5
E4
330
1F
100
AcDbEntity
  8
XR$1$TB_814_1
  6
AUSGEZOGEN
 62
     7
440
 33554687
370
    -3
100
AcDbLine
 10
15.098929
 20
0.308157
 30
0.0
 11
15.098929
 21
0.258657
 31
0.0
  0
LINE
  5
E5
330
1F
100
AcDbEntity
  8
XR$1$TB_814_1
  6
AUSGEZOGEN
 62
     7
440
 33554687
370
    -3
100
AcDbLine
 10
15.103679
 20
0.306657
 30
0.0
 11
15.090179
 21
0.306657
 31
0.0
  0
LINE
  5
E6
330
1F
100
AcDbEntity
  8
XR$1$TB_814_1
  6
AUSGEZOGEN
 62
     7
440
 33554687
370
    -3
100
AcDbLine
 10
15.098929
 20
0.316657
 30
0.0
 11
15.098929
 21
0.282907
 31
0.0
  0
LINE
  5
E7
330
1F
100
AcDbEntity
  8
XR$1$TB_814_1
  6
AUSGEZOGEN
 62
     7
440
 33554687
370
    -3
100
AcDbLine
 10
15.098929
 20
0.256657
 30
0.0
 11
15.095929
 21
0.256657
 31
0.0
  0
LINE
  5
E8
330
1F
100
AcDbEntity
  8
XR$1$TB_814_1
  6
AUSGEZOGEN
 62
     7
440
 33554687
370
    -3
100
AcDbLine
 10
15.128929
 20
0.294907
 30
0.0
 11
15.100929
 21
0.294907
 31
0.0
  0
LINE
  5
E9
330
1F
100
AcDbEntity
  8
XR$1$TB_814_1
  6
AUSGEZOGEN
 62
     7
440
 33554687
370
    -3
100
AcDbLine
 10
15.128929
 20
0.240407
 30
0.0
 11
15.100929
 21
0.240407
 31
0.0
  0
LINE
  5
EA
330
1F
100
AcDbEntity
  8
XR$1$TB_814_1
  6
AUSGEZOGEN
 62
     7
440
 33554687
370
    -3
100
AcDbLine
 10
15.126429
 20
0.242407
 30
0.0
 11
15.126429
 21
0.292907
 31
0.0
  0
LINE
  5
EB
330
1F
100
AcDbEntity
  8
XR$1$TB_814_1
  6
AUSGEZOGEN
 62
     7
440
 33554687
370
    -3
100
AcDbLine
 10
15.100929
 20
0.218657
 30
0.0
 11
15.098929
 21
0.218657
 31
0.0
  0
LINE
  5
EC
330
1F
100
AcDbEntity
  8
XR$1$TB_814_1
  6
AUSGEZOGEN
 62
     7
440
 33554687
370
    -3
100
AcDbLine
 10
15.098929
 20
0.218657
 30
0.0
 11
15.098929
 21
0.256657
 31
0.0
  0
LINE
  5
ED
330
1F
100
AcDbEntity
  8
XR$1$TB_814_1
  6
AUSGEZOGEN
 62
     7
440
 33554687
370
    -3
100
AcDbLine
 10
15.126429
 20
0.292907
 30
0.0
 11
15.100929
 21
0.292907
 31
0.0
  0
LINE
  5
EE
330
1F
100
AcDbEntity
  8
XR$1$TB_814_1
  6
AUSGEZOGEN
 62
     7
440
 33554687
370
    -3
100
AcDbLine
 10
15.100929
 20
0.242407
 30
0.0
 11
15.100929
 21
0.292907
 31
0.0
  0
LINE
  5
EF
330
1F
100
AcDbEntity
  8
XR$1$TB_814_1
  6
AUSGEZOGEN
 62
     7
440
 33554687
370
    -3
100
AcDbLine
 10
15.100929
 20
0.242407
 30
0.0
 11
15.126429
 21
0.242407
 31
0.0
  0
LINE
  5
F0
330
1F
100
AcDbEntity
  8
XR$1$TB_814_1
  6
AUSGEZOGEN
 62
     7
440
 33554687
370
    -3
100
AcDbLine
 10
15.134429
 20
0.267657
 30
0.0
 11
15.119429
 21
0.267657
 31
0.0
  0
LINE
  5
F1
330
1F
100
AcDbEntity
  8
XR$1$TB_814_1
  6
AUSGEZOGEN
 62
     5
440
 33554687
370
    -3
100
AcDbLine
 10
14.895075
 20
0.194069
 30
0.0
 11
14.896807
 21
0.193069
 31
0.0
  0
LINE
  5
F2
330
1F
100
AcDbEntity
  8
XR$1$TB_814_1
  6
AUSGEZOGEN
 62
     5
440
 33554687
370
    -3
100
AcDbLine
 10
14.896807
 20
0.193069
 30
0.0
 11
14.896807
 21
0.095069
 31
0.0
  0
LINE
  5
F3
330
1F
100
AcDbEntity
  8
XR$1$TB_814_1
  6
AUSGEZOGEN
 62
     5
440
 33554687
370
    -3
100
AcDbLine
 10
14.896807
 20
0.095069
 30
0.0
 11
14.895075
 21
0.096069
 31
0.0
  0
LINE
  5
F4
330
1F
100
AcDbEntity
  8
XR$1$TB_814_1
  6
AUSGEZOGEN
 62
     5
440
 33554687
370
    -3
100
AcDbLine
 10
14.895075
 20
0.096069
 30
0.0
 11
14.895075
 21
0.117819
 31
0.0
  0
LINE
  5
F5
330
1F
100
AcDbEntity
  8
XR$1$TB_814_1
  6
AUSGEZOGEN
 62
     5
440
 33554687
370
    -3
100
AcDbLine
 10
14.895075
 20
0.117819
 30
0.0
 11
14.870826
 21
0.131819
 31
0.0
  0
LINE
  5
F6
330
1F
100
AcDbEntity
  8
XR$1$TB_814_1
  6
AUSGEZOGEN
 62
     5
440
 33554687
370
    -3
100
AcDbLine
 10
14.870826
 20
0.131819
 30
0.0
 11
14.870826
 21
0.186319
 31
0.0
  0
LINE
  5
F7
330
1F
100
AcDbEntity
  8
XR$1$TB_814_1
  6
AUSGEZOGEN
 62
     5
440
 33554687
370
    -3
100
AcDbLine
 10
14.870826
 20
0.186319
 30
0.0
 11
14.895075
 21
0.172319
 31
0.0
  0
LINE
  5
F8
330
1F
100
AcDbEntity
  8
XR$1$TB_814_1
  6
AUSGEZOGEN
 62
     5
440
 33554687
370
    -3
100
AcDbLine
 10
14.895075
 20
0.172319
 30
0.0
 11
14.895075
 21
0.194069
 31
0.0
  0
LINE
  5
F9
330
1F
100
AcDbEntity
  8
XR$1$TB_814_1
  6
AUSGEZOGEN
 62
     5
440
 33554687
370
    -3
100
AcDbLine
 10
14.895075
 20
0.170319
 30
0.0
 11
14.872991
 21
0.183069
 31
0.0
  0
LINE
  5
FA
330
1F
100
AcDbEntity
  8
XR$1$TB_814_1
  6
AUSGEZOGEN
 62
     5
440
 33554687
370
    -3
100
AcDbLine
 10
14.872991
 20
0.132569
 30
0.0
 11
14.872991
 21
0.183069
 31
0.0
  0
LINE
  5
FB
330
1F
100
AcDbEntity
  8
XR$1$TB_814_1
  6
AUSGEZOGEN
 62
     5
440
 33554687
370
    -3
100
AcDbLine
 10
14.895075
 20
0.119819
 30
0.0
 11
14.872991
 21
0.132569
 31
0.0
  0
LINE
  5
FC
330
1F
100
AcDbEntity
  8
XR$1$TB_814_1
  6
AUSGEZOGEN
 62
     5
440
 33554687
370
    -3
100
AcDbLine
 10
14.895075
 20
0.119819
 30
0.0
 11
14.895075
 21
0.170319
 31
0.0
  0
LINE
  5
FD
330
1F
100
AcDbEntity
  8
XR$1$TB_814_1
  6
AUSGEZOGEN
 62
     5
440
 33554687
370
    -3
100
AcDbLine
 10
14.872991
 20
0.132569
 30
0.0
 11
14.895075
 21
0.145319
 31
0.0
  0
ARC
  5
FE
330
1F
100
AcDbEntity
  8
XR$1$TB_814_1
  6
AUSGEZOGEN
 62
     7
440
 33554687
370
    -3
100
AcDbCircle
 10
14.932908
 20
0.177412
 30
0.0
 40
0.0216506350946043
100
AcDbArc
 50
300.0
 51
0.0
  0
ARC
  5
FF
330
1F
100
AcDbEntity
  8
XR$1$TB_814_1
  6
AUSGEZOGEN
 62
     7
440
 33554687
370
    -3
100
AcDbCircle
 10
14.954559
 20
0.164912
 30
0.0
 40
0.0216506350946043
100
AcDbArc
 50
120.0
 51
180.0
  0
ARC
  5
100
330
1F
100
AcDbEntity
  8
XR$1$TB_814_1
  6
AUSGEZOGEN
 62
     7
440
 33554687
370
    -3
100
AcDbCircle
 10
14.931176
 20
0.178412
 30
0.0
 40
0.0216506350946043
100
AcDbArc
 50
300.0
 51
0.0
  0
ARC
  5
101
330
1F
100
AcDbEntity
  8
XR$1$TB_814_1
  6
AUSGEZOGEN
 62
     7
440
 33554687
370
    -3
100
AcDbCircle
 10
14.94561
 20
0.178412
 30
0.0
 40
0.0072168783648681
100
AcDbArc
 50
0.0
 51
52.035237
  0
ARC
  5
102
330
1F
100
AcDbEntity
  8
XR$1$TB_814_1
  6
AUSGEZOGEN
 62
     7
440
 33554687
370
    -3
100
AcDbCircle
 10
14.938393
 20
0.165912
 30
0.0
 40
0.0072168783648681
100
AcDbArc
 50
247.964764
 51
300.0
  0
LINE
  5
103
330
1F
100
AcDbEntity
  8
XR$1$TB_814_1
  6
AUSGEZOGEN
 62
     5
440
 33554687
370
    -3
100
AcDbLine
 10
14.870826
 20
0.186319
 30
0.0
 11
14.94371
 21
0.228399
 31
0.0
  0
LINE
  5
104
330
1F
100
AcDbEntity
  8
XR$1$TB_814_1
  6
AUSGEZOGEN
 62
     5
440
 33554687
370
    -3
100
AcDbLine
 10
14.895075
 20
0.194069
 30
0.0
 11
14.949855
 21
0.225696
 31
0.0
  0
LINE
  5
105
330
1F
100
AcDbEntity
  8
XR$1$TB_814_1
  6
AUSGEZOGEN
 62
     5
440
 33554687
370
    -3
100
AcDbLine
 10
14.896807
 20
0.193069
 30
0.0
 11
14.951688
 21
0.224754
 31
0.0
  0
LINE
  5
106
330
1F
100
AcDbEntity
  8
XR$1$TB_814_1
  6
AUSGEZOGEN
 62
     5
440
 33554687
370
    -3
100
AcDbLine
 10
14.896807
 20
0.095069
 30
0.0
 11
14.989317
 21
0.14848
 31
0.0
  0
ARC
  5
107
330
1F
100
AcDbEntity
  8
XR$1$TB_814_1
  6
AUSGEZOGEN
 62
     7
440
 33554687
370
    -3
100
AcDbCircle
 10
14.940125
 20
0.164912
 30
0.0
 40
0.0072168783648681
100
AcDbArc
 50
180.0
 51
300.0
  0
ARC
  5
108
330
1F
100
AcDbEntity
  8
XR$1$TB_814_1
  6
AUSGEZOGEN
 62
     7
440
 33554687
370
    -3
100
AcDbCircle
 10
14.947342
 20
0.177412
 30
0.0
 40
0.0072168783648681
100
AcDbArc
 50
0.0
 51
120.0
  0
LINE
  5
109
330
1F
100
AcDbEntity
  8
XR$1$TB_814_1
  6
AUSGEZOGEN
 62
     5
440
 33554687
370
    -3
100
AcDbLine
 10
14.954559
 20
0.177412
 30
0.0
 11
14.954559
 21
0.17741
 31
0.0
  0
LINE
  5
10A
330
1F
100
AcDbEntity
  8
XR$1$TB_814_1
  6
AUSGEZOGEN
 62
     5
440
 33554687
370
    -3
100
AcDbLine
 10
14.930948
 20
0.140783
 30
0.0
 11
14.956112
 21
0.155312
 31
0.0
  0
LINE
  5
10B
330
1F
100
AcDbEntity
  8
XR$1$TB_814_1
  6
AUSGEZOGEN
 62
     5
440
 33554687
370
    -3
100
AcDbLine
 10
14.933024
 20
0.156244
 30
0.0
 11
14.933024
 21
0.140115
 31
0.0
  0
LINE
  5
10C
330
1F
100
AcDbEntity
  8
XR$1$TB_814_1
  6
AUSGEZOGEN
 62
     5
440
 33554687
370
    -3
100
AcDbLine
 10
14.954559
 20
0.168678
 30
0.0
 11
14.954559
 21
0.152549
 31
0.0
  0
LINE
  5
10D
330
1F
100
AcDbEntity
  8
XR$1$TB_814_1
  6
AUSGEZOGEN
 62
     5
440
 33554687
370
    -3
100
AcDbLine
 10
14.933024
 20
0.141982
 30
0.0
 11
14.934756
 21
0.140982
 31
0.0
  0
LINE
  5
10E
330
1F
100
AcDbEntity
  8
XR$1$TB_814_1
  6
AUSGEZOGEN
 62
     5
440
 33554687
370
    -3
100
AcDbLine
 10
14.933024
 20
0.141982
 30
0.0
 11
14.931292
 21
0.142982
 31
0.0
  0
LINE
  5
10F
330
1F
100
AcDbEntity
  8
XR$1$TB_814_1
  6
AUSGEZOGEN
 62
     5
440
 33554687
370
    -3
100
AcDbLine
 10
14.954559
 20
0.154415
 30
0.0
 11
14.956291
 21
0.153415
 31
0.0
  0
LINE
  5
110
330
1F
100
AcDbEntity
  8
XR$1$TB_814_1
  6
AUSGEZOGEN
 62
     5
440
 33554687
370
    -3
100
AcDbLine
 10
14.954559
 20
0.154415
 30
0.0
 11
14.952827
 21
0.155415
 31
0.0
  0
MTEXT
  5
111
330
1F
100
AcDbEntity
  8
XR$1$TB_814_1
  6
AUSGEZOGEN
 62
     7
440
 33554687
370
    -3
100
AcDbMText
 10
14.937548
 20
0.133466
 30
0.0
 40
0.0075
 41
0.02203
 46
0.0
 71
     7
 72
     5
  1
\W1.39;\Q30.0;d>
  7
ARIAL
 11
0.8660254037844375
 21
0.5000000000000024
 31
0.0
 73
     1
 44
1.0
  0
MTEXT
  5
112
330
1F
100
AcDbEntity
  8
XR$1$TB_814_1
  6
AUSGEZOGEN
 62
     7
440
 33554687
370
    -3
100
AcDbMText
 10
14.848116
 20
0.059866
 30
0.0
 40
0.0125
 41
0.175287
 46
0.0
 71
     1
 72
     5
  1
\A1;{\fArial|i0|b0;\H0.012500;\W1.250000;\C7;d> Durchmesser }\P{\fArial|i0|b0;\H0.012500;\W1.250000;\C7;     Werkzeug}\P
  7
ARIAL
 73
     1
 44
1.204819
  0
MTEXT
  5
113
330
1F
100
AcDbEntity
  8
XR$1$TB_814_1
  6
AUSGEZOGEN
 62
     7
440
 33554687
370
    -3
100
AcDbMText
 10
14.847296
 20
-0.07266
 30
0.0
 40
0.0125
 41
0.201076
 46
0.0
 71
     7
 72
     5
  1
\W1.26;d> outil de diamètre
  7
ARIAL
 73
     1
 44
1.0
  0
MTEXT
  5
114
330
1F
100
AcDbEntity
  8
XR$1$TB_814_1
  6
AUSGEZOGEN
 62
     7
440
 33554687
370
    -3
100
AcDbMText
 10
14.848758
 20
-0.002955
 30
0.0
 40
0.0125
 41
0.13023
 46
0.0
 71
     1
 72
     5
  1
\A1;{\fArial|i0|b0;\H0.012500;\W1.250000;\C7;d> diameter }\P{\fArial|i0|b0;\H0.012500;\W1.250000;\C7;     tool}\P
  7
ARIAL
 73
     1
 44
1.204819
  0
LINE
  5
115
330
1F
100
AcDbEntity
  8
XR$1$TB_814_1
  6
AUSGEZOGEN
 62
     7
440
 33554687
370
    -3
100
AcDbLine
 10
14.988433
 20
0.176898
 30
0.0
 11
15.099104
 21
0.248613
 31
0.0
  0
CIRCLE
  5
116
330
1F
100
AcDbEntity
  8
XR$1$TB_814_1
  6
STRICHPUNKT2_S5
 62
     5
440
 33554687
370
    -3
100
AcDbCircle
 10
14.917499
 20
0.160468
 30
0.0
 40
0.0728117338926939
  0
LINE
  5
117
330
1F
100
AcDbEntity
  8
XR$1$TB_814_1
  6
AUSGEZOGEN
 62
     7
440
 33554687
370
    -3
100
AcDbLine
 10
15.100929
 20
0.305782
 30
0.0
 11
15.101636
 21
0.306489
 31
0.0
  0
LINE
  5
118
330
1F
100
AcDbEntity
  8
XR$1$TB_814_1
  6
AUSGEZOGEN
 62
     7
440
 33554687
370
    -3
100
AcDbLine
 10
15.101636
 20
0.306489
 30
0.0
 11
15.100929
 21
0.307196
 31
0.0
  0
LINE
  5
119
330
1F
100
AcDbEntity
  8
XR$1$TB_814_1
  6
AUSGEZOGEN
 62
     7
440
 33554687
370
    -3
100
AcDbLine
 10
15.100929
 20
0.305782
 30
0.0
 11
15.101636
 21
0.305075
 31
0.0
  0
LINE
  5
11A
330
1F
100
AcDbEntity
  8
XR$1$TB_814_1
  6
AUSGEZOGEN
 62
     7
440
 33554687
370
    -3
100
AcDbLine
 10
15.101636
 20
0.305075
 30
0.0
 11
15.100929
 21
0.304368
 31
0.0
  0
LINE
  5
11B
330
1F
100
AcDbEntity
  8
XR$1$TB_814_1
  6
AUSGEZOGEN
 62
     7
440
 33554687
370
    -3
100
AcDbLine
 10
15.100929
 20
0.307196
 30
0.0
 11
15.100929
 21
0.316657
 31
0.0
  0
LINE
  5
11C
330
1F
100
AcDbEntity
  8
XR$1$TB_814_1
  6
AUSGEZOGEN
 62
     7
440
 33554687
370
    -3
100
AcDbLine
 10
15.100929
 20
0.294907
 30
0.0
 11
15.100929
 21
0.304368
 31
0.0
  0
LINE
  5
11D
330
1F
100
AcDbEntity
  8
XR$1$TB_814_1
  6
AUSGEZOGEN
 62
     7
440
 33554687
370
    -3
100
AcDbLine
 10
15.100929
 20
0.229532
 30
0.0
 11
15.101636
 21
0.230239
 31
0.0
  0
LINE
  5
11E
330
1F
100
AcDbEntity
  8
XR$1$TB_814_1
  6
AUSGEZOGEN
 62
     7
440
 33554687
370
    -3
100
AcDbLine
 10
15.101636
 20
0.230239
 30
0.0
 11
15.100929
 21
0.230946
 31
0.0
  0
LINE
  5
11F
330
1F
100
AcDbEntity
  8
XR$1$TB_814_1
  6
AUSGEZOGEN
 62
     7
440
 33554687
370
    -3
100
AcDbLine
 10
15.100929
 20
0.229532
 30
0.0
 11
15.101636
 21
0.228825
 31
0.0
  0
LINE
  5
120
330
1F
100
AcDbEntity
  8
XR$1$TB_814_1
  6
AUSGEZOGEN
 62
     7
440
 33554687
370
    -3
100
AcDbLine
 10
15.101636
 20
0.228825
 30
0.0
 11
15.100929
 21
0.228118
 31
0.0
  0
LINE
  5
121
330
1F
100
AcDbEntity
  8
XR$1$TB_814_1
  6
AUSGEZOGEN
 62
     7
440
 33554687
370
    -3
100
AcDbLine
 10
15.100929
 20
0.240407
 30
0.0
 11
15.100929
 21
0.230946
 31
0.0
  0
LINE
  5
122
330
1F
100
AcDbEntity
  8
XR$1$TB_814_1
  6
AUSGEZOGEN
 62
     7
440
 33554687
370
    -3
100
AcDbLine
 10
15.100929
 20
0.228118
 30
0.0
 11
15.100929
 21
0.218657
 31
0.0
  0
LINE
  5
123
330
1F
100
AcDbEntity
  8
XR$1$TB_814_1
  6
AUSGEZOGEN
 62
    52
440
 33554687
370
    13
100
AcDbLine
 10
15.180034
 20
0.173406
 30
0.0
 11
15.180034
 21
0.393406
 31
0.0
  0
LINE
  5
124
330
1F
100
AcDbEntity
  8
XR$1$TB_814_1
  6
AUSGEZOGEN
 62
     7
440
 33554687
370
    -3
100
AcDbLine
 10
15.180034
 20
0.330157
 30
0.0
 11
15.128929
 21
0.330157
 31
0.0
  0
LINE
  5
125
330
1F
100
AcDbEntity
  8
XR$1$TB_814_1
  6
AUSGEZOGEN
 62
    52
440
 33554687
370
    13
100
AcDbLine
 10
15.180034
 20
-0.255343
 30
0.0
 11
15.180034
 21
0.013406
 31
0.0
  0
LINE
  5
126
330
1F
100
AcDbEntity
  8
XR$1$TB_814_1
  6
AUSGEZOGEN
 62
    52
440
 33554687
370
    13
100
AcDbLine
 10
15.180034
 20
0.393406
 30
0.0
 11
15.252034
 21
0.393406
 31
0.0
  0
LINE
  5
127
330
1F
100
AcDbEntity
  8
XR$1$TB_814_1
  6
VERDECKT2_S2
 62
     7
440
 33554687
370
    -3
100
AcDbLine
 10
15.180034
 20
0.013406
 30
0.0
 11
15.180034
 21
0.173406
 31
0.0
  0
LINE
  5
128
330
1F
100
AcDbEntity
  8
XR$1$TB_814_1
  6
STRICHPUNKT2_S5
 62
     6
440
 33554687
370
    35
100
AcDbLine
 10
15.233034
 20
0.143906
 30
0.0
 11
15.351034
 21
0.143906
 31
0.0
  0
LINE
  5
129
330
1F
100
AcDbEntity
  8
XR$1$TB_814_1
  6
STRICHPUNKT2_S5
 62
     6
440
 33554687
370
    35
100
AcDbLine
 10
15.351034
 20
0.042906
 30
0.0
 11
15.233034
 21
0.042906
 31
0.0
  0
LINE
  5
12A
330
1F
100
AcDbEntity
  8
XR$1$TB_814_1
  6
AUSGEZOGEN
 62
     7
440
 33554687
370
    -3
100
AcDbLine
 10
15.046778
 20
0.290409
 30
0.0
 11
15.043778
 21
0.290409
 31
0.0
  0
LINE
  5
12B
330
1F
100
AcDbEntity
  8
XR$1$TB_814_1
  6
AUSGEZOGEN
 62
     7
440
 33554687
370
    -3
100
AcDbLine
 10
15.037778
 20
0.270409
 30
0.0
 11
15.058991
 21
0.291622
 31
0.0
  0
LINE
  5
12C
330
1F
100
AcDbEntity
  8
XR$1$TB_814_1
  6
AUSGEZOGEN
 62
     7
440
 33554687
370
    -3
100
AcDbLine
 10
15.040778
 20
0.277652
 30
0.0
 11
15.05687
 21
0.293744
 31
0.0
  0
LINE
  5
12D
330
1F
100
AcDbEntity
  8
XR$1$TB_814_1
  6
AUSGEZOGEN
 62
     7
440
 33554687
370
    -3
100
AcDbLine
 10
15.05687
 20
0.293744
 30
0.0
 11
15.058991
 21
0.291622
 31
0.0
  0
LINE
  5
12E
330
1F
100
AcDbEntity
  8
XR$1$TB_814_1
  6
AUSGEZOGEN
 62
     7
440
 33554687
370
    -3
100
AcDbLine
 10
15.037778
 20
0.441603
 30
0.0
 11
15.037778
 21
0.270409
 31
0.0
  0
LINE
  5
12F
330
1F
100
AcDbEntity
  8
XR$1$TB_814_1
  6
AUSGEZOGEN
 62
     7
440
 33554687
370
    -3
100
AcDbLine
 10
15.040778
 20
0.438506
 30
0.0
 11
15.040778
 21
0.277652
 31
0.0
  0
LINE
  5
130
330
1F
100
AcDbEntity
  8
XR$1$TB_814_1
  6
AUSGEZOGEN
 62
     7
440
 33554687
370
    -3
100
AcDbLine
 10
15.043778
 20
0.435312
 30
0.0
 11
15.043778
 21
0.290409
 31
0.0
  0
LINE
  5
131
330
1F
100
AcDbEntity
  8
XR$1$TB_814_1
  6
AUSGEZOGEN
 62
     7
440
 33554687
370
    -3
100
AcDbLine
 10
15.046778
 20
0.43225
 30
0.0
 11
15.046778
 21
0.290409
 31
0.0
  0
LINE
  5
132
330
1F
100
AcDbEntity
  8
XR$1$TB_814_1
  6
AUSGEZOGEN
 62
     7
440
 33554687
370
    -3
100
AcDbLine
 10
15.581034
 20
0.4312
 30
0.0
 11
15.037778
 21
0.441603
 31
0.0
  0
LINE
  5
133
330
1F
100
AcDbEntity
  8
XR$1$TB_814_1
  6
AUSGEZOGEN
 62
     7
440
 33554687
370
    -3
100
AcDbLine
 10
15.578034
 20
0.428293
 30
0.0
 11
15.040778
 21
0.438506
 31
0.0
  0
LINE
  5
134
330
1F
100
AcDbEntity
  8
XR$1$TB_814_1
  6
AUSGEZOGEN
 62
     7
440
 33554687
370
    -3
100
AcDbLine
 10
15.276129
 20
0.431053
 30
0.0
 11
15.043778
 21
0.435312
 31
0.0
  0
LINE
  5
135
330
1F
100
AcDbEntity
  8
XR$1$TB_814_1
  6
AUSGEZOGEN
 62
     7
440
 33554687
370
    -3
100
AcDbLine
 10
15.274861
 20
0.428079
 30
0.0
 11
15.046778
 21
0.43225
 31
0.0
  0
LINE
  5
136
330
1F
100
AcDbEntity
  8
XR$1$TB_814_1
  6
AUSGEZOGEN
 62
     7
440
 33554687
370
    13
100
AcDbLine
 10
15.180034
 20
0.368406
 30
0.0
 11
15.252034
 21
0.343406
 31
0.0
  0
LINE
  5
137
330
1F
100
AcDbEntity
  8
XR$1$TB_814_1
  6
AUSGEZOGEN
 62
     7
440
 33554687
370
    13
100
AcDbLine
 10
15.252034
 20
0.343406
 30
0.0
 11
15.180034
 21
0.318406
 31
0.0
  0
LINE
  5
138
330
1F
100
AcDbEntity
  8
XR$1$TB_814_1
  6
AUSGEZOGEN
 62
     7
440
 33554687
370
    13
100
AcDbLine
 10
15.180034
 20
0.318406
 30
0.0
 11
15.252034
 21
0.293406
 31
0.0
  0
LINE
  5
139
330
1F
100
AcDbEntity
  8
XR$1$TB_814_1
  6
AUSGEZOGEN
 62
     7
440
 33554687
370
    13
100
AcDbLine
 10
15.252034
 20
0.393406
 30
0.0
 11
15.180034
 21
0.368406
 31
0.0
  0
LINE
  5
13A
330
1F
100
AcDbEntity
  8
XR$1$TB_814_1
  6
AUSGEZOGEN
 62
     7
440
 33554687
370
    13
100
AcDbLine
 10
15.252034
 20
0.293406
 30
0.0
 11
15.180034
 21
0.268406
 31
0.0
  0
LINE
  5
13B
330
1F
100
AcDbEntity
  8
XR$1$TB_814_1
  6
AUSGEZOGEN
 62
     7
440
 33554687
370
    13
100
AcDbLine
 10
15.180034
 20
0.268406
 30
0.0
 11
15.252034
 21
0.243406
 31
0.0
  0
LINE
  5
13C
330
1F
100
AcDbEntity
  8
XR$1$TB_814_1
  6
AUSGEZOGEN
 62
     7
440
 33554687
370
    13
100
AcDbLine
 10
15.252034
 20
0.243406
 30
0.0
 11
15.180034
 21
0.218406
 31
0.0
  0
LINE
  5
13D
330
1F
100
AcDbEntity
  8
XR$1$TB_814_1
  6
AUSGEZOGEN
 62
     7
440
 33554687
370
    13
100
AcDbLine
 10
15.180034
 20
0.218406
 30
0.0
 11
15.252034
 21
0.193406
 31
0.0
  0
LINE
  5
13E
330
1F
100
AcDbEntity
  8
XR$1$TB_814_1
  6
AUSGEZOGEN
 62
     7
440
 33554687
370
    13
100
AcDbLine
 10
15.252034
 20
-0.006594
 30
0.0
 11
15.180034
 21
-0.031594
 31
0.0
  0
LINE
  5
13F
330
1F
100
AcDbEntity
  8
XR$1$TB_814_1
  6
AUSGEZOGEN
 62
     7
440
 33554687
370
    13
100
AcDbLine
 10
15.180034
 20
-0.031594
 30
0.0
 11
15.252034
 21
-0.056594
 31
0.0
  0
LINE
  5
140
330
1F
100
AcDbEntity
  8
XR$1$TB_814_1
  6
AUSGEZOGEN
 62
     7
440
 33554687
370
    13
100
AcDbLine
 10
15.252034
 20
-0.056594
 30
0.0
 11
15.180034
 21
-0.081594
 31
0.0
  0
LINE
  5
141
330
1F
100
AcDbEntity
  8
XR$1$TB_814_1
  6
AUSGEZOGEN
 62
     7
440
 33554687
370
    13
100
AcDbLine
 10
15.180034
 20
-0.081594
 30
0.0
 11
15.252034
 21
-0.106594
 31
0.0
  0
LINE
  5
142
330
1F
100
AcDbEntity
  8
XR$1$TB_814_1
  6
AUSGEZOGEN
 62
     7
440
 33554687
370
    13
100
AcDbLine
 10
15.252034
 20
-0.106594
 30
0.0
 11
15.180034
 21
-0.131594
 31
0.0
  0
LINE
  5
143
330
1F
100
AcDbEntity
  8
XR$1$TB_814_1
  6
AUSGEZOGEN
 62
     7
440
 33554687
370
    13
100
AcDbLine
 10
15.180034
 20
-0.131594
 30
0.0
 11
15.252034
 21
-0.156594
 31
0.0
  0
LINE
  5
144
330
1F
100
AcDbEntity
  8
XR$1$TB_814_1
  6
AUSGEZOGEN
 62
     7
440
 33554687
370
    13
100
AcDbLine
 10
15.252034
 20
-0.156594
 30
0.0
 11
15.180034
 21
-0.181594
 31
0.0
  0
LINE
  5
145
330
1F
100
AcDbEntity
  8
XR$1$TB_814_1
  6
AUSGEZOGEN
 62
     7
440
 33554687
370
    13
100
AcDbLine
 10
15.180034
 20
-0.181594
 30
0.0
 11
15.252034
 21
-0.206594
 31
0.0
  0
LINE
  5
146
330
1F
100
AcDbEntity
  8
XR$1$TB_814_1
  6
AUSGEZOGEN
 62
     7
440
 33554687
370
    13
100
AcDbLine
 10
15.252034
 20
-0.206594
 30
0.0
 11
15.180034
 21
-0.231594
 31
0.0
  0
LINE
  5
147
330
1F
100
AcDbEntity
  8
XR$1$TB_814_1
  6
AUSGEZOGEN
 62
     7
440
 33554687
370
    13
100
AcDbLine
 10
15.180034
 20
-0.231594
 30
0.0
 11
15.248431
 21
-0.255343
 31
0.0
  0
LINE
  5
148
330
1F
100
AcDbEntity
  8
XR$1$TB_814_1
  6
AUSGEZOGEN
 62
     7
440
 33554687
370
    13
100
AcDbLine
 10
15.194434
 20
0.013406
 30
0.0
 11
15.252034
 21
-0.006594
 31
0.0
  0
LINE
  5
149
330
1F
100
AcDbEntity
  8
XR$1$TB_814_1
  6
AUSGEZOGEN
 62
     7
440
 33554687
370
    13
100
AcDbLine
 10
15.252034
 20
0.193406
 30
0.0
 11
15.194434
 21
0.173406
 31
0.0
  0
LINE
  5
14A
330
1F
100
AcDbEntity
  8
XR$1$TB_814_1
  6
AUSGEZOGEN
 62
     1
440
 33554687
370
    70
100
AcDbLine
 10
14.719645
 20
-0.608434
 30
0.0
 11
14.719645
 21
0.876566
 31
0.0
  0
LINE
  5
14B
330
1F
100
AcDbEntity
  8
XR$1$TB_814_1
  6
AUSGEZOGEN
 62
    35
440
 33554687
370
    70
100
AcDbLine
 10
15.769645
 20
0.876566
 30
0.0
 11
14.719645
 21
0.876566
 31
0.0
  0
LINE
  5
14C
330
1F
100
AcDbEntity
  8
XR$1$TB_814_1
  6
AUSGEZOGEN
 62
    35
440
 33554687
370
    70
100
AcDbLine
 10
15.769645
 20
-0.608434
 30
0.0
 11
15.769645
 21
0.876566
 31
0.0
  0
LINE
  5
14D
330
1F
100
AcDbEntity
  8
XR$1$TB_814_1
  6
AUSGEZOGEN
 62
    35
440
 33554687
370
    70
100
AcDbLine
 10
14.719645
 20
-0.608434
 30
0.0
 11
15.769645
 21
-0.608434
 31
0.0
  0
MTEXT
  5
14E
330
1F
100
AcDbEntity
  8
XR$1$TB_814_1
  6
AUSGEZOGEN
 62
     7
440
 33554687
370
    -3
100
AcDbMText
 10
14.837874
 20
0.686667
 30
0.0
 40
0.0225
 41
0.381035
 46
0.0
 71
     7
 72
     5
  1
\W1.00;KeraTwin   K20 - Klammer
  7
ARIAL
 73
     1
 44
1.0
  0
MTEXT
  5
14F
330
1F
100
AcDbEntity
  8
XR$1$TB_814_1
  6
AUSGEZOGEN
 62
     7
440
 33554687
370
    -3
100
AcDbMText
 10
14.972048
 20
0.698863
 30
0.0
 40
0.01
 41
0.024254
 46
0.0
 71
     7
 72
     5
  1
\A1;{\fArial|i0|b0;\H0.017500;\W0.911111;\C7;®}\P
  7
ARIAL
 73
     1
 44
1.0
  0
MTEXT
  5
150
330
1F
100
AcDbEntity
  8
XR$1$TB_814_1
  6
AUSGEZOGEN
 62
     6
440
 33554687
370
    -3
100
AcDbMText
 10
14.840317
 20
0.62974
 30
0.0
 40
0.0175
 41
0.216709
 46
0.0
 71
     1
 72
     5
  1
}\P{\fArial|i0|b0;\H0.017500;\W1.000000;\C6;VERTICAL FIXING}\P
  7
ARIAL
 73
     1
 44
0.903614
  0
MTEXT
  5
151
330
1F
100
AcDbEntity
  8
XR$1$TB_814_1
  6
AUSGEZOGEN
 62
     6
440
 33554687
370
    -3
100
AcDbMText
 10
14.838998
 20
0.617361
 30
0.0
 40
0.0175
 41
0.264251
 46
0.0
 71
     7
 72
     5
  1
\W1.00;FIXATION VERTICALE
  7
ARIAL
 73
     1
 44
1.0
  0
MTEXT
  5
152
330
1F
100
AcDbEntity
  8
XR$1$TB_814_1
  6
AUSGEZOGEN
 62
     7
440
 33554687
370
    -3
100
AcDbMText
 10
14.838073
 20
0.648842
 30
0.0
 40
0.0175
 41
0.281188
 46
0.0
 71
     7
 72
     5
  1
\W1.00;VERTIKALVERLEGUNG
  7
ARIAL
 73
     1
 44
1.0
  0
LINE
  5
153
330
1F
100
AcDbEntity
  8
XR$1$TB_814_1
  6
VERDECKT2_S2
 62
     7
440
 33554687
370
    -3
100
AcDbLine
 10
15.243034
 20
0.013406
 30
0.0
 11
15.243034
 21
0.173406
 31
0.0
  0
LINE
  5
154
330
1F
100
AcDbEntity
  8
XR$1$TB_814_1
  6
AUSGEZOGEN
 62
     7
440
 33554687
370
    -3
100
AcDbLine
 10
15.246034
 20
0.013406
 30
0.0
 11
15.246034
 21
0.173406
 31
0.0
  0
LINE
  5
155
330
1F
100
AcDbEntity
  8
XR$1$TB_814_1
  6
AUSGEZOGEN
 62
     7
440
 33554687
370
    -3
100
AcDbLine
 10
15.146034
 20
0.173406
 30
0.0
 11
15.146034
 21
0.013406
 31
0.0
  0
CIRCLE
  5
156
330
1F
100
AcDbEntity
  8
XR$1$TB_814_1
  6
AUSGEZOGEN
 62
     7
440
 33554687
370
    -3
100
AcDbCircle
 10
15.159034
 20
0.026406
 30
0.0
 40
0.0015
  0
CIRCLE
  5
157
330
1F
100
AcDbEntity
  8
XR$1$TB_814_1
  6
AUSGEZOGEN
 62
     7
440
 33554687
370
    -3
100
AcDbCircle
 10
15.159034
 20
0.026406
 30
0.0
 40
0.005
  0
CIRCLE
  5
158
330
1F
100
AcDbEntity
  8
XR$1$TB_814_1
  6
AUSGEZOGEN
 62
     7
440
 33554687
370
    -3
100
AcDbCircle
 10
15.159034
 20
0.160406
 30
0.0
 40
0.0015
  0
CIRCLE
  5
159
330
1F
100
AcDbEntity
  8
XR$1$TB_814_1
  6
AUSGEZOGEN
 62
     7
440
 33554687
370
    -3
100
AcDbCircle
 10
15.159034
 20
0.160406
 30
0.0
 40
0.005
  0
ARC
  5
15A
330
1F
100
AcDbEntity
  8
XR$1$TB_814_1
  6
AUSGEZOGEN
 62
     7
440
 33554687
370
    -3
100
AcDbCircle
 10
15.159034
 20
0.145406
 30
0.0
 40
0.0025
100
AcDbArc
 50
0.0
 51
180.0
  0
ARC
  5
15B
330
1F
100
AcDbEntity
  8
XR$1$TB_814_1
  6
AUSGEZOGEN
 62
     7
440
 33554687
370
    -3
100
AcDbCircle
 10
15.159034
 20
0.125406
 30
0.0
 40
0.0025
100
AcDbArc
 50
180.0
 51
0.0
  0
ARC
  5
15C
330
1F
100
AcDbEntity
  8
XR$1$TB_814_1
  6
AUSGEZOGEN
 62
     7
440
 33554687
370
    -3
100
AcDbCircle
 10
15.159034
 20
0.103406
 30
0.0
 40
0.0025
100
AcDbArc
 50
0.0
 51
180.0
  0
ARC
  5
15D
330
1F
100
AcDbEntity
  8
XR$1$TB_814_1
  6
AUSGEZOGEN
 62
     7
440
 33554687
370
    -3
100
AcDbCircle
 10
15.159034
 20
0.083406
 30
0.0
 40
0.0025
100
AcDbArc
 50
180.0
 51
0.0
  0
ARC
  5
15E
330
1F
100
AcDbEntity
  8
XR$1$TB_814_1
  6
AUSGEZOGEN
 62
     7
440
 33554687
370
    -3
100
AcDbCircle
 10
15.159034
 20
0.061406
 30
0.0
 40
0.0025
100
AcDbArc
 50
0.0
 51
180.0
  0
ARC
  5
15F
330
1F
100
AcDbEntity
  8
XR$1$TB_814_1
  6
AUSGEZOGEN
 62
     7
440
 33554687
370
    -3
100
AcDbCircle
 10
15.159034
 20
0.041406
 30
0.0
 40
0.0025
100
AcDbArc
 50
180.0
 51
0.0
  0
LINE
  5
160
330
1F
100
AcDbEntity
  8
XR$1$TB_814_1
  6
AUSGEZOGEN
 62
     7
440
 33554687
370
    -3
100
AcDbLine
 10
15.161534
 20
0.041406
 30
0.0
 11
15.161534
 21
0.061406
 31
0.0
  0
LINE
  5
161
330
1F
100
AcDbEntity
  8
XR$1$TB_814_1
  6
AUSGEZOGEN
 62
     7
440
 33554687
370
    -3
100
AcDbLine
 10
15.156534
 20
0.061406
 30
0.0
 11
15.156534
 21
0.041406
 31
0.0
  0
LINE
  5
162
330
1F
100
AcDbEntity
  8
XR$1$TB_814_1
  6
AUSGEZOGEN
 62
     7
440
 33554687
370
    -3
100
AcDbLine
 10
15.156534
 20
0.083406
 30
0.0
 11
15.156534
 21
0.103406
 31
0.0
  0
LINE
  5
163
330
1F
100
AcDbEntity
  8
XR$1$TB_814_1
  6
AUSGEZOGEN
 62
     7
440
 33554687
370
    -3
100
AcDbLine
 10
15.161534
 20
0.103406
 30
0.0
 11
15.161534
 21
0.083406
 31
0.0
  0
LINE
  5
164
330
1F
100
AcDbEntity
  8
XR$1$TB_814_1
  6
AUSGEZOGEN
 62
     7
440
 33554687
370
    -3
100
AcDbLine
 10
15.161534
 20
0.125406
 30
0.0
 11
15.161534
 21
0.145406
 31
0.0
  0
LINE
  5
165
330
1F
100
AcDbEntity
  8
XR$1$TB_814_1
  6
AUSGEZOGEN
 62
     7
440
 33554687
370
    -3
100
AcDbLine
 10
15.156534
 20
0.145406
 30
0.0
 11
15.156534
 21
0.125406
 31
0.0
  0
LINE
  5
166
330
1F
100
AcDbEntity
  8
XR$1$TB_814_1
  6
AUSGEZOGEN
 62
     7
440
 33554687
370
    -3
100
AcDbLine
 10
15.252034
 20
0.173406
 30
0.0
 11
15.146034
 21
0.173406
 31
0.0
  0
LINE
  5
167
330
1F
100
AcDbEntity
  8
XR$1$TB_814_1
  6
AUSGEZOGEN
 62
     7
440
 33554687
370
    -3
100
AcDbLine
 10
15.146034
 20
0.013406
 30
0.0
 11
15.252034
 21
0.013406
 31
0.0
  0
MTEXT
  5
168
330
1F
100
AcDbEntity
  8
XR$1$TB_814_1
  6
AUSGEZOGEN
 62
     7
440
 33554687
370
    35
100
AcDbMText
 10
14.934602
 20
0.247399
 30
0.0
 40
0.0125
 41
0.094636
 46
0.0
 71
     7
 72
     5
  1
\W0.92;Art.-Nr.: 681
  7
ARIAL
 11
0.9999999937315056
 21
-0.0001119686961200568
 31
0.0
 73
     1
 44
1.0
  0
LINE
  5
16A
102
{ACAD_REACTORS
330
169
102
}
330
1F
100
AcDbEntity
  8
XR$1$TB_814_1
  6
AUSGEZOGEN
 62
     7
440
 33554687
370
    -3
100
AcDbLine
 10
15.023464
 20
0.253223
 30
0.0
 11
15.085679
 21
0.306657
 31
0.0
  0
LINE
  5
16B
102
{ACAD_REACTORS
330
169
102
}
330
1F
100
AcDbEntity
  8
XR$1$TB_814_1
  6
AUSGEZOGEN
 62
     7
440
 33554687
370
    -3
100
AcDbLine
 10
15.077714
 20
0.299816
 30
0.0
 11
15.077145
 21
0.299327
 31
0.0
  0
LINE
  5
16C
102
{ACAD_REACTORS
330
169
102
}
330
1F
100
AcDbEntity
  8
XR$1$TB_814_1
  6
AUSGEZOGEN
 62
     7
440
 33554687
370
    -3
100
AcDbLine
 10
15.085679
 20
0.306657
 30
0.0
 11
15.085679
 21
0.306657
 31
0.0
  0
LINE
  5
16D
102
{ACAD_REACTORS
330
169
102
}
330
1F
100
AcDbEntity
  8
XR$1$TB_814_1
  6
AUSGEZOGEN
 62
     7
440
 33554687
370
    -3
100
AcDbLine
 10
15.085679
 20
0.306657
 30
0.0
 11
15.085679
 21
0.306657
 31
0.0
  0
LINE
  5
16E
102
{ACAD_REACTORS
330
169
102
}
330
1F
100
AcDbEntity
  8
XR$1$TB_814_1
  6
AUSGEZOGEN
 62
     7
440
 33554687
370
    -3
100
AcDbLine
 10
15.085679
 20
0.306657
 30
0.0
 11
15.085679
 21
0.306657
 31
0.0
  0
LINE
  5
16F
102
{ACAD_REACTORS
330
169
102
}
330
1F
100
AcDbEntity
  8
XR$1$TB_814_1
  6
AUSGEZOGEN
 62
     7
440
 33554687
370
    -3
100
AcDbLine
 10
15.085679
 20
0.306657
 30
0.0
 11
15.076737
 21
0.300954
 31
0.0
  0
LINE
  5
170
102
{ACAD_REACTORS
330
169
102
}
330
1F
100
AcDbEntity
  8
XR$1$TB_814_1
  6
AUSGEZOGEN
 62
     7
440
 33554687
370
    -3
100
AcDbLine
 10
15.076737
 20
0.300954
 30
0.0
 11
15.078691
 21
0.298678
 31
0.0
  0
LINE
  5
171
102
{ACAD_REACTORS
330
169
102
}
330
1F
100
AcDbEntity
  8
XR$1$TB_814_1
  6
AUSGEZOGEN
 62
     7
440
 33554687
370
    -3
100
AcDbLine
 10
15.078691
 20
0.298678
 30
0.0
 11
15.085679
 21
0.306657
 31
0.0
  0
HATCH
  5
172
102
{ACAD_REACTORS
330
169
102
}
330
1F
100
AcDbEntity
  8
XR$1$TB_814_1
  6
AUSGEZOGEN
 62
     7
440
 33554687
370
    -3
100
AcDbHatch
 10
0.0
 20
0.0
 30
0.0
210
0.0
220
0.0
230
1.0
  2
SOLID
 70
     1
 71
     0
 91
        1
 92
        3
 72
     0
 73
     1
 93
        3
 10
15.07869116210938
 20
0.2986780395507813
 10
15.08567926025391
 20
0.3066571655273437
 10
15.07673657226563
 20
0.3009539184570312
 97
        0
 75
     0
 76
     1
 98
        0
  0
MTEXT
  5
173
330
1F
100
AcDbEntity
  8
XR$1$TB_814_1
  6
AUSGEZOGEN
 62
     7
440
 33554687
370
    -3
100
AcDbMText
 10
15.616621
 20
-0.504772
 30
0.0
 40
0.009
 41
0.096773
 46
0.0
 71
     7
 72
     5
  1
\W0.91;STAND: Mai 2020
  7
ARIAL
 73
     1
 44
1.0
  0
VIEWPORT
  5
72
330
6E
100
AcDbEntity
 67
     1
  8
0
100
AcDbViewport
 10
0.105
 20
0.1485
 30
0.0
 40
0.2102
 41
0.2972
 68
     1
 69
     1
 12
0.105
 22
0.1485
 13
0.0
 23
0.0
 14
0.5
 24
0.5
 15
0.5
 25
0.5
 16
0.0
 26
0.0
 36
1.0
 17
0.0
 27
0.0
 37
0.0
 42
50.0
 43
0.0
 44
0.0
 45
0.2972
 50
0.0
 51
0.0
 72
   100
 90
   557152
  1

281
     0
 71
     1
 74
     0
110
0.0
120
0.0
130
0.0
111
1.0
121
0.0
131
0.0
112
0.0
122
1.0
132
0.0
 79
     0
146
0.0
170
     0
 61
     5
348
2F
292
     1
282
     1
141
0.0
142
0.0
 63
   256
361
73
  0
VIEWPORT
  5
176
330
6E
100
AcDbEntity
 67
     1
  8
PLAN_814
  6
AUSGEZOGEN
 62
     7
370
    35
100
AcDbViewport
 10
0.105
 20
0.1485
 30
0.0
 40
0.2102
 41
0.2972
 68
     2
 69
     2
 12
0.0
 22
0.0
 13
0.0
 23
0.0
 14
1.0
 24
1.0
 15
0.0
 25
0.0
 16
0.0
 26
0.0
 36
1.0
 17
15.244645
 27
0.134066
 37
0.0
 42
50.0
 43
0.0
 44
0.0
 45
1.486
 50
0.0
 51
0.0
 72
   100
331
10
331
76
331
78
 90
   557280
  1

281
     0
 71
     1
 74
     0
110
0.0
120
0.0
130
0.0
111
1.0
121
0.0
131
0.0
112
0.0
122
1.0
132
0.0
 79
     0
146
0.0
170
     0
 61
     5
348
2F
292
     1
282
     1
141
0.0
142
0.0
 63
   256
361
177
  0
ENDSEC
  0
SECTION
  2
OBJECTS
  0
DICTIONARY
  5
C
330
0
100
AcDbDictionary
281
     1
  3
ACAD_DETAILVIEWSTYLE
350
1AF
  3
ACAD_GROUP
350
D
  3
ACAD_LAYOUT
350
1A
  3
ACAD_MATERIAL
350
43
  3
ACAD_MLEADERSTYLE
350
6B
  3
ACAD_MLINESTYLE
350
17
  3
ACAD_PLOTSETTINGS
350
19
  3
ACAD_PLOTSTYLENAME
350
E
  3
ACAD_SCALELIST
350
47
  3
ACAD_SECTIONVIEWSTYLE
350
1B0
  3
ACAD_TABLESTYLE
350
69
  3
ACAD_VISUALSTYLE
350
2A
  3
ACDB_RECOMPOSE_DATA
350
1AC
  3
AcDbVariableDictionary
350
178
  0
SUN
  5
6D
330
29
100
AcDbSun
 90
        1
290
     0
 63
     7
421
 16777215
 40
1.0
291
     1
 91
  2455826
 92
 54000000
292
     0
 70
     2
 71
   256
280
     1
  0
DICTIONARY
  5
174
330
1F
100
AcDbDictionary
280
     1
281
     1
  3
ACAD_SORTENTS
360
175
  0
SUN
  5
73
330
72
100
AcDbSun
 90
        1
290
     0
 63
     7
421
 16777215
 40
1.0
291
     1
 91
  2455826
 92
 54000000
292
     0
 70
     2
 71
   256
280
     1
  0
SUN
  5
177
330
176
100
AcDbSun
 90
        1
290
     0
 63
     7
421
 16777215
 40
1.0
291
     1
 91
  2455826
 92
 54000000
292
     0
 70
     2
 71
   256
280
     1
  0
DICTIONARY
  5
1AF
102
{ACAD_REACTORS
330
C
102
}
330
C
100
AcDbDictionary
281
     1
  0
DICTIONARY
  5
D
102
{ACAD_REACTORS
330
C
102
}
330
C
100
AcDbDictionary
281
     1
  3
VERBUNDBLOCK_0
350
84
  3
VERBUNDBLOCK_1
350
169
  0
DICTIONARY
  5
1A
102
{ACAD_REACTORS
330
C
102
}
330
C
100
AcDbDictionary
281
     1
  3
K20 Klammersystem vertikal 15
350
6F
  3
Model
350
22
  0
DICTIONARY
  5
43
102
{ACAD_REACTORS
330
C
102
}
330
C
100
AcDbDictionary
281
     1
  3
ByBlock
350
45
  3
ByLayer
350
44
  3
Global
350
46
  0
DICTIONARY
  5
6B
102
{ACAD_REACTORS
330
C
102
}
330
C
100
AcDbDictionary
281
     1
  3
Standard
350
6C
  0
DICTIONARY
  5
17
102
{ACAD_REACTORS
330
C
102
}
330
C
100
AcDbDictionary
281
     1
  3
Standard
350
18
  0
DICTIONARY
  5
19
102
{ACAD_REACTORS
330
C
102
}
330
C
100
AcDbDictionary
281
     1
  0
ACDBDICTIONARYWDFLT
  5
E
102
{ACAD_REACTORS
330
C
102
}
330
C
100
AcDbDictionary
281
     1
  3
Normal
350
F
100
AcDbDictionaryWithDefault
340
F
  0
DICTIONARY
  5
47
102
{ACAD_REACTORS
330
C
102
}
330
C
100
AcDbDictionary
281
     1
  3
A0
350
48
  3
A1
350
49
  3
A2
350
4A
  3
A3
350
4B
  3
A4
350
4C
  3
A5
350
4D
  3
A6
350
4E
  3
A7
350
4F
  3
A8
350
50
  3
A9
350
51
  3
B0
350
52
  3
B1
350
53
  3
B2
350
54
  3
B3
350
55
  3
B4
350
56
  3
B5
350
57
  3
B6
350
58
  3
B7
350
59
  3
B8
350
5A
  3
B9
350
5B
  3
C0
350
5C
  3
C1
350
5D
  3
C2
350
5E
  3
C3
350
5F
  3
C4
350
60
  3
C5
350
61
  3
C6
350
62
  3
C7
350
63
  3
C8
350
64
  3
C9
350
65
  3
D0
350
66
  3
D1
350
67
  3
D2
350
68
  0
DICTIONARY
  5
1B0
102
{ACAD_REACTORS
330
C
102
}
330
C
100
AcDbDictionary
281
     1
  0
DICTIONARY
  5
69
102
{ACAD_REACTORS
330
C
102
}
330
C
100
AcDbDictionary
281
     1
  3
Standard
350
6A
  0
DICTIONARY
  5
2A
102
{ACAD_REACTORS
330
C
102
}
330
C
100
AcDbDictionary
281
     1
  3
2dWireframe
350
2F
  3
Basic
350
32
  3
Brighten
350
36
  3
ColorChange
350
3A
  3
Conceptual
350
34
  3
Dim
350
35
  3
EdgeColorOff
350
3D
  3
Facepattern
350
39
  3
Flat
350
2B
  3
FlatWithEdges
350
2C
  3
Gouraud
350
2D
  3
GouraudWithEdges
350
2E
  3
Hidden
350
31
  3
JitterOff
350
3B
  3
Linepattern
350
38
  3
OverhangOff
350
3C
  3
Realistic
350
33
  3
Shaded
350
42
  3
Shaded with edges
350
41
  3
Shades of Gray
350
3E
  3
Sketchy
350
3F
  3
Thicken
350
37
  3
Wireframe
350
30
  3
X-Ray
350
40
  0
XRECORD
  5
1AC
102
{ACAD_REACTORS
330
C
102
}
330
C
100
AcDbXrecord
280
     1
 90
        1
330
6A
  0
DICTIONARY
  5
178
102
{ACAD_REACTORS
330
C
102
}
330
C
100
AcDbDictionary
281
     1
  3
CANNOSCALE
350
179
  3
CMLEADERSTYLE
350
1AE
  3
CTABLESTYLE
350
1AD
  0
SORTENTSTABLE
  5
175
102
{ACAD_REACTORS
330
174
102
}
330
174
100
AcDbSortentsTable
330
1F
331
7D
  5
88
331
7F
  5
89
331
80
  5
8A
331
81
  5
8B
331
82
  5
7D
331
83
  5
7F
331
85
  5
80
331
86
  5
81
331
87
  5
82
331
88
  5
83
331
89
  5
85
331
8A
  5
86
331
8B
  5
8C
331
8C
  5
8D
331
8D
  5
8E
331
8E
  5
8F
331
8F
  5
90
331
90
  5
91
331
91
  5
92
331
92
  5
93
331
93
  5
94
331
94
  5
95
331
95
  5
96
331
96
  5
97
331
97
  5
98
331
98
  5
99
331
99
  5
9A
331
9A
  5
9B
331
9B
  5
9C
331
9C
  5
9D
331
9D
  5
9E
331
9E
  5
9F
331
9F
  5
A0
331
A0
  5
A1
331
A1
  5
A2
331
A2
  5
A3
331
A3
  5
A4
331
A4
  5
A5
331
A5
  5
A6
331
A6
  5
A7
331
A7
  5
A8
331
A8
  5
A9
331
A9
  5
AA
331
AA
  5
AB
331
AB
  5
AC
331
AC
  5
AD
331
AD
  5
AE
331
AE
  5
AF
331
AF
  5
B0
331
B0
  5
B1
331
B1
  5
B2
331
B2
  5
B3
331
B3
  5
B4
331
B4
  5
B5
331
B5
  5
B6
331
B6
  5
B7
331
B7
  5
B8
331
B8
  5
B9
331
B9
  5
BA
331
BA
  5
BB
331
BB
  5
BC
331
BC
  5
BD
331
BD
  5
BE
331
BE
  5
BF
331
BF
  5
C0
331
C0
  5
C1
331
C1
  5
C2
331
C2
  5
C3
331
C3
  5
C4
331
C4
  5
C5
331
C5
  5
C6
331
C6
  5
C7
331
C7
  5
C8
331
C8
  5
C9
331
C9
  5
CA
331
CA
  5
CB
331
CB
  5
CC
331
CC
  5
CD
331
CD
  5
CE
331
CE
  5
CF
331
CF
  5
D0
331
D0
  5
D1
331
D1
  5
D2
331
D2
  5
D3
331
D3
  5
D4
331
D4
  5
D5
331
D5
  5
D6
331
D6
  5
D7
331
D7
  5
D8
331
D8
  5
D9
331
D9
  5
DA
331
DA
  5
DB
331
DB
  5
DC
331
DC
  5
DD
331
DD
  5
DE
331
DE
  5
DF
331
DF
  5
E0
331
E0
  5
E1
331
E1
  5
E2
331
E2
  5
E3
331
E3
  5
E4
331
E4
  5
E5
331
E5
  5
E6
331
E6
  5
E7
331
E7
  5
E8
331
E8
  5
E9
331
E9
  5
EA
331
EA
  5
EB
331
EB
  5
EC
331
EC
  5
ED
331
ED
  5
EE
331
EE
  5
EF
331
EF
  5
F0
331
F0
  5
F1
331
F1
  5
F2
331
F2
  5
F3
331
F3
  5
F4
331
F4
  5
F5
331
F5
  5
F6
331
F6
  5
F7
331
F7
  5
F8
331
F8
  5
F9
331
F9
  5
FA
331
FA
  5
FB
331
FB
  5
FC
331
FC
  5
FD
331
FD
  5
FE
331
FE
  5
FF
331
FF
  5
100
331
100
  5
101
331
101
  5
102
331
102
  5
103
331
103
  5
104
331
104
  5
105
331
105
  5
106
331
106
  5
107
331
107
  5
108
331
108
  5
109
331
109
  5
10A
331
10A
  5
10B
331
10B
  5
10C
331
10C
  5
10D
331
10D
  5
10E
331
10E
  5
10F
331
10F
  5
110
331
110
  5
111
331
111
  5
112
331
112
  5
113
331
113
  5
114
331
114
  5
115
331
115
  5
116
331
116
  5
117
331
117
  5
118
331
118
  5
119
331
119
  5
11A
331
11A
  5
11B
331
11B
  5
11C
331
11C
  5
11D
331
11D
  5
11E
331
11E
  5
11F
331
11F
  5
120
331
120
  5
121
331
121
  5
122
331
122
  5
123
331
123
  5
124
331
124
  5
125
331
125
  5
126
331
126
  5
127
331
127
  5
128
331
128
  5
129
331
129
  5
12A
331
12A
  5
12B
331
12B
  5
12C
331
12C
  5
12D
331
12D
  5
12E
331
12E
  5
12F
331
12F
  5
130
331
130
  5
131
331
131
  5
132
331
132
  5
133
331
133
  5
134
331
134
  5
135
331
135
  5
136
331
136
  5
137
331
137
  5
138
331
138
  5
139
331
139
  5
13A
331
13A
  5
13B
331
13B
  5
13C
331
13C
  5
13D
331
13D
  5
13E
331
13E
  5
13F
331
13F
  5
140
331
140
  5
141
331
141
  5
142
331
142
  5
143
331
143
  5
144
331
144
  5
145
331
145
  5
146
331
146
  5
147
331
147
  5
148
331
148
  5
149
331
149
  5
14A
331
14A
  5
14B
331
14B
  5
14C
331
14C
  5
14D
331
14D
  5
14E
331
14E
  5
14F
331
14F
  5
150
331
150
  5
151
331
151
  5
152
331
152
  5
153
331
153
  5
154
331
154
  5
155
331
155
  5
156
331
156
  5
157
331
157
  5
158
331
158
  5
159
331
159
  5
15A
331
15A
  5
15B
331
15B
  5
15C
331
15C
  5
15D
331
15D
  5
15E
331
15E
  5
15F
331
15F
  5
160
331
160
  5
161
331
161
  5
162
331
162
  5
163
331
163
  5
164
331
164
  5
165
331
165
  5
166
331
166
  5
167
331
167
  5
168
331
168
  5
16A
331
16A
  5
16B
331
16B
  5
16C
331
16C
  5
16D
331
16D
  5
16E
331
16E
  5
16F
331
16F
  5
170
331
170
  5
171
331
171
  5
172
331
172
  5
87
  0
GROUP
  5
84
102
{ACAD_REACTORS
330
D
102
}
330
D
100
AcDbGroup
300

 70
     0
 71
     1
340
85
340
86
  0
GROUP
  5
169
102
{ACAD_REACTORS
330
D
102
}
330
D
100
AcDbGroup
300

 70
     0
 71
     1
340
16A
340
16B
340
16C
340
16D
340
16E
340
16F
340
170
340
171
340
172
  0
LAYOUT
  5
6F
102
{ACAD_REACTORS
330
1A
102
}
330
1A
100
AcDbPlotSettings
  1

  2
none_device
  4
none_user_media
  6

 40
0.0
 41
0.0
 42
0.0
 43
0.0
 44
297.0
 45
209.9
 46
0.0
 47
0.0
 48
0.0
 49
0.0
140
0.0
141
0.0
142
1000.0
143
1.0
 70
   688
 72
     1
 73
     1
 74
     5
  7

 75
    33
 76
     0
 77
     2
 78
   300
147
1000.0
148
0.0
149
0.0
100
AcDbLayout
  1
K20 Klammersystem vertikal 15
 70
     0
 71
     1
 10
-0.0001
 20
-0.0001
 11
0.2101
 21
0.2971
 12
0.0
 22
0.0
 32
0.0
 14
-0.0001
 24
-0.0001
 34
0.0
 15
0.2101
 25
0.2971
 35
0.0
146
0.0
 13
0.0
 23
0.0
 33
0.0
 16
1.0
 26
0.0
 36
0.0
 17
0.0
 27
1.0
 37
0.0
 76
     0
330
6E
331
72
  0
LAYOUT
  5
22
102
{ACAD_REACTORS
330
1A
102
}
330
1A
100
AcDbPlotSettings
  1

  2
none_device
  4
Letter_(8.50_x_11.00_Inches)
  6

 40
6.35
 41
6.35
 42
6.350005
 43
6.350005
 44
215.9
 45
279.4
 46
0.0
 47
0.0
 48
0.0
 49
0.0
140
0.0
141
0.0
142
1.0
143
1.0
 70
  1712
 72
     0
 73
     0
 74
     0
  7

 75
     0
 76
     0
 77
     2
 78
   300
147
1.0
148
0.0
149
0.0
100
AcDbLayout
  1
Model
 70
     1
 71
     0
 10
14.719645
 20
-0.608434
 11
15.769645
 21
0.876566
 12
0.0
 22
0.0
 32
0.0
 14
14.719645
 24
-0.608434
 34
14.719645
 15
15.769645
 25
0.876566
 35
15.769645
146
0.0
 13
0.0
 23
0.0
 33
0.0
 16
1.0
 26
0.0
 36
0.0
 17
0.0
 27
1.0
 37
0.0
 76
     0
330
1F
331
29
  0
MATERIAL
  5
45
102
{ACAD_REACTORS
330
43
102
}
330
43
100
AcDbMaterial
  1
ByBlock
 72
     1
 94
      127
  0
MATERIAL
  5
44
102
{ACAD_REACTORS
330
43
102
}
330
43
100
AcDbMaterial
  1
ByLayer
 72
     1
 94
      127
  0
MATERIAL
  5
46
102
{ACAD_REACTORS
330
43
102
}
330
43
100
AcDbMaterial
  1
Global
 72
     1
 94
      127
  0
MLEADERSTYLE
  5
6C
102
{ACAD_REACTORS
330
6B
102
}
330
6B
100
AcDbMLeaderStyle
179
     2
170
     2
171
     1
172
     0
 90
        2
 40
0.0
 41
0.0
173
     1
 91
-1056964608
340
14
 92
       -2
290
     1
 42
0.09
291
     1
 43
0.36
  3
Standard
341
0
 44
0.18
300

342
11
174
     1
178
     6
175
     1
176
     0
 93
-1056964608
 45
0.18
292
     0
297
     0
 46
0.18
343
0
 94
-1056964608
 47
1.0
 49
1.0
140
1.0
293
     1
141
0.0
294
     1
177
     0
142
1.0
295
     0
296
     0
143
0.125
271
     0
272
     9
273
     9
  0
MLINESTYLE
  5
18
102
{ACAD_REACTORS
330
17
102
}
330
17
100
AcDbMlineStyle
  2
Standard
 70
     0
  3

 62
   256
 51
90.0
 52
90.0
 71
     2
 49
0.5
 62
   256
  6
BYLAYER
 49
-0.5
 62
   256
  6
BYLAYER
  0
ACDBPLACEHOLDER
  5
F
102
{ACAD_REACTORS
330
E
102
}
330
E
  0
SCALE
  5
48
102
{ACAD_REACTORS
330
47
102
}
330
47
100
AcDbScale
 70
     0
300
1:1
140
1.0
141
1.0
290
     1
  0
SCALE
  5
49
102
{ACAD_REACTORS
330
47
102
}
330
47
100
AcDbScale
 70
     0
300
1:2
140
1.0
141
2.0
290
     0
  0
SCALE
  5
4A
102
{ACAD_REACTORS
330
47
102
}
330
47
100
AcDbScale
 70
     0
300
1:4
140
1.0
141
4.0
290
     0
  0
SCALE
  5
4B
102
{ACAD_REACTORS
330
47
102
}
330
47
100
AcDbScale
 70
     0
300
1:5
140
1.0
141
5.0
290
     0
  0
SCALE
  5
4C
102
{ACAD_REACTORS
330
47
102
}
330
47
100
AcDbScale
 70
     0
300
1:8
140
1.0
141
8.0
290
     0
  0
SCALE
  5
4D
102
{ACAD_REACTORS
330
47
102
}
330
47
100
AcDbScale
 70
     0
300
1:10
140
1.0
141
10.0
290
     0
  0
SCALE
  5
4E
102
{ACAD_REACTORS
330
47
102
}
330
47
100
AcDbScale
 70
     0
300
1:16
140
1.0
141
16.0
290
     0
  0
SCALE
  5
4F
102
{ACAD_REACTORS
330
47
102
}
330
47
100
AcDbScale
 70
     0
300
1:20
140
1.0
141
20.0
290
     0
  0
SCALE
  5
50
102
{ACAD_REACTORS
330
47
102
}
330
47
100
AcDbScale
 70
     0
300
1:30
140
1.0
141
30.0
290
     0
  0
SCALE
  5
51
102
{ACAD_REACTORS
330
47
102
}
330
47
100
AcDbScale
 70
     0
300
1:40
140
1.0
141
40.0
290
     0
  0
SCALE
  5
52
102
{ACAD_REACTORS
330
47
102
}
330
47
100
AcDbScale
 70
     0
300
1:50
140
1.0
141
50.0
290
     0
  0
SCALE
  5
53
102
{ACAD_REACTORS
330
47
102
}
330
47
100
AcDbScale
 70
     0
300
1:100
140
1.0
141
100.0
290
     0
  0
SCALE
  5
54
102
{ACAD_REACTORS
330
47
102
}
330
47
100
AcDbScale
 70
     0
300
2:1
140
2.0
141
1.0
290
     0
  0
SCALE
  5
55
102
{ACAD_REACTORS
330
47
102
}
330
47
100
AcDbScale
 70
     0
300
4:1
140
4.0
141
1.0
290
     0
  0
SCALE
  5
56
102
{ACAD_REACTORS
330
47
102
}
330
47
100
AcDbScale
 70
     0
300
8:1
140
8.0
141
1.0
290
     0
  0
SCALE
  5
57
102
{ACAD_REACTORS
330
47
102
}
330
47
100
AcDbScale
 70
     0
300
10:1
140
10.0
141
1.0
290
     0
  0
SCALE
  5
58
102
{ACAD_REACTORS
330
47
102
}
330
47
100
AcDbScale
 70
     0
300
100:1
140
100.0
141
1.0
290
     0
  0
SCALE
  5
59
102
{ACAD_REACTORS
330
47
102
}
330
47
100
AcDbScale
 70
     0
300
1/128" = 1'-0"
140
0.007812
141
12.0
290
     0
  0
SCALE
  5
5A
102
{ACAD_REACTORS
330
47
102
}
330
47
100
AcDbScale
 70
     0
300
1/64" = 1'-0"
140
0.015625
141
12.0
290
     0
  0
SCALE
  5
5B
102
{ACAD_REACTORS
330
47
102
}
330
47
100
AcDbScale
 70
     0
300
1/32" = 1'-0"
140
0.03125
141
12.0
290
     0
  0
SCALE
  5
5C
102
{ACAD_REACTORS
330
47
102
}
330
47
100
AcDbScale
 70
     0
300
1/16" = 1'-0"
140
0.0625
141
12.0
290
     0
  0
SCALE
  5
5D
102
{ACAD_REACTORS
330
47
102
}
330
47
100
AcDbScale
 70
     0
300
3/32" = 1'-0"
140
0.09375
141
12.0
290
     0
  0
SCALE
  5
5E
102
{ACAD_REACTORS
330
47
102
}
330
47
100
AcDbScale
 70
     0
300
1/8" = 1'-0"
140
0.125
141
12.0
290
     0
  0
SCALE
  5
5F
102
{ACAD_REACTORS
330
47
102
}
330
47
100
AcDbScale
 70
     0
300
3/16" = 1'-0"
140
0.1875
141
12.0
290
     0
  0
SCALE
  5
60
102
{ACAD_REACTORS
330
47
102
}
330
47
100
AcDbScale
 70
     0
300
1/4" = 1'-0"
140
0.25
141
12.0
290
     0
  0
SCALE
  5
61
102
{ACAD_REACTORS
330
47
102
}
330
47
100
AcDbScale
 70
     0
300
3/8" = 1'-0"
140
0.375
141
12.0
290
     0
  0
SCALE
  5
62
102
{ACAD_REACTORS
330
47
102
}
330
47
100
AcDbScale
 70
     0
300
1/2" = 1'-0"
140
0.5
141
12.0
290
     0
  0
SCALE
  5
63
102
{ACAD_REACTORS
330
47
102
}
330
47
100
AcDbScale
 70
     0
300
3/4" = 1'-0"
140
0.75
141
12.0
290
     0
  0
SCALE
  5
64
102
{ACAD_REACTORS
330
47
102
}
330
47
100
AcDbScale
 70
     0
300
1" = 1'-0"
140
1.0
141
12.0
290
     0
  0
SCALE
  5
65
102
{ACAD_REACTORS
330
47
102
}
330
47
100
AcDbScale
 70
     0
300
1-1/2" = 1'-0"
140
1.5
141
12.0
290
     0
  0
SCALE
  5
66
102
{ACAD_REACTORS
330
47
102
}
330
47
100
AcDbScale
 70
     0
300
3" = 1'-0"
140
3.0
141
12.0
290
     0
  0
SCALE
  5
67
102
{ACAD_REACTORS
330
47
102
}
330
47
100
AcDbScale
 70
     0
300
6" = 1'-0"
140
6.0
141
12.0
290
     0
  0
SCALE
  5
68
102
{ACAD_REACTORS
330
47
102
}
330
47
100
AcDbScale
 70
     0
300
1'-0" = 1'-0"
140
12.0
141
12.0
290
     0
  0
TABLESTYLE
  5
6A
102
{ACAD_REACTORS
330
69
102
}
102
{ACAD_XDICTIONARY
360
1AA
102
}
330
69
100
AcDbTableStyle
  3
Standard
 70
     0
 71
     0
 40
0.06
 41
0.06
280
     0
281
     0
  7
Standard
140
0.18
170
     2
 62
     0
 63
   257
283
     0
 90
        4
 91
        0
  1

274
    -2
284
     1
 64
     0
275
    -2
285
     1
 65
     0
276
    -2
286
     1
 66
     0
277
    -2
287
     1
 67
     0
278
    -2
288
     1
 68
     0
279
    -2
289
     1
 69
     0
  7
Standard
140
0.25
170
     5
 62
     0
 63
   257
283
     0
 90
        4
 91
        0
  1

274
    -2
284
     1
 64
     0
275
    -2
285
     1
 65
     0
276
    -2
286
     1
 66
     0
277
    -2
287
     1
 67
     0
278
    -2
288
     1
 68
     0
279
    -2
289
     1
 69
     0
  7
Standard
140
0.18
170
     5
 62
     0
 63
   257
283
     0
 90
        4
 91
        0
  1

274
    -2
284
     1
 64
     0
275
    -2
285
     1
 65
     0
276
    -2
286
     1
 66
     0
277
    -2
287
     1
 67
     0
278
    -2
288
     1
 68
     0
279
    -2
289
     1
 69
     0
  0
VISUALSTYLE
  5
2F
102
{ACAD_REACTORS
330
2A
102
}
102
{ACAD_XDICTIONARY
360
182
102
}
330
2A
100
AcDbVisualStyle
  2
2dWireframe
 70
     4
177
     2
291
     0
 71
     0
176
     1
 72
     2
176
     1
 73
     0
176
     1
 90
        0
176
     1
 40
0.6
176
     1
 41
30.0
176
     1
 62
     5
 63
     7
421
 16777215
176
     1
 74
     1
176
     1
 91
        4
176
     1
 64
     7
176
     1
 65
   257
176
     1
 75
     1
176
     1
175
     1
176
     1
 42
1.0
176
     1
 92
        0
176
     1
 66
   257
176
     1
 43
1.0
176
     1
 76
     1
176
     1
 77
     6
176
     1
 78
     2
176
     1
 67
     7
176
     1
 79
     5
176
     1
170
     0
176
     1
171
     0
176
     1
290
     0
176
     1
 93
        1
176
     1
 44
0.0
176
     1
173
     0
176
     1
  0
VISUALSTYLE
  5
32
102
{ACAD_REACTORS
330
2A
102
}
102
{ACAD_XDICTIONARY
360
188
102
}
330
2A
100
AcDbVisualStyle
  2
Basic
 70
     7
177
     2
291
     1
 71
     1
176
     1
 72
     0
176
     1
 73
     1
176
     1
 90
        0
176
     1
 40
0.6
176
     1
 41
30.0
176
     1
 62
     5
 63
     7
421
 16777215
176
     1
 74
     0
176
     1
 91
        4
176
     1
 64
     7
176
     1
 65
   257
176
     1
 75
     1
176
     1
175
     1
176
     1
 42
1.0
176
     1
 92
        8
176
     1
 66
     7
176
     1
 43
1.0
176
     1
 76
     1
176
     1
 77
     6
176
     1
 78
     2
176
     1
 67
     7
176
     1
 79
     5
176
     1
170
     0
176
     1
171
     0
176
     1
290
     0
176
     1
 93
        1
176
     1
 44
0.0
176
     1
173
     0
176
     1
  0
VISUALSTYLE
  5
36
102
{ACAD_REACTORS
330
2A
102
}
102
{ACAD_XDICTIONARY
360
190
102
}
330
2A
100
AcDbVisualStyle
  2
Brighten
 70
    12
177
     2
291
     1
 71
     2
176
     1
 72
     2
176
     1
 73
     0
176
     1
 90
        0
176
     1
 40
0.6
176
     1
 41
30.0
176
     1
 62
     5
 63
     7
421
 16777215
176
     1
 74
     1
176
     1
 91
        4
176
     1
 64
     7
176
     1
 65
   257
176
     1
 75
     1
176
     1
175
     1
176
     1
 42
1.0
176
     1
 92
        8
176
     1
 66
     7
176
     1
 43
1.0
176
     1
 76
     1
176
     1
 77
     6
176
     1
 78
     2
176
     1
 67
     7
176
     1
 79
     5
176
     1
170
     0
176
     1
171
     0
176
     1
290
     0
176
     1
 93
        1
176
     1
 44
50.0
176
     1
173
     0
176
     1
  0
VISUALSTYLE
  5
3A
102
{ACAD_REACTORS
330
2A
102
}
102
{ACAD_XDICTIONARY
360
198
102
}
330
2A
100
AcDbVisualStyle
  2
ColorChange
 70
    16
177
     2
291
     1
 71
     2
176
     1
 72
     2
176
     1
 73
     3
176
     1
 90
        0
176
     1
 40
0.6
176
     1
 41
30.0
176
     1
 62
     5
 63
     8
421
  8421504
176
     1
 74
     1
176
     1
 91
        4
176
     1
 64
     7
176
     1
 65
   257
176
     1
 75
     1
176
     1
175
     1
176
     1
 42
1.0
176
     1
 92
        8
176
     1
 66
     8
424
  8421504
176
     1
 43
1.0
176
     1
 76
     1
176
     1
 77
     6
176
     1
 78
     2
176
     1
 67
     7
176
     1
 79
     5
176
     1
170
     0
176
     1
171
     0
176
     1
290
     0
176
     1
 93
        1
176
     1
 44
0.0
176
     1
173
     0
176
     1
  0
VISUALSTYLE
  5
34
102
{ACAD_REACTORS
330
2A
102
}
102
{ACAD_XDICTIONARY
360
18C
102
}
330
2A
100
AcDbVisualStyle
  2
Conceptual
 70
     9
177
     2
291
     0
 71
     3
176
     1
 72
     2
176
     1
 73
     0
176
     1
 90
        0
176
     1
 40
0.6
176
     1
 41
30.0
176
     1
 62
     5
 63
     7
421
 16777215
176
     1
 74
     2
176
     1
 91
        2
176
     1
 64
     7
176
     1
 65
   257
176
     1
 75
     1
176
     1
175
     1
176
     1
 42
179.0
176
     1
 92
        8
176
     1
 66
     7
176
     1
 43
1.0
176
     1
 76
     1
176
     1
 77
     6
176
     1
 78
     2
176
     1
 67
     7
176
     1
 79
     3
176
     1
170
     0
176
     1
171
     0
176
     1
290
     0
176
     1
 93
        1
176
     1
 44
0.0
176
     1
173
     0
176
     1
  0
VISUALSTYLE
  5
35
102
{ACAD_REACTORS
330
2A
102
}
102
{ACAD_XDICTIONARY
360
18E
102
}
330
2A
100
AcDbVisualStyle
  2
Dim
 70
    11
177
     2
291
     1
 71
     2
176
     1
 72
     2
176
     1
 73
     0
176
     1
 90
        0
176
     1
 40
0.6
176
     1
 41
30.0
176
     1
 62
     5
 63
     7
421
 16777215
176
     1
 74
     1
176
     1
 91
        4
176
     1
 64
     7
176
     1
 65
   257
176
     1
 75
     1
176
     1
175
     1
176
     1
 42
1.0
176
     1
 92
        8
176
     1
 66
     7
176
     1
 43
1.0
176
     1
 76
     1
176
     1
 77
     6
176
     1
 78
     2
176
     1
 67
     7
176
     1
 79
     5
176
     1
170
     0
176
     1
171
     0
176
     1
290
     0
176
     1
 93
        1
176
     1
 44
-50.0
176
     1
173
     0
176
     1
  0
VISUALSTYLE
  5
3D
102
{ACAD_REACTORS
330
2A
102
}
102
{ACAD_XDICTIONARY
360
19E
102
}
330
2A
100
AcDbVisualStyle
  2
EdgeColorOff
 70
    22
177
     2
291
     1
 71
     2
176
     0
 72
     2
176
     0
 73
     0
176
     0
 90
        0
176
     0
 40
0.6
176
     0
 41
30.0
176
     0
 62
     5
 63
     7
421
 16777215
176
     0
 74
     1
176
     0
 91
        4
176
     0
 64
     7
176
     0
 65
   257
176
     0
 75
     1
176
     0
175
     1
176
     0
 42
1.0
176
     0
 92
        8
176
     2
 66
     7
176
     0
 43
1.0
176
     0
 76
     1
176
     0
 77
     6
176
     0
 78
     2
176
     0
 67
     7
176
     0
 79
     5
176
     0
170
     0
176
     0
171
     0
176
     0
290
     0
176
     0
 93
        1
176
     0
 44
0.0
176
     0
173
     0
176
     0
  0
VISUALSTYLE
  5
39
102
{ACAD_REACTORS
330
2A
102
}
102
{ACAD_XDICTIONARY
360
196
102
}
330
2A
100
AcDbVisualStyle
  2
Facepattern
 70
    15
177
     2
291
     1
 71
     2
176
     1
 72
     2
176
     1
 73
     0
176
     1
 90
        0
176
     1
 40
0.6
176
     1
 41
30.0
176
     1
 62
     5
 63
     7
421
 16777215
176
     1
 74
     1
176
     1
 91
        4
176
     1
 64
     7
176
     1
 65
   257
176
     1
 75
     1
176
     1
175
     1
176
     1
 42
1.0
176
     1
 92
        8
176
     1
 66
     7
176
     1
 43
1.0
176
     1
 76
     1
176
     1
 77
     6
176
     1
 78
     2
176
     1
 67
     7
176
     1
 79
     5
176
     1
170
     0
176
     1
171
     0
176
     1
290
     0
176
     1
 93
        1
176
     1
 44
0.0
176
     1
173
     0
176
     1
  0
VISUALSTYLE
  5
2B
102
{ACAD_REACTORS
330
2A
102
}
102
{ACAD_XDICTIONARY
360
17A
102
}
330
2A
100
AcDbVisualStyle
  2
Flat
 70
     0
177
     2
291
     1
 71
     2
176
     1
 72
     1
176
     1
 73
     1
176
     1
 90
        2
176
     1
 40
0.6
176
     1
 41
30.0
176
     1
 62
     5
 63
     7
421
 16777215
176
     1
 74
     0
176
     1
 91
        0
176
     1
 64
     7
176
     1
 65
   257
176
     1
 75
     1
176
     1
175
     1
176
     1
 42
1.0
176
     1
 92
        8
176
     1
 66
     7
176
     1
 43
1.0
176
     1
 76
     1
176
     1
 77
     6
176
     1
 78
     2
176
     1
 67
     7
176
     1
 79
     5
176
     1
170
     0
176
     1
171
     0
176
     1
290
     0
176
     1
 93
       13
176
     1
 44
0.0
176
     1
173
     0
176
     1
  0
VISUALSTYLE
  5
2C
102
{ACAD_REACTORS
330
2A
102
}
102
{ACAD_XDICTIONARY
360
17C
102
}
330
2A
100
AcDbVisualStyle
  2
FlatWithEdges
 70
     1
177
     2
291
     1
 71
     2
176
     1
 72
     1
176
     1
 73
     1
176
     1
 90
        2
176
     1
 40
0.6
176
     1
 41
30.0
176
     1
 62
     5
 63
     7
421
 16777215
176
     1
 74
     1
176
     1
 91
        0
176
     1
 64
     7
176
     1
 65
   257
176
     1
 75
     1
176
     1
175
     1
176
     1
 42
1.0
176
     1
 92
        0
176
     1
 66
   257
176
     1
 43
1.0
176
     1
 76
     1
176
     1
 77
     6
176
     1
 78
     2
176
     1
 67
     7
176
     1
 79
     5
176
     1
170
     0
176
     1
171
     0
176
     1
290
     0
176
     1
 93
       13
176
     1
 44
0.0
176
     1
173
     0
176
     1
  0
VISUALSTYLE
  5
2D
102
{ACAD_REACTORS
330
2A
102
}
102
{ACAD_XDICTIONARY
360
17E
102
}
330
2A
100
AcDbVisualStyle
  2
Gouraud
 70
     2
177
     2
291
     1
 71
     2
176
     1
 72
     2
176
     1
 73
     1
176
     1
 90
        2
176
     1
 40
0.6
176
     1
 41
30.0
176
     1
 62
     5
 63
     7
421
 16777215
176
     1
 74
     0
176
     1
 91
        0
176
     1
 64
     7
176
     1
 65
   257
176
     1
 75
     1
176
     1
175
     1
176
     1
 42
1.0
176
     1
 92
        0
176
     1
 66
     7
176
     1
 43
1.0
176
     1
 76
     1
176
     1
 77
     6
176
     1
 78
     2
176
     1
 67
     7
176
     1
 79
     5
176
     1
170
     0
176
     1
171
     0
176
     1
290
     0
176
     1
 93
       13
176
     1
 44
0.0
176
     1
173
     0
176
     1
  0
VISUALSTYLE
  5
2E
102
{ACAD_REACTORS
330
2A
102
}
102
{ACAD_XDICTIONARY
360
180
102
}
330
2A
100
AcDbVisualStyle
  2
GouraudWithEdges
 70
     3
177
     2
291
     1
 71
     2
176
     1
 72
     2
176
     1
 73
     1
176
     1
 90
        2
176
     1
 40
0.6
176
     1
 41
30.0
176
     1
 62
     5
 63
     7
421
 16777215
176
     1
 74
     1
176
     1
 91
        0
176
     1
 64
     7
176
     1
 65
   257
176
     1
 75
     1
176
     1
175
     1
176
     1
 42
1.0
176
     1
 92
        0
176
     1
 66
   257
176
     1
 43
1.0
176
     1
 76
     1
176
     1
 77
     6
176
     1
 78
     2
176
     1
 67
     7
176
     1
 79
     5
176
     1
170
     0
176
     1
171
     0
176
     1
290
     0
176
     1
 93
       13
176
     1
 44
0.0
176
     1
173
     0
176
     1
  0
VISUALSTYLE
  5
31
102
{ACAD_REACTORS
330
2A
102
}
102
{ACAD_XDICTIONARY
360
186
102
}
330
2A
100
AcDbVisualStyle
  2
Hidden
 70
     6
177
     2
291
     0
 71
     1
176
     1
 72
     2
176
     1
 73
     2
176
     1
 90
        0
176
     1
 40
0.6
176
     1
 41
30.0
176
     1
 62
     5
 63
     7
421
 16777215
176
     1
 74
     2
176
     1
 91
        2
176
     1
 64
     7
176
     1
 65
   257
176
     1
 75
     2
176
     1
175
     1
176
     1
 42
40.0
176
     1
 92
        0
176
     1
 66
   257
176
     1
 43
1.0
176
     1
 76
     1
176
     1
 77
     6
176
     1
 78
     2
176
     1
 67
     7
176
     1
 79
     3
176
     1
170
     0
176
     1
171
     0
176
     1
290
     0
176
     1
 93
        1
176
     1
 44
0.0
176
     1
173
     0
176
     1
  0
VISUALSTYLE
  5
3B
102
{ACAD_REACTORS
330
2A
102
}
102
{ACAD_XDICTIONARY
360
19A
102
}
330
2A
100
AcDbVisualStyle
  2
JitterOff
 70
    20
177
     2
291
     1
 71
     2
176
     0
 72
     2
176
     0
 73
     0
176
     0
 90
        0
176
     0
 40
0.6
176
     0
 41
30.0
176
     0
 62
     5
 63
     7
421
 16777215
176
     0
 74
     1
176
     0
 91
        4
176
     0
 64
     7
176
     0
 65
   257
176
     0
 75
     1
176
     0
175
     1
176
     0
 42
1.0
176
     0
 92
       10
176
     2
 66
     7
176
     0
 43
1.0
176
     0
 76
     1
176
     0
 77
     6
176
     0
 78
     2
176
     0
 67
     7
176
     0
 79
     5
176
     0
170
     0
176
     0
171
     0
176
     0
290
     0
176
     0
 93
        1
176
     0
 44
0.0
176
     0
173
     0
176
     0
  0
VISUALSTYLE
  5
38
102
{ACAD_REACTORS
330
2A
102
}
102
{ACAD_XDICTIONARY
360
194
102
}
330
2A
100
AcDbVisualStyle
  2
Linepattern
 70
    14
177
     2
291
     1
 71
     2
176
     1
 72
     2
176
     1
 73
     0
176
     1
 90
        0
176
     1
 40
0.6
176
     1
 41
30.0
176
     1
 62
     5
 63
     7
421
 16777215
176
     1
 74
     1
176
     1
 91
        4
176
     1
 64
     7
176
     1
 65
   257
176
     1
 75
     7
176
     1
175
     7
176
     1
 42
1.0
176
     1
 92
        8
176
     1
 66
     7
176
     1
 43
1.0
176
     1
 76
     1
176
     1
 77
     6
176
     1
 78
     2
176
     1
 67
     7
176
     1
 79
     5
176
     1
170
     0
176
     1
171
     0
176
     1
290
     0
176
     1
 93
        1
176
     1
 44
0.0
176
     1
173
     0
176
     1
  0
VISUALSTYLE
  5
3C
102
{ACAD_REACTORS
330
2A
102
}
102
{ACAD_XDICTIONARY
360
19C
102
}
330
2A
100
AcDbVisualStyle
  2
OverhangOff
 70
    21
177
     2
291
     1
 71
     2
176
     0
 72
     2
176
     0
 73
     0
176
     0
 90
        0
176
     0
 40
0.6
176
     0
 41
30.0
176
     0
 62
     5
 63
     7
421
 16777215
176
     0
 74
     1
176
     0
 91
        4
176
     0
 64
     7
176
     0
 65
   257
176
     0
 75
     1
176
     0
175
     1
176
     0
 42
1.0
176
     0
 92
        9
176
     2
 66
     7
176
     0
 43
1.0
176
     0
 76
     1
176
     0
 77
     6
176
     0
 78
     2
176
     0
 67
     7
176
     0
 79
     5
176
     0
170
     0
176
     0
171
     0
176
     0
290
     0
176
     0
 93
        1
176
     0
 44
0.0
176
     0
173
     0
176
     0
  0
VISUALSTYLE
  5
33
102
{ACAD_REACTORS
330
2A
102
}
102
{ACAD_XDICTIONARY
360
18A
102
}
330
2A
100
AcDbVisualStyle
  2
Realistic
 70
     8
177
     2
291
     0
 71
     2
176
     1
 72
     3
176
     1
 73
     0
176
     1
 90
        2
176
     1
 40
0.6
176
     1
 41
30.0
176
     1
 62
     5
 63
     7
421
 16777215
176
     1
 74
     0
176
     1
 91
        0
176
     1
 64
     7
176
     1
 65
   257
176
     1
 75
     1
176
     1
175
     1
176
     1
 42
1.0
176
     1
 92
        8
176
     1
 66
   257
176
     1
 43
1.0
176
     1
 76
     1
176
     1
 77
     6
176
     1
 78
     2
176
     1
 67
     7
176
     1
 79
     3
176
     1
170
     0
176
     1
171
     0
176
     1
290
     0
176
     1
 93
       13
176
     1
 44
0.0
176
     1
173
     0
176
     1
  0
VISUALSTYLE
  5
42
102
{ACAD_REACTORS
330
2A
102
}
102
{ACAD_XDICTIONARY
360
1A8
102
}
330
2A
100
AcDbVisualStyle
  2
Shaded
 70
    27
177
     2
291
     0
 71
     2
176
     1
 72
     2
176
     1
 73
     1
176
     1
 90
        2
176
     1
 40
0.6
176
     1
 41
30.0
176
     1
 62
     5
 63
     7
421
 16777215
176
     1
 74
     0
176
     1
 91
        4
176
     1
 64
     7
176
     1
 65
   257
176
     1
 75
     1
176
     1
175
     1
176
     1
 42
1.0
176
     1
 92
        8
176
     1
 66
   257
176
     1
 43
1.0
176
     1
 76
     1
176
     1
 77
     6
176
     1
 78
     2
176
     1
 67
     8
425
  7895160
176
     1
 79
     3
176
     1
170
     0
176
     1
171
     0
176
     1
290
     0
176
     1
 93
        5
176
     1
 44
0.0
176
     1
173
     0
176
     1
  0
VISUALSTYLE
  5
41
102
{ACAD_REACTORS
330
2A
102
}
102
{ACAD_XDICTIONARY
360
1A6
102
}
330
2A
100
AcDbVisualStyle
  2
Shaded with edges
 70
    26
177
     2
291
     0
 71
     2
176
     1
 72
     2
176
     1
 73
     1
176
     1
 90
        2
176
     1
 40
0.6
176
     1
 41
30.0
176
     1
 62
     5
 63
     7
421
 16777215
176
     1
 74
     1
176
     1
 91
       10
176
     1
 64
     7
176
     1
 65
   257
176
     1
 75
     2
176
     1
175
     1
176
     1
 42
1.0
176
     1
 92
        8
176
     1
 66
   257
176
     1
 43
1.0
176
     1
 76
     1
176
     1
 77
     6
176
     1
 78
     2
176
     1
 67
     7
176
     1
 79
     3
176
     1
170
     0
176
     1
171
     0
176
     1
290
     0
176
     1
 93
        5
176
     1
 44
0.0
176
     1
173
     0
176
     1
  0
VISUALSTYLE
  5
3E
102
{ACAD_REACTORS
330
2A
102
}
102
{ACAD_XDICTIONARY
360
1A0
102
}
330
2A
100
AcDbVisualStyle
  2
Shades of Gray
 70
    23
177
     2
291
     0
 71
     2
176
     1
 72
     2
176
     1
 73
     3
176
     1
 90
        0
176
     1
 40
0.6
176
     1
 41
30.0
176
     1
 62
     5
 63
     7
421
 16777215
176
     1
 74
     2
176
     1
 91
        2
176
     1
 64
     7
176
     1
 65
     7
176
     1
 75
     1
176
     1
175
     1
176
     1
 42
40.0
176
     1
 92
        8
176
     1
 66
     7
176
     1
 43
1.0
176
     1
 76
     1
176
     1
 77
     6
176
     1
 78
     2
176
     1
 67
     7
176
     1
 79
     3
176
     1
170
     0
176
     1
171
     0
176
     1
290
     0
176
     1
 93
        1
176
     1
 44
0.0
176
     1
173
     0
176
     1
  0
VISUALSTYLE
  5
3F
102
{ACAD_REACTORS
330
2A
102
}
102
{ACAD_XDICTIONARY
360
1A2
102
}
330
2A
100
AcDbVisualStyle
  2
Sketchy
 70
    24
177
     2
291
     0
 71
     1
176
     1
 72
     2
176
     1
 73
     2
176
     1
 90
        0
176
     1
 40
0.6
176
     1
 41
30.0
176
     1
 62
     5
 63
     7
421
 16777215
176
     1
 74
     2
176
     1
 91
        2
176
     1
 64
     7
176
     1
 65
     7
176
     1
 75
     1
176
     1
175
     1
176
     1
 42
40.0
176
     1
 92
       11
176
     1
 66
     7
176
     1
 43
1.0
176
     1
 76
     1
176
     1
 77
     6
176
     1
 78
     2
176
     1
 67
     7
176
     1
 79
     6
176
     1
170
     0
176
     1
171
     0
176
     1
290
     0
176
     1
 93
        1
176
     1
 44
0.0
176
     1
173
     0
176
     1
  0
VISUALSTYLE
  5
37
102
{ACAD_REACTORS
330
2A
102
}
102
{ACAD_XDICTIONARY
360
192
102
}
330
2A
100
AcDbVisualStyle
  2
Thicken
 70
    13
177
     2
291
     1
 71
     2
176
     1
 72
     2
176
     1
 73
     0
176
     1
 90
        0
176
     1
 40
0.6
176
     1
 41
30.0
176
     1
 62
     5
 63
     7
421
 16777215
176
     1
 74
     1
176
     1
 91
        4
176
     1
 64
     7
176
     1
 65
   257
176
     1
 75
     1
176
     1
175
     1
176
     1
 42
1.0
176
     1
 92
       12
176
     1
 66
     7
176
     1
 43
1.0
176
     1
 76
     1
176
     1
 77
     6
176
     1
 78
     2
176
     1
 67
     7
176
     1
 79
     5
176
     1
170
     0
176
     1
171
     0
176
     1
290
     0
176
     1
 93
        1
176
     1
 44
0.0
176
     1
173
     0
176
     1
  0
VISUALSTYLE
  5
30
102
{ACAD_REACTORS
330
2A
102
}
102
{ACAD_XDICTIONARY
360
184
102
}
330
2A
100
AcDbVisualStyle
  2
Wireframe
 70
     5
177
     2
291
     0
 71
     0
176
     1
 72
     2
176
     1
 73
     0
176
     1
 90
        0
176
     1
 40
0.6
176
     1
 41
30.0
176
     1
 62
     5
 63
     7
421
 16777215
176
     1
 74
     1
176
     1
 91
        4
176
     1
 64
     7
176
     1
 65
   257
176
     1
 75
     1
176
     1
175
     1
176
     1
 42
1.0
176
     1
 92
        0
176
     1
 66
   257
176
     1
 43
1.0
176
     1
 76
     1
176
     1
 77
     6
176
     1
 78
     2
176
     1
 67
     7
176
     1
 79
     3
176
     1
170
     0
176
     1
171
     0
176
     1
290
     0
176
     1
 93
        1
176
     1
 44
0.0
176
     1
173
     0
176
     1
  0
VISUALSTYLE
  5
40
102
{ACAD_REACTORS
330
2A
102
}
102
{ACAD_XDICTIONARY
360
1A4
102
}
330
2A
100
AcDbVisualStyle
  2
X-Ray
 70
    25
177
     2
291
     0
 71
     2
176
     1
 72
     2
176
     1
 73
     1
176
     1
 90
        1
176
     1
 40
0.5
176
     1
 41
30.0
176
     1
 62
     5
 63
     7
421
 16777215
176
     1
 74
     1
176
     1
 91
        0
176
     1
 64
     7
176
     1
 65
   257
176
     1
 75
     1
176
     1
175
     1
176
     1
 42
1.0
176
     1
 92
        8
176
     1
 66
     7
176
     1
 43
1.0
176
     1
 76
     1
176
     1
 77
     6
176
     1
 78
     2
176
     1
 67
     7
176
     1
 79
     3
176
     1
170
     0
176
     1
171
     0
176
     1
290
     0
176
     1
 93
       13
176
     1
 44
0.0
176
     1
173
     0
176
     1
  0
DICTIONARYVAR
  5
179
102
{ACAD_REACTORS
330
178
102
}
330
178
100
DictionaryVariables
280
     0
  1
1:1
  0
DICTIONARYVAR
  5
1AE
102
{ACAD_REACTORS
330
178
102
}
330
178
100
DictionaryVariables
280
     0
  1
Standard
  0
DICTIONARYVAR
  5
1AD
102
{ACAD_REACTORS
330
178
102
}
330
178
100
DictionaryVariables
280
     0
  1
Standard
  0
DICTIONARY
  5
1AA
330
6A
100
AcDbDictionary
280
     1
281
     1
  3
ACAD_ROUNDTRIP_2008_TABLESTYLE_CELLSTYLEMAP
360
1AB
  0
DICTIONARY
  5
182
330
2F
100
AcDbDictionary
280
     1
281
     1
  3
ACAD_XREC_ROUNDTRIP
360
183
  0
DICTIONARY
  5
188
330
32
100
AcDbDictionary
280
     1
281
     1
  3
ACAD_XREC_ROUNDTRIP
360
189
  0
DICTIONARY
  5
190
330
36
100
AcDbDictionary
280
     1
281
     1
  3
ACAD_XREC_ROUNDTRIP
360
191
  0
DICTIONARY
  5
198
330
3A
100
AcDbDictionary
280
     1
281
     1
  3
ACAD_XREC_ROUNDTRIP
360
199
  0
DICTIONARY
  5
18C
330
34
100
AcDbDictionary
280
     1
281
     1
  3
ACAD_XREC_ROUNDTRIP
360
18D
  0
DICTIONARY
  5
18E
330
35
100
AcDbDictionary
280
     1
281
     1
  3
ACAD_XREC_ROUNDTRIP
360
18F
  0
DICTIONARY
  5
19E
330
3D
100
AcDbDictionary
280
     1
281
     1
  3
ACAD_XREC_ROUNDTRIP
360
19F
  0
DICTIONARY
  5
196
330
39
100
AcDbDictionary
280
     1
281
     1
  3
ACAD_XREC_ROUNDTRIP
360
197
  0
DICTIONARY
  5
17A
330
2B
100
AcDbDictionary
280
     1
281
     1
  3
ACAD_XREC_ROUNDTRIP
360
17B
  0
DICTIONARY
  5
17C
330
2C
100
AcDbDictionary
280
     1
281
     1
  3
ACAD_XREC_ROUNDTRIP
360
17D
  0
DICTIONARY
  5
17E
330
2D
100
AcDbDictionary
280
     1
281
     1
  3
ACAD_XREC_ROUNDTRIP
360
17F
  0
DICTIONARY
  5
180
330
2E
100
AcDbDictionary
280
     1
281
     1
  3
ACAD_XREC_ROUNDTRIP
360
181
  0
DICTIONARY
  5
186
330
31
100
AcDbDictionary
280
     1
281
     1
  3
ACAD_XREC_ROUNDTRIP
360
187
  0
DICTIONARY
  5
19A
330
3B
100
AcDbDictionary
280
     1
281
     1
  3
ACAD_XREC_ROUNDTRIP
360
19B
  0
DICTIONARY
  5
194
330
38
100
AcDbDictionary
280
     1
281
     1
  3
ACAD_XREC_ROUNDTRIP
360
195
  0
DICTIONARY
  5
19C
330
3C
100
AcDbDictionary
280
     1
281
     1
  3
ACAD_XREC_ROUNDTRIP
360
19D
  0
DICTIONARY
  5
18A
330
33
100
AcDbDictionary
280
     1
281
     1
  3
ACAD_XREC_ROUNDTRIP
360
18B
  0
DICTIONARY
  5
1A8
330
42
100
AcDbDictionary
280
     1
281
     1
  3
ACAD_XREC_ROUNDTRIP
360
1A9
  0
DICTIONARY
  5
1A6
330
41
100
AcDbDictionary
280
     1
281
     1
  3
ACAD_XREC_ROUNDTRIP
360
1A7
  0
DICTIONARY
  5
1A0
330
3E
100
AcDbDictionary
280
     1
281
     1
  3
ACAD_XREC_ROUNDTRIP
360
1A1
  0
DICTIONARY
  5
1A2
330
3F
100
AcDbDictionary
280
     1
281
     1
  3
ACAD_XREC_ROUNDTRIP
360
1A3
  0
DICTIONARY
  5
192
330
37
100
AcDbDictionary
280
     1
281
     1
  3
ACAD_XREC_ROUNDTRIP
360
193
  0
DICTIONARY
  5
184
330
30
100
AcDbDictionary
280
     1
281
     1
  3
ACAD_XREC_ROUNDTRIP
360
185
  0
DICTIONARY
  5
1A4
330
40
100
AcDbDictionary
280
     1
281
     1
  3
ACAD_XREC_ROUNDTRIP
360
1A5
  0
CELLSTYLEMAP
  5
1AB
102
{ACAD_REACTORS
330
1AA
102
}
330
1AA
100
AcDbCellStyleMap
 90
        3
300
CELLSTYLE
  1
TABLEFORMAT_BEGIN
 90
        5
170
     1
 91
        0
 92
    32768
 62
   257
 93
        1
300
CONTENTFORMAT
  1
CONTENTFORMAT_BEGIN
 90
        0
 91
        0
 92
        4
 93
        0
300

 40
0.0
140
1.0
 94
        5
 62
     0
340
11
144
0.25
309
CONTENTFORMAT_END
171
     1
301
MARGIN
  1
CELLMARGIN_BEGIN
 40
0.06
 40
0.06
 40
0.06
 40
0.06
 40
0.06
 40
0.06
309
CELLMARGIN_END
 94
        6
 95
        1
302
GRIDFORMAT
  1
GRIDFORMAT_BEGIN
 90
        0
 91
        1
 62
     0
 92
       -2
340
14
 93
        0
 40
0.045
309
GRIDFORMAT_END
 95
        2
302
GRIDFORMAT
  1
GRIDFORMAT_BEGIN
 90
        0
 91
        1
 62
     0
 92
       -2
340
14
 93
        0
 40
0.045
309
GRIDFORMAT_END
 95
        4
302
GRIDFORMAT
  1
GRIDFORMAT_BEGIN
 90
        0
 91
        1
 62
     0
 92
       -2
340
14
 93
        0
 40
0.045
309
GRIDFORMAT_END
 95
        8
302
GRIDFORMAT
  1
GRIDFORMAT_BEGIN
 90
        0
 91
        1
 62
     0
 92
       -2
340
14
 93
        0
 40
0.045
309
GRIDFORMAT_END
 95
       16
302
GRIDFORMAT
  1
GRIDFORMAT_BEGIN
 90
        0
 91
        1
 62
     0
 92
       -2
340
14
 93
        0
 40
0.045
309
GRIDFORMAT_END
 95
       32
302
GRIDFORMAT
  1
GRIDFORMAT_BEGIN
 90
        0
 91
        1
 62
     0
 92
       -2
340
14
 93
        0
 40
0.045
309
GRIDFORMAT_END
309
TABLEFORMAT_END
  1
CELLSTYLE_BEGIN
 90
        1
 91
        1
300
_TITLE
309
CELLSTYLE_END
300
CELLSTYLE
  1
TABLEFORMAT_BEGIN
 90
        5
170
     1
 91
        0
 92
        0
 62
   257
 93
        1
300
CONTENTFORMAT
  1
CONTENTFORMAT_BEGIN
 90
        0
 91
        0
 92
        4
 93
        0
300

 40
0.0
140
1.0
 94
        5
 62
     0
340
11
144
0.18
309
CONTENTFORMAT_END
171
     1
301
MARGIN
  1
CELLMARGIN_BEGIN
 40
0.06
 40
0.06
 40
0.06
 40
0.06
 40
0.06
 40
0.06
309
CELLMARGIN_END
 94
        6
 95
        1
302
GRIDFORMAT
  1
GRIDFORMAT_BEGIN
 90
        0
 91
        1
 62
     0
 92
       -2
340
14
 93
        0
 40
0.045
309
GRIDFORMAT_END
 95
        2
302
GRIDFORMAT
  1
GRIDFORMAT_BEGIN
 90
        0
 91
        1
 62
     0
 92
       -2
340
14
 93
        0
 40
0.045
309
GRIDFORMAT_END
 95
        4
302
GRIDFORMAT
  1
GRIDFORMAT_BEGIN
 90
        0
 91
        1
 62
     0
 92
       -2
340
14
 93
        0
 40
0.045
309
GRIDFORMAT_END
 95
        8
302
GRIDFORMAT
  1
GRIDFORMAT_BEGIN
 90
        0
 91
        1
 62
     0
 92
       -2
340
14
 93
        0
 40
0.045
309
GRIDFORMAT_END
 95
       16
302
GRIDFORMAT
  1
GRIDFORMAT_BEGIN
 90
        0
 91
        1
 62
     0
 92
       -2
340
14
 93
        0
 40
0.045
309
GRIDFORMAT_END
 95
       32
302
GRIDFORMAT
  1
GRIDFORMAT_BEGIN
 90
        0
 91
        1
 62
     0
 92
       -2
340
14
 93
        0
 40
0.045
309
GRIDFORMAT_END
309
TABLEFORMAT_END
  1
CELLSTYLE_BEGIN
 90
        2
 91
        1
300
_HEADER
309
CELLSTYLE_END
300
CELLSTYLE
  1
TABLEFORMAT_BEGIN
 90
        5
170
     1
 91
        0
 92
        0
 62
   257
 93
        1
300
CONTENTFORMAT
  1
CONTENTFORMAT_BEGIN
 90
        0
 91
        0
 92
        4
 93
        0
300

 40
0.0
140
1.0
 94
        2
 62
     0
340
11
144
0.18
309
CONTENTFORMAT_END
171
     1
301
MARGIN
  1
CELLMARGIN_BEGIN
 40
0.06
 40
0.06
 40
0.06
 40
0.06
 40
0.06
 40
0.06
309
CELLMARGIN_END
 94
        6
 95
        1
302
GRIDFORMAT
  1
GRIDFORMAT_BEGIN
 90
        0
 91
        1
 62
     0
 92
       -2
340
14
 93
        0
 40
0.045
309
GRIDFORMAT_END
 95
        2
302
GRIDFORMAT
  1
GRIDFORMAT_BEGIN
 90
        0
 91
        1
 62
     0
 92
       -2
340
14
 93
        0
 40
0.045
309
GRIDFORMAT_END
 95
        4
302
GRIDFORMAT
  1
GRIDFORMAT_BEGIN
 90
        0
 91
        1
 62
     0
 92
       -2
340
14
 93
        0
 40
0.045
309
GRIDFORMAT_END
 95
        8
302
GRIDFORMAT
  1
GRIDFORMAT_BEGIN
 90
        0
 91
        1
 62
     0
 92
       -2
340
14
 93
        0
 40
0.045
309
GRIDFORMAT_END
 95
       16
302
GRIDFORMAT
  1
GRIDFORMAT_BEGIN
 90
        0
 91
        1
 62
     0
 92
       -2
340
14
 93
        0
 40
0.045
309
GRIDFORMAT_END
 95
       32
302
GRIDFORMAT
  1
GRIDFORMAT_BEGIN
 90
        0
 91
        1
 62
     0
 92
       -2
340
14
 93
        0
 40
0.045
309
GRIDFORMAT_END
309
TABLEFORMAT_END
  1
CELLSTYLE_BEGIN
 90
        3
 91
        2
300
_DATA
309
CELLSTYLE_END
  0
XRECORD
  5
183
102
{ACAD_REACTORS
330
182
102
}
330
182
100
AcDbXrecord
280
     1
102
RTVSPost2010Prop28
280
     1
102
RTVSPost2010PropOp28
 70
     1
102
RTVSPost2010Prop29
280
     1
102
RTVSPost2010PropOp29
 70
     1
102
RTVSPost2010Prop30
280
     0
102
RTVSPost2010PropOp30
 70
     1
102
RTVSPost2010Prop31
280
     0
102
RTVSPost2010PropOp31
 70
     1
102
RTVSPost2010Prop32
280
     0
102
RTVSPost2010PropOp32
 70
     1
102
RTVSPost2010Prop33
280
     0
102
RTVSPost2010PropOp33
 70
     1
102
RTVSPost2010Prop34
280
     0
102
RTVSPost2010PropOp34
 70
     1
102
RTVSPost2010Prop35
280
     0
102
RTVSPost2010PropOp35
 70
     1
102
RTVSPost2010Prop36
280
     0
102
RTVSPost2010PropOp36
 70
     1
102
RTVSPost2010Prop37
 90
       50
102
RTVSPost2010PropOp37
 70
     1
102
RTVSPost2010Prop38
140
0.0
102
RTVSPost2010PropOp38
 70
     1
102
RTVSPost2010Prop39
140
1.0
102
RTVSPost2010PropOp39
 70
     1
102
RTVSPost2010Prop40
 90
        0
102
RTVSPost2010PropOp40
 70
     1
102
RTVSPost2010Prop41ColorIndex
 90
       18
102
RTVSPost2010Prop41ColorRGB
 90
        0
102
RTVSPost2010PropOp41
 70
     1
102
RTVSPost2010Prop42
 90
       50
102
RTVSPost2010PropOp42
 70
     1
102
RTVSPost2010Prop43
 90
        3
102
RTVSPost2010PropOp43
 70
     1
102
RTVSPost2010Prop44ColorIndex
 90
        5
102
RTVSPost2010Prop44ColorRGB
 90
      255
102
RTVSPost2010PropOp44
 70
     1
102
RTVSPost2010Prop45
280
     0
102
RTVSPost2010PropOp45
 70
     1
102
RTVSPost2010Prop46
 90
       50
102
RTVSPost2010PropOp46
 70
     1
102
RTVSPost2010Prop47
 90
       50
102
RTVSPost2010PropOp47
 70
     1
102
RTVSPost2010Prop48
 90
       50
102
RTVSPost2010PropOp48
 70
     1
102
RTVSPost2010Prop49
280
     0
102
RTVSPost2010PropOp49
 70
     1
102
RTVSPost2010Prop50
 90
       50
102
RTVSPost2010PropOp50
 70
     1
102
RTVSPost2010Prop51ColorIndex
 90
      256
102
RTVSPost2010Prop51ColorRGB
 90
-16777216
102
RTVSPost2010PropOp51
 70
     0
102
RTVSPost2010Prop52
140
1.0
102
RTVSPost2010PropOp52
 70
     0
102
RTVSPost2010Prop53
 90
        2
102
RTVSPost2010PropOp53
 70
     1
102
RTVSPost2010Prop54
  1
strokes_ogs.tif
102
RTVSPost2010PropOp54
 70
     1
102
RTVSPost2010Prop55
280
     0
102
RTVSPost2010PropOp55
 70
     1
102
RTVSPost2010Prop56
140
1.0
102
RTVSPost2010PropOp56
 70
     1
102
RTVSPost2010Prop57
140
1.0
102
RTVSPost2010PropOp57
 70
     1
  0
XRECORD
  5
189
102
{ACAD_REACTORS
330
188
102
}
330
188
100
AcDbXrecord
280
     1
102
RTVSPost2010Prop28
280
     0
102
RTVSPost2010PropOp28
 70
     1
102
RTVSPost2010Prop29
280
     1
102
RTVSPost2010PropOp29
 70
     1
102
RTVSPost2010Prop30
280
     1
102
RTVSPost2010PropOp30
 70
     1
102
RTVSPost2010Prop31
280
     0
102
RTVSPost2010PropOp31
 70
     1
102
RTVSPost2010Prop32
280
     0
102
RTVSPost2010PropOp32
 70
     1
102
RTVSPost2010Prop33
280
     0
102
RTVSPost2010PropOp33
 70
     1
102
RTVSPost2010Prop34
280
     0
102
RTVSPost2010PropOp34
 70
     1
102
RTVSPost2010Prop35
280
     0
102
RTVSPost2010PropOp35
 70
     1
102
RTVSPost2010Prop36
280
     0
102
RTVSPost2010PropOp36
 70
     1
102
RTVSPost2010Prop37
 90
       50
102
RTVSPost2010PropOp37
 70
     1
102
RTVSPost2010Prop38
140
0.0
102
RTVSPost2010PropOp38
 70
     1
102
RTVSPost2010Prop39
140
1.0
102
RTVSPost2010PropOp39
 70
     1
102
RTVSPost2010Prop40
 90
        0
102
RTVSPost2010PropOp40
 70
     1
102
RTVSPost2010Prop41ColorIndex
 90
       18
102
RTVSPost2010Prop41ColorRGB
 90
        0
102
RTVSPost2010PropOp41
 70
     1
102
RTVSPost2010Prop42
 90
       50
102
RTVSPost2010PropOp42
 70
     1
102
RTVSPost2010Prop43
 90
        3
102
RTVSPost2010PropOp43
 70
     1
102
RTVSPost2010Prop44ColorIndex
 90
        5
102
RTVSPost2010Prop44ColorRGB
 90
      255
102
RTVSPost2010PropOp44
 70
     1
102
RTVSPost2010Prop45
280
     0
102
RTVSPost2010PropOp45
 70
     1
102
RTVSPost2010Prop46
 90
       50
102
RTVSPost2010PropOp46
 70
     1
102
RTVSPost2010Prop47
 90
       50
102
RTVSPost2010PropOp47
 70
     1
102
RTVSPost2010Prop48
 90
       50
102
RTVSPost2010PropOp48
 70
     1
102
RTVSPost2010Prop49
280
     0
102
RTVSPost2010PropOp49
 70
     1
102
RTVSPost2010Prop50
 90
       50
102
RTVSPost2010PropOp50
 70
     1
102
RTVSPost2010Prop51ColorIndex
 90
      256
102
RTVSPost2010Prop51ColorRGB
 90
-16777216
102
RTVSPost2010PropOp51
 70
     0
102
RTVSPost2010Prop52
140
1.0
102
RTVSPost2010PropOp52
 70
     0
102
RTVSPost2010Prop53
 90
        2
102
RTVSPost2010PropOp53
 70
     1
102
RTVSPost2010Prop54
  1
strokes_ogs.tif
102
RTVSPost2010PropOp54
 70
     1
102
RTVSPost2010Prop55
280
     0
102
RTVSPost2010PropOp55
 70
     1
102
RTVSPost2010Prop56
140
1.0
102
RTVSPost2010PropOp56
 70
     1
102
RTVSPost2010Prop57
140
1.0
102
RTVSPost2010PropOp57
 70
     1
  0
XRECORD
  5
191
102
{ACAD_REACTORS
330
190
102
}
330
190
100
AcDbXrecord
280
     1
102
RTVSPost2010Prop28
280
     0
102
RTVSPost2010PropOp28
 70
     1
102
RTVSPost2010Prop29
280
     1
102
RTVSPost2010PropOp29
 70
     1
102
RTVSPost2010Prop30
280
     1
102
RTVSPost2010PropOp30
 70
     1
102
RTVSPost2010Prop31
280
     0
102
RTVSPost2010PropOp31
 70
     1
102
RTVSPost2010Prop32
280
     0
102
RTVSPost2010PropOp32
 70
     1
102
RTVSPost2010Prop33
280
     0
102
RTVSPost2010PropOp33
 70
     1
102
RTVSPost2010Prop34
280
     0
102
RTVSPost2010PropOp34
 70
     1
102
RTVSPost2010Prop35
280
     0
102
RTVSPost2010PropOp35
 70
     1
102
RTVSPost2010Prop36
280
     0
102
RTVSPost2010PropOp36
 70
     1
102
RTVSPost2010Prop37
 90
       50
102
RTVSPost2010PropOp37
 70
     1
102
RTVSPost2010Prop38
140
0.0
102
RTVSPost2010PropOp38
 70
     1
102
RTVSPost2010Prop39
140
1.0
102
RTVSPost2010PropOp39
 70
     1
102
RTVSPost2010Prop40
 90
        0
102
RTVSPost2010PropOp40
 70
     1
102
RTVSPost2010Prop41ColorIndex
 90
       18
102
RTVSPost2010Prop41ColorRGB
 90
        0
102
RTVSPost2010PropOp41
 70
     1
102
RTVSPost2010Prop42
 90
       50
102
RTVSPost2010PropOp42
 70
     1
102
RTVSPost2010Prop43
 90
        3
102
RTVSPost2010PropOp43
 70
     1
102
RTVSPost2010Prop44ColorIndex
 90
        5
102
RTVSPost2010Prop44ColorRGB
 90
      255
102
RTVSPost2010PropOp44
 70
     1
102
RTVSPost2010Prop45
280
     0
102
RTVSPost2010PropOp45
 70
     1
102
RTVSPost2010Prop46
 90
       50
102
RTVSPost2010PropOp46
 70
     1
102
RTVSPost2010Prop47
 90
       50
102
RTVSPost2010PropOp47
 70
     1
102
RTVSPost2010Prop48
 90
       50
102
RTVSPost2010PropOp48
 70
     1
102
RTVSPost2010Prop49
280
     0
102
RTVSPost2010PropOp49
 70
     1
102
RTVSPost2010Prop50
 90
       50
102
RTVSPost2010PropOp50
 70
     1
102
RTVSPost2010Prop51ColorIndex
 90
      256
102
RTVSPost2010Prop51ColorRGB
 90
-16777216
102
RTVSPost2010PropOp51
 70
     0
102
RTVSPost2010Prop52
140
1.0
102
RTVSPost2010PropOp52
 70
     0
102
RTVSPost2010Prop53
 90
        2
102
RTVSPost2010PropOp53
 70
     1
102
RTVSPost2010Prop54
  1
strokes_ogs.tif
102
RTVSPost2010PropOp54
 70
     1
102
RTVSPost2010Prop55
280
     0
102
RTVSPost2010PropOp55
 70
     1
102
RTVSPost2010Prop56
140
1.0
102
RTVSPost2010PropOp56
 70
     1
102
RTVSPost2010Prop57
140
1.0
102
RTVSPost2010PropOp57
 70
     1
  0
XRECORD
  5
199
102
{ACAD_REACTORS
330
198
102
}
330
198
100
AcDbXrecord
280
     1
102
RTVSPost2010Prop28
280
     0
102
RTVSPost2010PropOp28
 70
     1
102
RTVSPost2010Prop29
280
     1
102
RTVSPost2010PropOp29
 70
     1
102
RTVSPost2010Prop30
280
     1
102
RTVSPost2010PropOp30
 70
     1
102
RTVSPost2010Prop31
280
     0
102
RTVSPost2010PropOp31
 70
     1
102
RTVSPost2010Prop32
280
     0
102
RTVSPost2010PropOp32
 70
     1
102
RTVSPost2010Prop33
280
     0
102
RTVSPost2010PropOp33
 70
     1
102
RTVSPost2010Prop34
280
     0
102
RTVSPost2010PropOp34
 70
     1
102
RTVSPost2010Prop35
280
     0
102
RTVSPost2010PropOp35
 70
     1
102
RTVSPost2010Prop36
280
     0
102
RTVSPost2010PropOp36
 70
     1
102
RTVSPost2010Prop37
 90
       50
102
RTVSPost2010PropOp37
 70
     1
102
RTVSPost2010Prop38
140
0.0
102
RTVSPost2010PropOp38
 70
     1
102
RTVSPost2010Prop39
140
1.0
102
RTVSPost2010PropOp39
 70
     1
102
RTVSPost2010Prop40
 90
        0
102
RTVSPost2010PropOp40
 70
     1
102
RTVSPost2010Prop41ColorIndex
 90
       18
102
RTVSPost2010Prop41ColorRGB
 90
        0
102
RTVSPost2010PropOp41
 70
     1
102
RTVSPost2010Prop42
 90
       50
102
RTVSPost2010PropOp42
 70
     1
102
RTVSPost2010Prop43
 90
        3
102
RTVSPost2010PropOp43
 70
     1
102
RTVSPost2010Prop44ColorIndex
 90
        5
102
RTVSPost2010Prop44ColorRGB
 90
      255
102
RTVSPost2010PropOp44
 70
     1
102
RTVSPost2010Prop45
280
     0
102
RTVSPost2010PropOp45
 70
     1
102
RTVSPost2010Prop46
 90
       50
102
RTVSPost2010PropOp46
 70
     1
102
RTVSPost2010Prop47
 90
       50
102
RTVSPost2010PropOp47
 70
     1
102
RTVSPost2010Prop48
 90
       50
102
RTVSPost2010PropOp48
 70
     1
102
RTVSPost2010Prop49
280
     0
102
RTVSPost2010PropOp49
 70
     1
102
RTVSPost2010Prop50
 90
       50
102
RTVSPost2010PropOp50
 70
     1
102
RTVSPost2010Prop51ColorIndex
 90
      256
102
RTVSPost2010Prop51ColorRGB
 90
-16777216
102
RTVSPost2010PropOp51
 70
     0
102
RTVSPost2010Prop52
140
1.0
102
RTVSPost2010PropOp52
 70
     0
102
RTVSPost2010Prop53
 90
        2
102
RTVSPost2010PropOp53
 70
     1
102
RTVSPost2010Prop54
  1
strokes_ogs.tif
102
RTVSPost2010PropOp54
 70
     1
102
RTVSPost2010Prop55
280
     0
102
RTVSPost2010PropOp55
 70
     1
102
RTVSPost2010Prop56
140
1.0
102
RTVSPost2010PropOp56
 70
     1
102
RTVSPost2010Prop57
140
1.0
102
RTVSPost2010PropOp57
 70
     1
  0
XRECORD
  5
18D
102
{ACAD_REACTORS
330
18C
102
}
330
18C
100
AcDbXrecord
280
     1
102
RTVSPost2010Prop28
280
     0
102
RTVSPost2010PropOp28
 70
     1
102
RTVSPost2010Prop29
280
     1
102
RTVSPost2010PropOp29
 70
     1
102
RTVSPost2010Prop30
280
     1
102
RTVSPost2010PropOp30
 70
     1
102
RTVSPost2010Prop31
280
     0
102
RTVSPost2010PropOp31
 70
     1
102
RTVSPost2010Prop32
280
     0
102
RTVSPost2010PropOp32
 70
     1
102
RTVSPost2010Prop33
280
     0
102
RTVSPost2010PropOp33
 70
     1
102
RTVSPost2010Prop34
280
     0
102
RTVSPost2010PropOp34
 70
     1
102
RTVSPost2010Prop35
280
     0
102
RTVSPost2010PropOp35
 70
     1
102
RTVSPost2010Prop36
280
     0
102
RTVSPost2010PropOp36
 70
     1
102
RTVSPost2010Prop37
 90
       50
102
RTVSPost2010PropOp37
 70
     1
102
RTVSPost2010Prop38
140
0.0
102
RTVSPost2010PropOp38
 70
     1
102
RTVSPost2010Prop39
140
1.0
102
RTVSPost2010PropOp39
 70
     1
102
RTVSPost2010Prop40
 90
        0
102
RTVSPost2010PropOp40
 70
     1
102
RTVSPost2010Prop41ColorIndex
 90
       18
102
RTVSPost2010Prop41ColorRGB
 90
        0
102
RTVSPost2010PropOp41
 70
     1
102
RTVSPost2010Prop42
 90
       50
102
RTVSPost2010PropOp42
 70
     1
102
RTVSPost2010Prop43
 90
        3
102
RTVSPost2010PropOp43
 70
     1
102
RTVSPost2010Prop44ColorIndex
 90
        5
102
RTVSPost2010Prop44ColorRGB
 90
      255
102
RTVSPost2010PropOp44
 70
     1
102
RTVSPost2010Prop45
280
     0
102
RTVSPost2010PropOp45
 70
     1
102
RTVSPost2010Prop46
 90
       50
102
RTVSPost2010PropOp46
 70
     1
102
RTVSPost2010Prop47
 90
       50
102
RTVSPost2010PropOp47
 70
     1
102
RTVSPost2010Prop48
 90
       50
102
RTVSPost2010PropOp48
 70
     1
102
RTVSPost2010Prop49
280
     0
102
RTVSPost2010PropOp49
 70
     1
102
RTVSPost2010Prop50
 90
       50
102
RTVSPost2010PropOp50
 70
     1
102
RTVSPost2010Prop51ColorIndex
 90
      256
102
RTVSPost2010Prop51ColorRGB
 90
-16777216
102
RTVSPost2010PropOp51
 70
     0
102
RTVSPost2010Prop52
140
1.0
102
RTVSPost2010PropOp52
 70
     0
102
RTVSPost2010Prop53
 90
        2
102
RTVSPost2010PropOp53
 70
     1
102
RTVSPost2010Prop54
  1
strokes_ogs.tif
102
RTVSPost2010PropOp54
 70
     1
102
RTVSPost2010Prop55
280
     0
102
RTVSPost2010PropOp55
 70
     1
102
RTVSPost2010Prop56
140
1.0
102
RTVSPost2010PropOp56
 70
     1
102
RTVSPost2010Prop57
140
1.0
102
RTVSPost2010PropOp57
 70
     1
  0
XRECORD
  5
18F
102
{ACAD_REACTORS
330
18E
102
}
330
18E
100
AcDbXrecord
280
     1
102
RTVSPost2010Prop28
280
     0
102
RTVSPost2010PropOp28
 70
     1
102
RTVSPost2010Prop29
280
     1
102
RTVSPost2010PropOp29
 70
     1
102
RTVSPost2010Prop30
280
     1
102
RTVSPost2010PropOp30
 70
     1
102
RTVSPost2010Prop31
280
     0
102
RTVSPost2010PropOp31
 70
     1
102
RTVSPost2010Prop32
280
     0
102
RTVSPost2010PropOp32
 70
     1
102
RTVSPost2010Prop33
280
     0
102
RTVSPost2010PropOp33
 70
     1
102
RTVSPost2010Prop34
280
     0
102
RTVSPost2010PropOp34
 70
     1
102
RTVSPost2010Prop35
280
     0
102
RTVSPost2010PropOp35
 70
     1
102
RTVSPost2010Prop36
280
     0
102
RTVSPost2010PropOp36
 70
     1
102
RTVSPost2010Prop37
 90
       50
102
RTVSPost2010PropOp37
 70
     1
102
RTVSPost2010Prop38
140
0.0
102
RTVSPost2010PropOp38
 70
     1
102
RTVSPost2010Prop39
140
1.0
102
RTVSPost2010PropOp39
 70
     1
102
RTVSPost2010Prop40
 90
        0
102
RTVSPost2010PropOp40
 70
     1
102
RTVSPost2010Prop41ColorIndex
 90
       18
102
RTVSPost2010Prop41ColorRGB
 90
        0
102
RTVSPost2010PropOp41
 70
     1
102
RTVSPost2010Prop42
 90
       50
102
RTVSPost2010PropOp42
 70
     1
102
RTVSPost2010Prop43
 90
        3
102
RTVSPost2010PropOp43
 70
     1
102
RTVSPost2010Prop44ColorIndex
 90
        5
102
RTVSPost2010Prop44ColorRGB
 90
      255
102
RTVSPost2010PropOp44
 70
     1
102
RTVSPost2010Prop45
280
     0
102
RTVSPost2010PropOp45
 70
     1
102
RTVSPost2010Prop46
 90
       50
102
RTVSPost2010PropOp46
 70
     1
102
RTVSPost2010Prop47
 90
       50
102
RTVSPost2010PropOp47
 70
     1
102
RTVSPost2010Prop48
 90
       50
102
RTVSPost2010PropOp48
 70
     1
102
RTVSPost2010Prop49
280
     0
102
RTVSPost2010PropOp49
 70
     1
102
RTVSPost2010Prop50
 90
       50
102
RTVSPost2010PropOp50
 70
     1
102
RTVSPost2010Prop51ColorIndex
 90
      256
102
RTVSPost2010Prop51ColorRGB
 90
-16777216
102
RTVSPost2010PropOp51
 70
     0
102
RTVSPost2010Prop52
140
1.0
102
RTVSPost2010PropOp52
 70
     0
102
RTVSPost2010Prop53
 90
        2
102
RTVSPost2010PropOp53
 70
     1
102
RTVSPost2010Prop54
  1
strokes_ogs.tif
102
RTVSPost2010PropOp54
 70
     1
102
RTVSPost2010Prop55
280
     0
102
RTVSPost2010PropOp55
 70
     1
102
RTVSPost2010Prop56
140
1.0
102
RTVSPost2010PropOp56
 70
     1
102
RTVSPost2010Prop57
140
1.0
102
RTVSPost2010PropOp57
 70
     1
  0
XRECORD
  5
19F
102
{ACAD_REACTORS
330
19E
102
}
330
19E
100
AcDbXrecord
280
     1
102
RTVSPost2010Prop28
280
     0
102
RTVSPost2010PropOp28
 70
     0
102
RTVSPost2010Prop29
280
     1
102
RTVSPost2010PropOp29
 70
     0
102
RTVSPost2010Prop30
280
     1
102
RTVSPost2010PropOp30
 70
     0
102
RTVSPost2010Prop31
280
     0
102
RTVSPost2010PropOp31
 70
     0
102
RTVSPost2010Prop32
280
     0
102
RTVSPost2010PropOp32
 70
     0
102
RTVSPost2010Prop33
280
     0
102
RTVSPost2010PropOp33
 70
     0
102
RTVSPost2010Prop34
280
     0
102
RTVSPost2010PropOp34
 70
     0
102
RTVSPost2010Prop35
280
     0
102
RTVSPost2010PropOp35
 70
     0
102
RTVSPost2010Prop36
280
     0
102
RTVSPost2010PropOp36
 70
     0
102
RTVSPost2010Prop37
 90
       50
102
RTVSPost2010PropOp37
 70
     0
102
RTVSPost2010Prop38
140
0.0
102
RTVSPost2010PropOp38
 70
     0
102
RTVSPost2010Prop39
140
1.0
102
RTVSPost2010PropOp39
 70
     0
102
RTVSPost2010Prop40
 90
        0
102
RTVSPost2010PropOp40
 70
     0
102
RTVSPost2010Prop41ColorIndex
 90
       18
102
RTVSPost2010Prop41ColorRGB
 90
        0
102
RTVSPost2010PropOp41
 70
     0
102
RTVSPost2010Prop42
 90
       50
102
RTVSPost2010PropOp42
 70
     0
102
RTVSPost2010Prop43
 90
        3
102
RTVSPost2010PropOp43
 70
     0
102
RTVSPost2010Prop44ColorIndex
 90
        5
102
RTVSPost2010Prop44ColorRGB
 90
      255
102
RTVSPost2010PropOp44
 70
     0
102
RTVSPost2010Prop45
280
     0
102
RTVSPost2010PropOp45
 70
     0
102
RTVSPost2010Prop46
 90
       50
102
RTVSPost2010PropOp46
 70
     0
102
RTVSPost2010Prop47
 90
       50
102
RTVSPost2010PropOp47
 70
     0
102
RTVSPost2010Prop48
 90
       50
102
RTVSPost2010PropOp48
 70
     0
102
RTVSPost2010Prop49
280
     0
102
RTVSPost2010PropOp49
 70
     0
102
RTVSPost2010Prop50
 90
       50
102
RTVSPost2010PropOp50
 70
     0
102
RTVSPost2010Prop51ColorIndex
 90
      256
102
RTVSPost2010Prop51ColorRGB
 90
-16777216
102
RTVSPost2010PropOp51
 70
     0
102
RTVSPost2010Prop52
140
1.0
102
RTVSPost2010PropOp52
 70
     0
102
RTVSPost2010Prop53
 90
        2
102
RTVSPost2010PropOp53
 70
     0
102
RTVSPost2010Prop54
  1
strokes_ogs.tif
102
RTVSPost2010PropOp54
 70
     0
102
RTVSPost2010Prop55
280
     0
102
RTVSPost2010PropOp55
 70
     0
102
RTVSPost2010Prop56
140
1.0
102
RTVSPost2010PropOp56
 70
     0
102
RTVSPost2010Prop57
140
1.0
102
RTVSPost2010PropOp57
 70
     0
  0
XRECORD
  5
197
102
{ACAD_REACTORS
330
196
102
}
330
196
100
AcDbXrecord
280
     1
102
RTVSPost2010Prop28
280
     0
102
RTVSPost2010PropOp28
 70
     1
102
RTVSPost2010Prop29
280
     1
102
RTVSPost2010PropOp29
 70
     1
102
RTVSPost2010Prop30
280
     1
102
RTVSPost2010PropOp30
 70
     1
102
RTVSPost2010Prop31
280
     0
102
RTVSPost2010PropOp31
 70
     1
102
RTVSPost2010Prop32
280
     0
102
RTVSPost2010PropOp32
 70
     1
102
RTVSPost2010Prop33
280
     0
102
RTVSPost2010PropOp33
 70
     1
102
RTVSPost2010Prop34
280
     0
102
RTVSPost2010PropOp34
 70
     1
102
RTVSPost2010Prop35
280
     0
102
RTVSPost2010PropOp35
 70
     1
102
RTVSPost2010Prop36
280
     0
102
RTVSPost2010PropOp36
 70
     1
102
RTVSPost2010Prop37
 90
       50
102
RTVSPost2010PropOp37
 70
     1
102
RTVSPost2010Prop38
140
0.0
102
RTVSPost2010PropOp38
 70
     1
102
RTVSPost2010Prop39
140
1.0
102
RTVSPost2010PropOp39
 70
     1
102
RTVSPost2010Prop40
 90
        0
102
RTVSPost2010PropOp40
 70
     1
102
RTVSPost2010Prop41ColorIndex
 90
       18
102
RTVSPost2010Prop41ColorRGB
 90
        0
102
RTVSPost2010PropOp41
 70
     1
102
RTVSPost2010Prop42
 90
       50
102
RTVSPost2010PropOp42
 70
     1
102
RTVSPost2010Prop43
 90
        3
102
RTVSPost2010PropOp43
 70
     1
102
RTVSPost2010Prop44ColorIndex
 90
        5
102
RTVSPost2010Prop44ColorRGB
 90
      255
102
RTVSPost2010PropOp44
 70
     1
102
RTVSPost2010Prop45
280
     0
102
RTVSPost2010PropOp45
 70
     1
102
RTVSPost2010Prop46
 90
       50
102
RTVSPost2010PropOp46
 70
     1
102
RTVSPost2010Prop47
 90
       50
102
RTVSPost2010PropOp47
 70
     1
102
RTVSPost2010Prop48
 90
       50
102
RTVSPost2010PropOp48
 70
     1
102
RTVSPost2010Prop49
280
     0
102
RTVSPost2010PropOp49
 70
     1
102
RTVSPost2010Prop50
 90
       50
102
RTVSPost2010PropOp50
 70
     1
102
RTVSPost2010Prop51ColorIndex
 90
      256
102
RTVSPost2010Prop51ColorRGB
 90
-16777216
102
RTVSPost2010PropOp51
 70
     0
102
RTVSPost2010Prop52
140
1.0
102
RTVSPost2010PropOp52
 70
     0
102
RTVSPost2010Prop53
 90
        2
102
RTVSPost2010PropOp53
 70
     1
102
RTVSPost2010Prop54
  1
strokes_ogs.tif
102
RTVSPost2010PropOp54
 70
     1
102
RTVSPost2010Prop55
280
     0
102
RTVSPost2010PropOp55
 70
     1
102
RTVSPost2010Prop56
140
1.0
102
RTVSPost2010PropOp56
 70
     1
102
RTVSPost2010Prop57
140
1.0
102
RTVSPost2010PropOp57
 70
     1
  0
XRECORD
  5
17B
102
{ACAD_REACTORS
330
17A
102
}
330
17A
100
AcDbXrecord
280
     1
102
RTVSPost2010Prop28
280
     0
102
RTVSPost2010PropOp28
 70
     1
102
RTVSPost2010Prop29
280
     1
102
RTVSPost2010PropOp29
 70
     1
102
RTVSPost2010Prop30
280
     1
102
RTVSPost2010PropOp30
 70
     1
102
RTVSPost2010Prop31
280
     0
102
RTVSPost2010PropOp31
 70
     1
102
RTVSPost2010Prop32
280
     0
102
RTVSPost2010PropOp32
 70
     1
102
RTVSPost2010Prop33
280
     0
102
RTVSPost2010PropOp33
 70
     1
102
RTVSPost2010Prop34
280
     0
102
RTVSPost2010PropOp34
 70
     1
102
RTVSPost2010Prop35
280
     0
102
RTVSPost2010PropOp35
 70
     1
102
RTVSPost2010Prop36
280
     0
102
RTVSPost2010PropOp36
 70
     1
102
RTVSPost2010Prop37
 90
       50
102
RTVSPost2010PropOp37
 70
     1
102
RTVSPost2010Prop38
140
0.0
102
RTVSPost2010PropOp38
 70
     1
102
RTVSPost2010Prop39
140
1.0
102
RTVSPost2010PropOp39
 70
     1
102
RTVSPost2010Prop40
 90
        0
102
RTVSPost2010PropOp40
 70
     1
102
RTVSPost2010Prop41ColorIndex
 90
       18
102
RTVSPost2010Prop41ColorRGB
 90
        0
102
RTVSPost2010PropOp41
 70
     1
102
RTVSPost2010Prop42
 90
       50
102
RTVSPost2010PropOp42
 70
     1
102
RTVSPost2010Prop43
 90
        3
102
RTVSPost2010PropOp43
 70
     1
102
RTVSPost2010Prop44ColorIndex
 90
        5
102
RTVSPost2010Prop44ColorRGB
 90
      255
102
RTVSPost2010PropOp44
 70
     1
102
RTVSPost2010Prop45
280
     0
102
RTVSPost2010PropOp45
 70
     1
102
RTVSPost2010Prop46
 90
       50
102
RTVSPost2010PropOp46
 70
     1
102
RTVSPost2010Prop47
 90
       50
102
RTVSPost2010PropOp47
 70
     1
102
RTVSPost2010Prop48
 90
       50
102
RTVSPost2010PropOp48
 70
     1
102
RTVSPost2010Prop49
280
     0
102
RTVSPost2010PropOp49
 70
     1
102
RTVSPost2010Prop50
 90
       50
102
RTVSPost2010PropOp50
 70
     1
102
RTVSPost2010Prop51ColorIndex
 90
      256
102
RTVSPost2010Prop51ColorRGB
 90
-16777216
102
RTVSPost2010PropOp51
 70
     0
102
RTVSPost2010Prop52
140
1.0
102
RTVSPost2010PropOp52
 70
     0
102
RTVSPost2010Prop53
 90
        2
102
RTVSPost2010PropOp53
 70
     1
102
RTVSPost2010Prop54
  1
strokes_ogs.tif
102
RTVSPost2010PropOp54
 70
     1
102
RTVSPost2010Prop55
280
     0
102
RTVSPost2010PropOp55
 70
     1
102
RTVSPost2010Prop56
140
1.0
102
RTVSPost2010PropOp56
 70
     1
102
RTVSPost2010Prop57
140
1.0
102
RTVSPost2010PropOp57
 70
     1
  0
XRECORD
  5
17D
102
{ACAD_REACTORS
330
17C
102
}
330
17C
100
AcDbXrecord
280
     1
102
RTVSPost2010Prop28
280
     0
102
RTVSPost2010PropOp28
 70
     1
102
RTVSPost2010Prop29
280
     1
102
RTVSPost2010PropOp29
 70
     1
102
RTVSPost2010Prop30
280
     1
102
RTVSPost2010PropOp30
 70
     1
102
RTVSPost2010Prop31
280
     0
102
RTVSPost2010PropOp31
 70
     1
102
RTVSPost2010Prop32
280
     0
102
RTVSPost2010PropOp32
 70
     1
102
RTVSPost2010Prop33
280
     0
102
RTVSPost2010PropOp33
 70
     1
102
RTVSPost2010Prop34
280
     0
102
RTVSPost2010PropOp34
 70
     1
102
RTVSPost2010Prop35
280
     0
102
RTVSPost2010PropOp35
 70
     1
102
RTVSPost2010Prop36
280
     0
102
RTVSPost2010PropOp36
 70
     1
102
RTVSPost2010Prop37
 90
       50
102
RTVSPost2010PropOp37
 70
     1
102
RTVSPost2010Prop38
140
0.0
102
RTVSPost2010PropOp38
 70
     1
102
RTVSPost2010Prop39
140
1.0
102
RTVSPost2010PropOp39
 70
     1
102
RTVSPost2010Prop40
 90
        0
102
RTVSPost2010PropOp40
 70
     1
102
RTVSPost2010Prop41ColorIndex
 90
       18
102
RTVSPost2010Prop41ColorRGB
 90
        0
102
RTVSPost2010PropOp41
 70
     1
102
RTVSPost2010Prop42
 90
       50
102
RTVSPost2010PropOp42
 70
     1
102
RTVSPost2010Prop43
 90
        3
102
RTVSPost2010PropOp43
 70
     1
102
RTVSPost2010Prop44ColorIndex
 90
        5
102
RTVSPost2010Prop44ColorRGB
 90
      255
102
RTVSPost2010PropOp44
 70
     1
102
RTVSPost2010Prop45
280
     0
102
RTVSPost2010PropOp45
 70
     1
102
RTVSPost2010Prop46
 90
       50
102
RTVSPost2010PropOp46
 70
     1
102
RTVSPost2010Prop47
 90
       50
102
RTVSPost2010PropOp47
 70
     1
102
RTVSPost2010Prop48
 90
       50
102
RTVSPost2010PropOp48
 70
     1
102
RTVSPost2010Prop49
280
     0
102
RTVSPost2010PropOp49
 70
     1
102
RTVSPost2010Prop50
 90
       50
102
RTVSPost2010PropOp50
 70
     1
102
RTVSPost2010Prop51ColorIndex
 90
      256
102
RTVSPost2010Prop51ColorRGB
 90
-16777216
102
RTVSPost2010PropOp51
 70
     0
102
RTVSPost2010Prop52
140
1.0
102
RTVSPost2010PropOp52
 70
     0
102
RTVSPost2010Prop53
 90
        2
102
RTVSPost2010PropOp53
 70
     1
102
RTVSPost2010Prop54
  1
strokes_ogs.tif
102
RTVSPost2010PropOp54
 70
     1
102
RTVSPost2010Prop55
280
     0
102
RTVSPost2010PropOp55
 70
     1
102
RTVSPost2010Prop56
140
1.0
102
RTVSPost2010PropOp56
 70
     1
102
RTVSPost2010Prop57
140
1.0
102
RTVSPost2010PropOp57
 70
     1
  0
XRECORD
  5
17F
102
{ACAD_REACTORS
330
17E
102
}
330
17E
100
AcDbXrecord
280
     1
102
RTVSPost2010Prop28
280
     0
102
RTVSPost2010PropOp28
 70
     1
102
RTVSPost2010Prop29
280
     1
102
RTVSPost2010PropOp29
 70
     1
102
RTVSPost2010Prop30
280
     1
102
RTVSPost2010PropOp30
 70
     1
102
RTVSPost2010Prop31
280
     0
102
RTVSPost2010PropOp31
 70
     1
102
RTVSPost2010Prop32
280
     0
102
RTVSPost2010PropOp32
 70
     1
102
RTVSPost2010Prop33
280
     0
102
RTVSPost2010PropOp33
 70
     1
102
RTVSPost2010Prop34
280
     0
102
RTVSPost2010PropOp34
 70
     1
102
RTVSPost2010Prop35
280
     0
102
RTVSPost2010PropOp35
 70
     1
102
RTVSPost2010Prop36
280
     0
102
RTVSPost2010PropOp36
 70
     1
102
RTVSPost2010Prop37
 90
       50
102
RTVSPost2010PropOp37
 70
     1
102
RTVSPost2010Prop38
140
0.0
102
RTVSPost2010PropOp38
 70
     1
102
RTVSPost2010Prop39
140
1.0
102
RTVSPost2010PropOp39
 70
     1
102
RTVSPost2010Prop40
 90
        0
102
RTVSPost2010PropOp40
 70
     1
102
RTVSPost2010Prop41ColorIndex
 90
       18
102
RTVSPost2010Prop41ColorRGB
 90
        0
102
RTVSPost2010PropOp41
 70
     1
102
RTVSPost2010Prop42
 90
       50
102
RTVSPost2010PropOp42
 70
     1
102
RTVSPost2010Prop43
 90
        3
102
RTVSPost2010PropOp43
 70
     1
102
RTVSPost2010Prop44ColorIndex
 90
        5
102
RTVSPost2010Prop44ColorRGB
 90
      255
102
RTVSPost2010PropOp44
 70
     1
102
RTVSPost2010Prop45
280
     0
102
RTVSPost2010PropOp45
 70
     1
102
RTVSPost2010Prop46
 90
       50
102
RTVSPost2010PropOp46
 70
     1
102
RTVSPost2010Prop47
 90
       50
102
RTVSPost2010PropOp47
 70
     1
102
RTVSPost2010Prop48
 90
       50
102
RTVSPost2010PropOp48
 70
     1
102
RTVSPost2010Prop49
280
     0
102
RTVSPost2010PropOp49
 70
     1
102
RTVSPost2010Prop50
 90
       50
102
RTVSPost2010PropOp50
 70
     1
102
RTVSPost2010Prop51ColorIndex
 90
      256
102
RTVSPost2010Prop51ColorRGB
 90
-16777216
102
RTVSPost2010PropOp51
 70
     0
102
RTVSPost2010Prop52
140
1.0
102
RTVSPost2010PropOp52
 70
     0
102
RTVSPost2010Prop53
 90
        2
102
RTVSPost2010PropOp53
 70
     1
102
RTVSPost2010Prop54
  1
strokes_ogs.tif
102
RTVSPost2010PropOp54
 70
     1
102
RTVSPost2010Prop55
280
     0
102
RTVSPost2010PropOp55
 70
     1
102
RTVSPost2010Prop56
140
1.0
102
RTVSPost2010PropOp56
 70
     1
102
RTVSPost2010Prop57
140
1.0
102
RTVSPost2010PropOp57
 70
     1
  0
XRECORD
  5
181
102
{ACAD_REACTORS
330
180
102
}
330
180
100
AcDbXrecord
280
     1
102
RTVSPost2010Prop28
280
     0
102
RTVSPost2010PropOp28
 70
     1
102
RTVSPost2010Prop29
280
     1
102
RTVSPost2010PropOp29
 70
     1
102
RTVSPost2010Prop30
280
     1
102
RTVSPost2010PropOp30
 70
     1
102
RTVSPost2010Prop31
280
     0
102
RTVSPost2010PropOp31
 70
     1
102
RTVSPost2010Prop32
280
     0
102
RTVSPost2010PropOp32
 70
     1
102
RTVSPost2010Prop33
280
     0
102
RTVSPost2010PropOp33
 70
     1
102
RTVSPost2010Prop34
280
     0
102
RTVSPost2010PropOp34
 70
     1
102
RTVSPost2010Prop35
280
     0
102
RTVSPost2010PropOp35
 70
     1
102
RTVSPost2010Prop36
280
     0
102
RTVSPost2010PropOp36
 70
     1
102
RTVSPost2010Prop37
 90
       50
102
RTVSPost2010PropOp37
 70
     1
102
RTVSPost2010Prop38
140
0.0
102
RTVSPost2010PropOp38
 70
     1
102
RTVSPost2010Prop39
140
1.0
102
RTVSPost2010PropOp39
 70
     1
102
RTVSPost2010Prop40
 90
        0
102
RTVSPost2010PropOp40
 70
     1
102
RTVSPost2010Prop41ColorIndex
 90
       18
102
RTVSPost2010Prop41ColorRGB
 90
        0
102
RTVSPost2010PropOp41
 70
     1
102
RTVSPost2010Prop42
 90
       50
102
RTVSPost2010PropOp42
 70
     1
102
RTVSPost2010Prop43
 90
        3
102
RTVSPost2010PropOp43
 70
     1
102
RTVSPost2010Prop44ColorIndex
 90
        5
102
RTVSPost2010Prop44ColorRGB
 90
      255
102
RTVSPost2010PropOp44
 70
     1
102
RTVSPost2010Prop45
280
     0
102
RTVSPost2010PropOp45
 70
     1
102
RTVSPost2010Prop46
 90
       50
102
RTVSPost2010PropOp46
 70
     1
102
RTVSPost2010Prop47
 90
       50
102
RTVSPost2010PropOp47
 70
     1
102
RTVSPost2010Prop48
 90
       50
102
RTVSPost2010PropOp48
 70
     1
102
RTVSPost2010Prop49
280
     0
102
RTVSPost2010PropOp49
 70
     1
102
RTVSPost2010Prop50
 90
       50
102
RTVSPost2010PropOp50
 70
     1
102
RTVSPost2010Prop51ColorIndex
 90
      256
102
RTVSPost2010Prop51ColorRGB
 90
-16777216
102
RTVSPost2010PropOp51
 70
     0
102
RTVSPost2010Prop52
140
1.0
102
RTVSPost2010PropOp52
 70
     0
102
RTVSPost2010Prop53
 90
        2
102
RTVSPost2010PropOp53
 70
     1
102
RTVSPost2010Prop54
  1
strokes_ogs.tif
102
RTVSPost2010PropOp54
 70
     1
102
RTVSPost2010Prop55
280
     0
102
RTVSPost2010PropOp55
 70
     1
102
RTVSPost2010Prop56
140
1.0
102
RTVSPost2010PropOp56
 70
     1
102
RTVSPost2010Prop57
140
1.0
102
RTVSPost2010PropOp57
 70
     1
  0
XRECORD
  5
187
102
{ACAD_REACTORS
330
186
102
}
330
186
100
AcDbXrecord
280
     1
102
RTVSPost2010Prop28
280
     0
102
RTVSPost2010PropOp28
 70
     1
102
RTVSPost2010Prop29
280
     1
102
RTVSPost2010PropOp29
 70
     1
102
RTVSPost2010Prop30
280
     1
102
RTVSPost2010PropOp30
 70
     1
102
RTVSPost2010Prop31
280
     0
102
RTVSPost2010PropOp31
 70
     1
102
RTVSPost2010Prop32
280
     0
102
RTVSPost2010PropOp32
 70
     1
102
RTVSPost2010Prop33
280
     0
102
RTVSPost2010PropOp33
 70
     1
102
RTVSPost2010Prop34
280
     0
102
RTVSPost2010PropOp34
 70
     1
102
RTVSPost2010Prop35
280
     0
102
RTVSPost2010PropOp35
 70
     1
102
RTVSPost2010Prop36
280
     0
102
RTVSPost2010PropOp36
 70
     1
102
RTVSPost2010Prop37
 90
       50
102
RTVSPost2010PropOp37
 70
     1
102
RTVSPost2010Prop38
140
0.0
102
RTVSPost2010PropOp38
 70
     1
102
RTVSPost2010Prop39
140
1.0
102
RTVSPost2010PropOp39
 70
     1
102
RTVSPost2010Prop40
 90
        0
102
RTVSPost2010PropOp40
 70
     1
102
RTVSPost2010Prop41ColorIndex
 90
       18
102
RTVSPost2010Prop41ColorRGB
 90
        0
102
RTVSPost2010PropOp41
 70
     1
102
RTVSPost2010Prop42
 90
       50
102
RTVSPost2010PropOp42
 70
     1
102
RTVSPost2010Prop43
 90
        3
102
RTVSPost2010PropOp43
 70
     1
102
RTVSPost2010Prop44ColorIndex
 90
        5
102
RTVSPost2010Prop44ColorRGB
 90
      255
102
RTVSPost2010PropOp44
 70
     1
102
RTVSPost2010Prop45
280
     0
102
RTVSPost2010PropOp45
 70
     1
102
RTVSPost2010Prop46
 90
       50
102
RTVSPost2010PropOp46
 70
     1
102
RTVSPost2010Prop47
 90
       50
102
RTVSPost2010PropOp47
 70
     1
102
RTVSPost2010Prop48
 90
       50
102
RTVSPost2010PropOp48
 70
     1
102
RTVSPost2010Prop49
280
     0
102
RTVSPost2010PropOp49
 70
     1
102
RTVSPost2010Prop50
 90
       50
102
RTVSPost2010PropOp50
 70
     1
102
RTVSPost2010Prop51ColorIndex
 90
      256
102
RTVSPost2010Prop51ColorRGB
 90
-16777216
102
RTVSPost2010PropOp51
 70
     0
102
RTVSPost2010Prop52
140
1.0
102
RTVSPost2010PropOp52
 70
     0
102
RTVSPost2010Prop53
 90
        2
102
RTVSPost2010PropOp53
 70
     1
102
RTVSPost2010Prop54
  1
strokes_ogs.tif
102
RTVSPost2010PropOp54
 70
     1
102
RTVSPost2010Prop55
280
     0
102
RTVSPost2010PropOp55
 70
     1
102
RTVSPost2010Prop56
140
1.0
102
RTVSPost2010PropOp56
 70
     1
102
RTVSPost2010Prop57
140
1.0
102
RTVSPost2010PropOp57
 70
     1
  0
XRECORD
  5
19B
102
{ACAD_REACTORS
330
19A
102
}
330
19A
100
AcDbXrecord
280
     1
102
RTVSPost2010Prop28
280
     0
102
RTVSPost2010PropOp28
 70
     0
102
RTVSPost2010Prop29
280
     1
102
RTVSPost2010PropOp29
 70
     0
102
RTVSPost2010Prop30
280
     1
102
RTVSPost2010PropOp30
 70
     0
102
RTVSPost2010Prop31
280
     0
102
RTVSPost2010PropOp31
 70
     0
102
RTVSPost2010Prop32
280
     0
102
RTVSPost2010PropOp32
 70
     0
102
RTVSPost2010Prop33
280
     0
102
RTVSPost2010PropOp33
 70
     0
102
RTVSPost2010Prop34
280
     0
102
RTVSPost2010PropOp34
 70
     0
102
RTVSPost2010Prop35
280
     0
102
RTVSPost2010PropOp35
 70
     0
102
RTVSPost2010Prop36
280
     0
102
RTVSPost2010PropOp36
 70
     0
102
RTVSPost2010Prop37
 90
       50
102
RTVSPost2010PropOp37
 70
     0
102
RTVSPost2010Prop38
140
0.0
102
RTVSPost2010PropOp38
 70
     0
102
RTVSPost2010Prop39
140
1.0
102
RTVSPost2010PropOp39
 70
     0
102
RTVSPost2010Prop40
 90
        0
102
RTVSPost2010PropOp40
 70
     0
102
RTVSPost2010Prop41ColorIndex
 90
       18
102
RTVSPost2010Prop41ColorRGB
 90
        0
102
RTVSPost2010PropOp41
 70
     0
102
RTVSPost2010Prop42
 90
       50
102
RTVSPost2010PropOp42
 70
     0
102
RTVSPost2010Prop43
 90
        3
102
RTVSPost2010PropOp43
 70
     0
102
RTVSPost2010Prop44ColorIndex
 90
        5
102
RTVSPost2010Prop44ColorRGB
 90
      255
102
RTVSPost2010PropOp44
 70
     0
102
RTVSPost2010Prop45
280
     0
102
RTVSPost2010PropOp45
 70
     0
102
RTVSPost2010Prop46
 90
       50
102
RTVSPost2010PropOp46
 70
     0
102
RTVSPost2010Prop47
 90
       50
102
RTVSPost2010PropOp47
 70
     0
102
RTVSPost2010Prop48
 90
       50
102
RTVSPost2010PropOp48
 70
     0
102
RTVSPost2010Prop49
280
     0
102
RTVSPost2010PropOp49
 70
     0
102
RTVSPost2010Prop50
 90
       50
102
RTVSPost2010PropOp50
 70
     0
102
RTVSPost2010Prop51ColorIndex
 90
      256
102
RTVSPost2010Prop51ColorRGB
 90
-16777216
102
RTVSPost2010PropOp51
 70
     0
102
RTVSPost2010Prop52
140
1.0
102
RTVSPost2010PropOp52
 70
     0
102
RTVSPost2010Prop53
 90
        2
102
RTVSPost2010PropOp53
 70
     0
102
RTVSPost2010Prop54
  1
strokes_ogs.tif
102
RTVSPost2010PropOp54
 70
     0
102
RTVSPost2010Prop55
280
     0
102
RTVSPost2010PropOp55
 70
     0
102
RTVSPost2010Prop56
140
1.0
102
RTVSPost2010PropOp56
 70
     0
102
RTVSPost2010Prop57
140
1.0
102
RTVSPost2010PropOp57
 70
     0
  0
XRECORD
  5
195
102
{ACAD_REACTORS
330
194
102
}
330
194
100
AcDbXrecord
280
     1
102
RTVSPost2010Prop28
280
     0
102
RTVSPost2010PropOp28
 70
     1
102
RTVSPost2010Prop29
280
     1
102
RTVSPost2010PropOp29
 70
     1
102
RTVSPost2010Prop30
280
     1
102
RTVSPost2010PropOp30
 70
     1
102
RTVSPost2010Prop31
280
     0
102
RTVSPost2010PropOp31
 70
     1
102
RTVSPost2010Prop32
280
     0
102
RTVSPost2010PropOp32
 70
     1
102
RTVSPost2010Prop33
280
     0
102
RTVSPost2010PropOp33
 70
     1
102
RTVSPost2010Prop34
280
     0
102
RTVSPost2010PropOp34
 70
     1
102
RTVSPost2010Prop35
280
     0
102
RTVSPost2010PropOp35
 70
     1
102
RTVSPost2010Prop36
280
     0
102
RTVSPost2010PropOp36
 70
     1
102
RTVSPost2010Prop37
 90
       50
102
RTVSPost2010PropOp37
 70
     1
102
RTVSPost2010Prop38
140
0.0
102
RTVSPost2010PropOp38
 70
     1
102
RTVSPost2010Prop39
140
1.0
102
RTVSPost2010PropOp39
 70
     1
102
RTVSPost2010Prop40
 90
        0
102
RTVSPost2010PropOp40
 70
     1
102
RTVSPost2010Prop41ColorIndex
 90
       18
102
RTVSPost2010Prop41ColorRGB
 90
        0
102
RTVSPost2010PropOp41
 70
     1
102
RTVSPost2010Prop42
 90
       50
102
RTVSPost2010PropOp42
 70
     1
102
RTVSPost2010Prop43
 90
        3
102
RTVSPost2010PropOp43
 70
     1
102
RTVSPost2010Prop44ColorIndex
 90
        5
102
RTVSPost2010Prop44ColorRGB
 90
      255
102
RTVSPost2010PropOp44
 70
     1
102
RTVSPost2010Prop45
280
     0
102
RTVSPost2010PropOp45
 70
     1
102
RTVSPost2010Prop46
 90
       50
102
RTVSPost2010PropOp46
 70
     1
102
RTVSPost2010Prop47
 90
       50
102
RTVSPost2010PropOp47
 70
     1
102
RTVSPost2010Prop48
 90
       50
102
RTVSPost2010PropOp48
 70
     1
102
RTVSPost2010Prop49
280
     0
102
RTVSPost2010PropOp49
 70
     1
102
RTVSPost2010Prop50
 90
       50
102
RTVSPost2010PropOp50
 70
     1
102
RTVSPost2010Prop51ColorIndex
 90
      256
102
RTVSPost2010Prop51ColorRGB
 90
-16777216
102
RTVSPost2010PropOp51
 70
     0
102
RTVSPost2010Prop52
140
1.0
102
RTVSPost2010PropOp52
 70
     0
102
RTVSPost2010Prop53
 90
        2
102
RTVSPost2010PropOp53
 70
     1
102
RTVSPost2010Prop54
  1
strokes_ogs.tif
102
RTVSPost2010PropOp54
 70
     1
102
RTVSPost2010Prop55
280
     0
102
RTVSPost2010PropOp55
 70
     1
102
RTVSPost2010Prop56
140
1.0
102
RTVSPost2010PropOp56
 70
     1
102
RTVSPost2010Prop57
140
1.0
102
RTVSPost2010PropOp57
 70
     1
  0
XRECORD
  5
19D
102
{ACAD_REACTORS
330
19C
102
}
330
19C
100
AcDbXrecord
280
     1
102
RTVSPost2010Prop28
280
     0
102
RTVSPost2010PropOp28
 70
     0
102
RTVSPost2010Prop29
280
     1
102
RTVSPost2010PropOp29
 70
     0
102
RTVSPost2010Prop30
280
     1
102
RTVSPost2010PropOp30
 70
     0
102
RTVSPost2010Prop31
280
     0
102
RTVSPost2010PropOp31
 70
     0
102
RTVSPost2010Prop32
280
     0
102
RTVSPost2010PropOp32
 70
     0
102
RTVSPost2010Prop33
280
     0
102
RTVSPost2010PropOp33
 70
     0
102
RTVSPost2010Prop34
280
     0
102
RTVSPost2010PropOp34
 70
     0
102
RTVSPost2010Prop35
280
     0
102
RTVSPost2010PropOp35
 70
     0
102
RTVSPost2010Prop36
280
     0
102
RTVSPost2010PropOp36
 70
     0
102
RTVSPost2010Prop37
 90
       50
102
RTVSPost2010PropOp37
 70
     0
102
RTVSPost2010Prop38
140
0.0
102
RTVSPost2010PropOp38
 70
     0
102
RTVSPost2010Prop39
140
1.0
102
RTVSPost2010PropOp39
 70
     0
102
RTVSPost2010Prop40
 90
        0
102
RTVSPost2010PropOp40
 70
     0
102
RTVSPost2010Prop41ColorIndex
 90
       18
102
RTVSPost2010Prop41ColorRGB
 90
        0
102
RTVSPost2010PropOp41
 70
     0
102
RTVSPost2010Prop42
 90
       50
102
RTVSPost2010PropOp42
 70
     0
102
RTVSPost2010Prop43
 90
        3
102
RTVSPost2010PropOp43
 70
     0
102
RTVSPost2010Prop44ColorIndex
 90
        5
102
RTVSPost2010Prop44ColorRGB
 90
      255
102
RTVSPost2010PropOp44
 70
     0
102
RTVSPost2010Prop45
280
     0
102
RTVSPost2010PropOp45
 70
     0
102
RTVSPost2010Prop46
 90
       50
102
RTVSPost2010PropOp46
 70
     0
102
RTVSPost2010Prop47
 90
       50
102
RTVSPost2010PropOp47
 70
     0
102
RTVSPost2010Prop48
 90
       50
102
RTVSPost2010PropOp48
 70
     0
102
RTVSPost2010Prop49
280
     0
102
RTVSPost2010PropOp49
 70
     0
102
RTVSPost2010Prop50
 90
       50
102
RTVSPost2010PropOp50
 70
     0
102
RTVSPost2010Prop51ColorIndex
 90
      256
102
RTVSPost2010Prop51ColorRGB
 90
-16777216
102
RTVSPost2010PropOp51
 70
     0
102
RTVSPost2010Prop52
140
1.0
102
RTVSPost2010PropOp52
 70
     0
102
RTVSPost2010Prop53
 90
        2
102
RTVSPost2010PropOp53
 70
     0
102
RTVSPost2010Prop54
  1
strokes_ogs.tif
102
RTVSPost2010PropOp54
 70
     0
102
RTVSPost2010Prop55
280
     0
102
RTVSPost2010PropOp55
 70
     0
102
RTVSPost2010Prop56
140
1.0
102
RTVSPost2010PropOp56
 70
     0
102
RTVSPost2010Prop57
140
1.0
102
RTVSPost2010PropOp57
 70
     0
  0
XRECORD
  5
18B
102
{ACAD_REACTORS
330
18A
102
}
330
18A
100
AcDbXrecord
280
     1
102
RTVSPost2010Prop28
280
     0
102
RTVSPost2010PropOp28
 70
     1
102
RTVSPost2010Prop29
280
     1
102
RTVSPost2010PropOp29
 70
     1
102
RTVSPost2010Prop30
280
     1
102
RTVSPost2010PropOp30
 70
     1
102
RTVSPost2010Prop31
280
     0
102
RTVSPost2010PropOp31
 70
     1
102
RTVSPost2010Prop32
280
     0
102
RTVSPost2010PropOp32
 70
     1
102
RTVSPost2010Prop33
280
     0
102
RTVSPost2010PropOp33
 70
     1
102
RTVSPost2010Prop34
280
     0
102
RTVSPost2010PropOp34
 70
     1
102
RTVSPost2010Prop35
280
     0
102
RTVSPost2010PropOp35
 70
     1
102
RTVSPost2010Prop36
280
     0
102
RTVSPost2010PropOp36
 70
     1
102
RTVSPost2010Prop37
 90
       50
102
RTVSPost2010PropOp37
 70
     1
102
RTVSPost2010Prop38
140
0.0
102
RTVSPost2010PropOp38
 70
     1
102
RTVSPost2010Prop39
140
1.0
102
RTVSPost2010PropOp39
 70
     1
102
RTVSPost2010Prop40
 90
        0
102
RTVSPost2010PropOp40
 70
     1
102
RTVSPost2010Prop41ColorIndex
 90
       18
102
RTVSPost2010Prop41ColorRGB
 90
        0
102
RTVSPost2010PropOp41
 70
     1
102
RTVSPost2010Prop42
 90
       50
102
RTVSPost2010PropOp42
 70
     1
102
RTVSPost2010Prop43
 90
        3
102
RTVSPost2010PropOp43
 70
     1
102
RTVSPost2010Prop44ColorIndex
 90
        5
102
RTVSPost2010Prop44ColorRGB
 90
      255
102
RTVSPost2010PropOp44
 70
     1
102
RTVSPost2010Prop45
280
     0
102
RTVSPost2010PropOp45
 70
     1
102
RTVSPost2010Prop46
 90
       50
102
RTVSPost2010PropOp46
 70
     1
102
RTVSPost2010Prop47
 90
       50
102
RTVSPost2010PropOp47
 70
     1
102
RTVSPost2010Prop48
 90
       50
102
RTVSPost2010PropOp48
 70
     1
102
RTVSPost2010Prop49
280
     0
102
RTVSPost2010PropOp49
 70
     1
102
RTVSPost2010Prop50
 90
       50
102
RTVSPost2010PropOp50
 70
     1
102
RTVSPost2010Prop51ColorIndex
 90
      256
102
RTVSPost2010Prop51ColorRGB
 90
-16777216
102
RTVSPost2010PropOp51
 70
     0
102
RTVSPost2010Prop52
140
1.0
102
RTVSPost2010PropOp52
 70
     0
102
RTVSPost2010Prop53
 90
        2
102
RTVSPost2010PropOp53
 70
     1
102
RTVSPost2010Prop54
  1
strokes_ogs.tif
102
RTVSPost2010PropOp54
 70
     1
102
RTVSPost2010Prop55
280
     0
102
RTVSPost2010PropOp55
 70
     1
102
RTVSPost2010Prop56
140
1.0
102
RTVSPost2010PropOp56
 70
     1
102
RTVSPost2010Prop57
140
1.0
102
RTVSPost2010PropOp57
 70
     1
  0
XRECORD
  5
1A9
102
{ACAD_REACTORS
330
1A8
102
}
330
1A8
100
AcDbXrecord
280
     1
102
RTVSPost2010Prop28
280
     0
102
RTVSPost2010PropOp28
 70
     1
102
RTVSPost2010Prop29
280
     1
102
RTVSPost2010PropOp29
 70
     1
102
RTVSPost2010Prop30
280
     1
102
RTVSPost2010PropOp30
 70
     1
102
RTVSPost2010Prop31
280
     0
102
RTVSPost2010PropOp31
 70
     1
102
RTVSPost2010Prop32
280
     0
102
RTVSPost2010PropOp32
 70
     1
102
RTVSPost2010Prop33
280
     0
102
RTVSPost2010PropOp33
 70
     1
102
RTVSPost2010Prop34
280
     0
102
RTVSPost2010PropOp34
 70
     1
102
RTVSPost2010Prop35
280
     0
102
RTVSPost2010PropOp35
 70
     1
102
RTVSPost2010Prop36
280
     0
102
RTVSPost2010PropOp36
 70
     1
102
RTVSPost2010Prop37
 90
       50
102
RTVSPost2010PropOp37
 70
     1
102
RTVSPost2010Prop38
140
0.0
102
RTVSPost2010PropOp38
 70
     1
102
RTVSPost2010Prop39
140
1.0
102
RTVSPost2010PropOp39
 70
     1
102
RTVSPost2010Prop40
 90
        0
102
RTVSPost2010PropOp40
 70
     1
102
RTVSPost2010Prop41ColorIndex
 90
       18
102
RTVSPost2010Prop41ColorRGB
 90
        0
102
RTVSPost2010PropOp41
 70
     1
102
RTVSPost2010Prop42
 90
       50
102
RTVSPost2010PropOp42
 70
     1
102
RTVSPost2010Prop43
 90
        3
102
RTVSPost2010PropOp43
 70
     1
102
RTVSPost2010Prop44ColorIndex
 90
        5
102
RTVSPost2010Prop44ColorRGB
 90
      255
102
RTVSPost2010PropOp44
 70
     1
102
RTVSPost2010Prop45
280
     0
102
RTVSPost2010PropOp45
 70
     1
102
RTVSPost2010Prop46
 90
       50
102
RTVSPost2010PropOp46
 70
     1
102
RTVSPost2010Prop47
 90
       50
102
RTVSPost2010PropOp47
 70
     1
102
RTVSPost2010Prop48
 90
       50
102
RTVSPost2010PropOp48
 70
     1
102
RTVSPost2010Prop49
280
     0
102
RTVSPost2010PropOp49
 70
     1
102
RTVSPost2010Prop50
 90
       50
102
RTVSPost2010PropOp50
 70
     1
102
RTVSPost2010Prop51ColorIndex
 90
      256
102
RTVSPost2010Prop51ColorRGB
 90
-16777216
102
RTVSPost2010PropOp51
 70
     0
102
RTVSPost2010Prop52
140
1.0
102
RTVSPost2010PropOp52
 70
     0
102
RTVSPost2010Prop53
 90
        2
102
RTVSPost2010PropOp53
 70
     1
102
RTVSPost2010Prop54
  1
strokes_ogs.tif
102
RTVSPost2010PropOp54
 70
     1
102
RTVSPost2010Prop55
280
     0
102
RTVSPost2010PropOp55
 70
     1
102
RTVSPost2010Prop56
140
1.0
102
RTVSPost2010PropOp56
 70
     1
102
RTVSPost2010Prop57
140
1.0
102
RTVSPost2010PropOp57
 70
     1
  0
XRECORD
  5
1A7
102
{ACAD_REACTORS
330
1A6
102
}
330
1A6
100
AcDbXrecord
280
     1
102
RTVSPost2010Prop28
280
     0
102
RTVSPost2010PropOp28
 70
     1
102
RTVSPost2010Prop29
280
     1
102
RTVSPost2010PropOp29
 70
     1
102
RTVSPost2010Prop30
280
     1
102
RTVSPost2010PropOp30
 70
     1
102
RTVSPost2010Prop31
280
     0
102
RTVSPost2010PropOp31
 70
     1
102
RTVSPost2010Prop32
280
     0
102
RTVSPost2010PropOp32
 70
     1
102
RTVSPost2010Prop33
280
     0
102
RTVSPost2010PropOp33
 70
     1
102
RTVSPost2010Prop34
280
     0
102
RTVSPost2010PropOp34
 70
     1
102
RTVSPost2010Prop35
280
     0
102
RTVSPost2010PropOp35
 70
     1
102
RTVSPost2010Prop36
280
     0
102
RTVSPost2010PropOp36
 70
     1
102
RTVSPost2010Prop37
 90
       50
102
RTVSPost2010PropOp37
 70
     1
102
RTVSPost2010Prop38
140
0.0
102
RTVSPost2010PropOp38
 70
     1
102
RTVSPost2010Prop39
140
1.0
102
RTVSPost2010PropOp39
 70
     1
102
RTVSPost2010Prop40
 90
        0
102
RTVSPost2010PropOp40
 70
     1
102
RTVSPost2010Prop41ColorIndex
 90
       18
102
RTVSPost2010Prop41ColorRGB
 90
        0
102
RTVSPost2010PropOp41
 70
     1
102
RTVSPost2010Prop42
 90
       50
102
RTVSPost2010PropOp42
 70
     1
102
RTVSPost2010Prop43
 90
        3
102
RTVSPost2010PropOp43
 70
     1
102
RTVSPost2010Prop44ColorIndex
 90
        5
102
RTVSPost2010Prop44ColorRGB
 90
      255
102
RTVSPost2010PropOp44
 70
     1
102
RTVSPost2010Prop45
280
     0
102
RTVSPost2010PropOp45
 70
     1
102
RTVSPost2010Prop46
 90
       50
102
RTVSPost2010PropOp46
 70
     1
102
RTVSPost2010Prop47
 90
       50
102
RTVSPost2010PropOp47
 70
     1
102
RTVSPost2010Prop48
 90
       50
102
RTVSPost2010PropOp48
 70
     1
102
RTVSPost2010Prop49
280
     0
102
RTVSPost2010PropOp49
 70
     1
102
RTVSPost2010Prop50
 90
       50
102
RTVSPost2010PropOp50
 70
     1
102
RTVSPost2010Prop51ColorIndex
 90
      256
102
RTVSPost2010Prop51ColorRGB
 90
-16777216
102
RTVSPost2010PropOp51
 70
     0
102
RTVSPost2010Prop52
140
1.0
102
RTVSPost2010PropOp52
 70
     0
102
RTVSPost2010Prop53
 90
        2
102
RTVSPost2010PropOp53
 70
     1
102
RTVSPost2010Prop54
  1
strokes_ogs.tif
102
RTVSPost2010PropOp54
 70
     1
102
RTVSPost2010Prop55
280
     0
102
RTVSPost2010PropOp55
 70
     1
102
RTVSPost2010Prop56
140
1.0
102
RTVSPost2010PropOp56
 70
     1
102
RTVSPost2010Prop57
140
1.0
102
RTVSPost2010PropOp57
 70
     1
  0
XRECORD
  5
1A1
102
{ACAD_REACTORS
330
1A0
102
}
330
1A0
100
AcDbXrecord
280
     1
102
RTVSPost2010Prop28
280
     0
102
RTVSPost2010PropOp28
 70
     1
102
RTVSPost2010Prop29
280
     1
102
RTVSPost2010PropOp29
 70
     1
102
RTVSPost2010Prop30
280
     1
102
RTVSPost2010PropOp30
 70
     1
102
RTVSPost2010Prop31
280
     0
102
RTVSPost2010PropOp31
 70
     1
102
RTVSPost2010Prop32
280
     0
102
RTVSPost2010PropOp32
 70
     1
102
RTVSPost2010Prop33
280
     0
102
RTVSPost2010PropOp33
 70
     1
102
RTVSPost2010Prop34
280
     0
102
RTVSPost2010PropOp34
 70
     1
102
RTVSPost2010Prop35
280
     0
102
RTVSPost2010PropOp35
 70
     1
102
RTVSPost2010Prop36
280
     0
102
RTVSPost2010PropOp36
 70
     1
102
RTVSPost2010Prop37
 90
       50
102
RTVSPost2010PropOp37
 70
     1
102
RTVSPost2010Prop38
140
0.0
102
RTVSPost2010PropOp38
 70
     1
102
RTVSPost2010Prop39
140
1.0
102
RTVSPost2010PropOp39
 70
     1
102
RTVSPost2010Prop40
 90
        0
102
RTVSPost2010PropOp40
 70
     1
102
RTVSPost2010Prop41ColorIndex
 90
       18
102
RTVSPost2010Prop41ColorRGB
 90
        0
102
RTVSPost2010PropOp41
 70
     1
102
RTVSPost2010Prop42
 90
       50
102
RTVSPost2010PropOp42
 70
     1
102
RTVSPost2010Prop43
 90
        3
102
RTVSPost2010PropOp43
 70
     1
102
RTVSPost2010Prop44ColorIndex
 90
        5
102
RTVSPost2010Prop44ColorRGB
 90
      255
102
RTVSPost2010PropOp44
 70
     1
102
RTVSPost2010Prop45
280
     0
102
RTVSPost2010PropOp45
 70
     1
102
RTVSPost2010Prop46
 90
       50
102
RTVSPost2010PropOp46
 70
     1
102
RTVSPost2010Prop47
 90
       50
102
RTVSPost2010PropOp47
 70
     1
102
RTVSPost2010Prop48
 90
       50
102
RTVSPost2010PropOp48
 70
     1
102
RTVSPost2010Prop49
280
     0
102
RTVSPost2010PropOp49
 70
     1
102
RTVSPost2010Prop50
 90
       50
102
RTVSPost2010PropOp50
 70
     1
102
RTVSPost2010Prop51ColorIndex
 90
      256
102
RTVSPost2010Prop51ColorRGB
 90
-16777216
102
RTVSPost2010PropOp51
 70
     0
102
RTVSPost2010Prop52
140
1.0
102
RTVSPost2010PropOp52
 70
     0
102
RTVSPost2010Prop53
 90
        2
102
RTVSPost2010PropOp53
 70
     1
102
RTVSPost2010Prop54
  1
strokes_ogs.tif
102
RTVSPost2010PropOp54
 70
     1
102
RTVSPost2010Prop55
280
     0
102
RTVSPost2010PropOp55
 70
     1
102
RTVSPost2010Prop56
140
1.0
102
RTVSPost2010PropOp56
 70
     1
102
RTVSPost2010Prop57
140
1.0
102
RTVSPost2010PropOp57
 70
     1
  0
XRECORD
  5
1A3
102
{ACAD_REACTORS
330
1A2
102
}
330
1A2
100
AcDbXrecord
280
     1
102
RTVSPost2010Prop28
280
     0
102
RTVSPost2010PropOp28
 70
     1
102
RTVSPost2010Prop29
280
     1
102
RTVSPost2010PropOp29
 70
     1
102
RTVSPost2010Prop30
280
     1
102
RTVSPost2010PropOp30
 70
     1
102
RTVSPost2010Prop31
280
     0
102
RTVSPost2010PropOp31
 70
     1
102
RTVSPost2010Prop32
280
     0
102
RTVSPost2010PropOp32
 70
     1
102
RTVSPost2010Prop33
280
     0
102
RTVSPost2010PropOp33
 70
     1
102
RTVSPost2010Prop34
280
     0
102
RTVSPost2010PropOp34
 70
     1
102
RTVSPost2010Prop35
280
     0
102
RTVSPost2010PropOp35
 70
     1
102
RTVSPost2010Prop36
280
     0
102
RTVSPost2010PropOp36
 70
     1
102
RTVSPost2010Prop37
 90
       50
102
RTVSPost2010PropOp37
 70
     1
102
RTVSPost2010Prop38
140
0.0
102
RTVSPost2010PropOp38
 70
     1
102
RTVSPost2010Prop39
140
1.0
102
RTVSPost2010PropOp39
 70
     1
102
RTVSPost2010Prop40
 90
        0
102
RTVSPost2010PropOp40
 70
     1
102
RTVSPost2010Prop41ColorIndex
 90
       18
102
RTVSPost2010Prop41ColorRGB
 90
        0
102
RTVSPost2010PropOp41
 70
     1
102
RTVSPost2010Prop42
 90
       50
102
RTVSPost2010PropOp42
 70
     1
102
RTVSPost2010Prop43
 90
        3
102
RTVSPost2010PropOp43
 70
     1
102
RTVSPost2010Prop44ColorIndex
 90
        5
102
RTVSPost2010Prop44ColorRGB
 90
      255
102
RTVSPost2010PropOp44
 70
     1
102
RTVSPost2010Prop45
280
     0
102
RTVSPost2010PropOp45
 70
     1
102
RTVSPost2010Prop46
 90
       50
102
RTVSPost2010PropOp46
 70
     1
102
RTVSPost2010Prop47
 90
       50
102
RTVSPost2010PropOp47
 70
     1
102
RTVSPost2010Prop48
 90
       50
102
RTVSPost2010PropOp48
 70
     1
102
RTVSPost2010Prop49
280
     0
102
RTVSPost2010PropOp49
 70
     1
102
RTVSPost2010Prop50
 90
       50
102
RTVSPost2010PropOp50
 70
     1
102
RTVSPost2010Prop51ColorIndex
 90
      256
102
RTVSPost2010Prop51ColorRGB
 90
-16777216
102
RTVSPost2010PropOp51
 70
     0
102
RTVSPost2010Prop52
140
1.0
102
RTVSPost2010PropOp52
 70
     0
102
RTVSPost2010Prop53
 90
        2
102
RTVSPost2010PropOp53
 70
     1
102
RTVSPost2010Prop54
  1
strokes_ogs.tif
102
RTVSPost2010PropOp54
 70
     1
102
RTVSPost2010Prop55
280
     0
102
RTVSPost2010PropOp55
 70
     1
102
RTVSPost2010Prop56
140
1.0
102
RTVSPost2010PropOp56
 70
     1
102
RTVSPost2010Prop57
140
1.0
102
RTVSPost2010PropOp57
 70
     1
  0
XRECORD
  5
193
102
{ACAD_REACTORS
330
192
102
}
330
192
100
AcDbXrecord
280
     1
102
RTVSPost2010Prop28
280
     0
102
RTVSPost2010PropOp28
 70
     1
102
RTVSPost2010Prop29
280
     1
102
RTVSPost2010PropOp29
 70
     1
102
RTVSPost2010Prop30
280
     1
102
RTVSPost2010PropOp30
 70
     1
102
RTVSPost2010Prop31
280
     0
102
RTVSPost2010PropOp31
 70
     1
102
RTVSPost2010Prop32
280
     0
102
RTVSPost2010PropOp32
 70
     1
102
RTVSPost2010Prop33
280
     0
102
RTVSPost2010PropOp33
 70
     1
102
RTVSPost2010Prop34
280
     0
102
RTVSPost2010PropOp34
 70
     1
102
RTVSPost2010Prop35
280
     0
102
RTVSPost2010PropOp35
 70
     1
102
RTVSPost2010Prop36
280
     0
102
RTVSPost2010PropOp36
 70
     1
102
RTVSPost2010Prop37
 90
       50
102
RTVSPost2010PropOp37
 70
     1
102
RTVSPost2010Prop38
140
0.0
102
RTVSPost2010PropOp38
 70
     1
102
RTVSPost2010Prop39
140
1.0
102
RTVSPost2010PropOp39
 70
     1
102
RTVSPost2010Prop40
 90
        0
102
RTVSPost2010PropOp40
 70
     1
102
RTVSPost2010Prop41ColorIndex
 90
       18
102
RTVSPost2010Prop41ColorRGB
 90
        0
102
RTVSPost2010PropOp41
 70
     1
102
RTVSPost2010Prop42
 90
       50
102
RTVSPost2010PropOp42
 70
     1
102
RTVSPost2010Prop43
 90
        3
102
RTVSPost2010PropOp43
 70
     1
102
RTVSPost2010Prop44ColorIndex
 90
        5
102
RTVSPost2010Prop44ColorRGB
 90
      255
102
RTVSPost2010PropOp44
 70
     1
102
RTVSPost2010Prop45
280
     0
102
RTVSPost2010PropOp45
 70
     1
102
RTVSPost2010Prop46
 90
       50
102
RTVSPost2010PropOp46
 70
     1
102
RTVSPost2010Prop47
 90
       50
102
RTVSPost2010PropOp47
 70
     1
102
RTVSPost2010Prop48
 90
       50
102
RTVSPost2010PropOp48
 70
     1
102
RTVSPost2010Prop49
280
     0
102
RTVSPost2010PropOp49
 70
     1
102
RTVSPost2010Prop50
 90
       50
102
RTVSPost2010PropOp50
 70
     1
102
RTVSPost2010Prop51ColorIndex
 90
      256
102
RTVSPost2010Prop51ColorRGB
 90
-16777216
102
RTVSPost2010PropOp51
 70
     0
102
RTVSPost2010Prop52
140
1.0
102
RTVSPost2010PropOp52
 70
     0
102
RTVSPost2010Prop53
 90
        2
102
RTVSPost2010PropOp53
 70
     1
102
RTVSPost2010Prop54
  1
strokes_ogs.tif
102
RTVSPost2010PropOp54
 70
     1
102
RTVSPost2010Prop55
280
     0
102
RTVSPost2010PropOp55
 70
     1
102
RTVSPost2010Prop56
140
1.0
102
RTVSPost2010PropOp56
 70
     1
102
RTVSPost2010Prop57
140
1.0
102
RTVSPost2010PropOp57
 70
     1
  0
XRECORD
  5
185
102
{ACAD_REACTORS
330
184
102
}
330
184
100
AcDbXrecord
280
     1
102
RTVSPost2010Prop28
280
     0
102
RTVSPost2010PropOp28
 70
     1
102
RTVSPost2010Prop29
280
     1
102
RTVSPost2010PropOp29
 70
     1
102
RTVSPost2010Prop30
280
     1
102
RTVSPost2010PropOp30
 70
     1
102
RTVSPost2010Prop31
280
     0
102
RTVSPost2010PropOp31
 70
     1
102
RTVSPost2010Prop32
280
     0
102
RTVSPost2010PropOp32
 70
     1
102
RTVSPost2010Prop33
280
     0
102
RTVSPost2010PropOp33
 70
     1
102
RTVSPost2010Prop34
280
     0
102
RTVSPost2010PropOp34
 70
     1
102
RTVSPost2010Prop35
280
     0
102
RTVSPost2010PropOp35
 70
     1
102
RTVSPost2010Prop36
280
     0
102
RTVSPost2010PropOp36
 70
     1
102
RTVSPost2010Prop37
 90
       50
102
RTVSPost2010PropOp37
 70
     1
102
RTVSPost2010Prop38
140
0.0
102
RTVSPost2010PropOp38
 70
     1
102
RTVSPost2010Prop39
140
1.0
102
RTVSPost2010PropOp39
 70
     1
102
RTVSPost2010Prop40
 90
        0
102
RTVSPost2010PropOp40
 70
     1
102
RTVSPost2010Prop41ColorIndex
 90
       18
102
RTVSPost2010Prop41ColorRGB
 90
        0
102
RTVSPost2010PropOp41
 70
     1
102
RTVSPost2010Prop42
 90
       50
102
RTVSPost2010PropOp42
 70
     1
102
RTVSPost2010Prop43
 90
        3
102
RTVSPost2010PropOp43
 70
     1
102
RTVSPost2010Prop44ColorIndex
 90
        5
102
RTVSPost2010Prop44ColorRGB
 90
      255
102
RTVSPost2010PropOp44
 70
     1
102
RTVSPost2010Prop45
280
     0
102
RTVSPost2010PropOp45
 70
     1
102
RTVSPost2010Prop46
 90
       50
102
RTVSPost2010PropOp46
 70
     1
102
RTVSPost2010Prop47
 90
       50
102
RTVSPost2010PropOp47
 70
     1
102
RTVSPost2010Prop48
 90
       50
102
RTVSPost2010PropOp48
 70
     1
102
RTVSPost2010Prop49
280
     0
102
RTVSPost2010PropOp49
 70
     1
102
RTVSPost2010Prop50
 90
       50
102
RTVSPost2010PropOp50
 70
     1
102
RTVSPost2010Prop51ColorIndex
 90
      256
102
RTVSPost2010Prop51ColorRGB
 90
-16777216
102
RTVSPost2010PropOp51
 70
     0
102
RTVSPost2010Prop52
140
1.0
102
RTVSPost2010PropOp52
 70
     0
102
RTVSPost2010Prop53
 90
        2
102
RTVSPost2010PropOp53
 70
     1
102
RTVSPost2010Prop54
  1
strokes_ogs.tif
102
RTVSPost2010PropOp54
 70
     1
102
RTVSPost2010Prop55
280
     0
102
RTVSPost2010PropOp55
 70
     1
102
RTVSPost2010Prop56
140
1.0
102
RTVSPost2010PropOp56
 70
     1
102
RTVSPost2010Prop57
140
1.0
102
RTVSPost2010PropOp57
 70
     1
  0
XRECORD
  5
1A5
102
{ACAD_REACTORS
330
1A4
102
}
330
1A4
100
AcDbXrecord
280
     1
102
RTVSPost2010Prop28
280
     0
102
RTVSPost2010PropOp28
 70
     1
102
RTVSPost2010Prop29
280
     1
102
RTVSPost2010PropOp29
 70
     1
102
RTVSPost2010Prop30
280
     1
102
RTVSPost2010PropOp30
 70
     1
102
RTVSPost2010Prop31
280
     0
102
RTVSPost2010PropOp31
 70
     1
102
RTVSPost2010Prop32
280
     0
102
RTVSPost2010PropOp32
 70
     1
102
RTVSPost2010Prop33
280
     0
102
RTVSPost2010PropOp33
 70
     1
102
RTVSPost2010Prop34
280
     0
102
RTVSPost2010PropOp34
 70
     1
102
RTVSPost2010Prop35
280
     0
102
RTVSPost2010PropOp35
 70
     1
102
RTVSPost2010Prop36
280
     0
102
RTVSPost2010PropOp36
 70
     1
102
RTVSPost2010Prop37
 90
       50
102
RTVSPost2010PropOp37
 70
     1
102
RTVSPost2010Prop38
140
0.0
102
RTVSPost2010PropOp38
 70
     1
102
RTVSPost2010Prop39
140
1.0
102
RTVSPost2010PropOp39
 70
     1
102
RTVSPost2010Prop40
 90
        0
102
RTVSPost2010PropOp40
 70
     1
102
RTVSPost2010Prop41ColorIndex
 90
       18
102
RTVSPost2010Prop41ColorRGB
 90
        0
102
RTVSPost2010PropOp41
 70
     1
102
RTVSPost2010Prop42
 90
       50
102
RTVSPost2010PropOp42
 70
     1
102
RTVSPost2010Prop43
 90
        3
102
RTVSPost2010PropOp43
 70
     1
102
RTVSPost2010Prop44ColorIndex
 90
        5
102
RTVSPost2010Prop44ColorRGB
 90
      255
102
RTVSPost2010PropOp44
 70
     1
102
RTVSPost2010Prop45
280
     0
102
RTVSPost2010PropOp45
 70
     1
102
RTVSPost2010Prop46
 90
       50
102
RTVSPost2010PropOp46
 70
     1
102
RTVSPost2010Prop47
 90
       50
102
RTVSPost2010PropOp47
 70
     1
102
RTVSPost2010Prop48
 90
       50
102
RTVSPost2010PropOp48
 70
     1
102
RTVSPost2010Prop49
280
     0
102
RTVSPost2010PropOp49
 70
     1
102
RTVSPost2010Prop50
 90
       50
102
RTVSPost2010PropOp50
 70
     1
102
RTVSPost2010Prop51ColorIndex
 90
      256
102
RTVSPost2010Prop51ColorRGB
 90
-16777216
102
RTVSPost2010PropOp51
 70
     0
102
RTVSPost2010Prop52
140
1.0
102
RTVSPost2010PropOp52
 70
     0
102
RTVSPost2010Prop53
 90
        2
102
RTVSPost2010PropOp53
 70
     1
102
RTVSPost2010Prop54
  1
strokes_ogs.tif
102
RTVSPost2010PropOp54
 70
     1
102
RTVSPost2010Prop55
280
     0
102
RTVSPost2010PropOp55
 70
     1
102
RTVSPost2010Prop56
140
1.0
102
RTVSPost2010PropOp56
 70
     1
102
RTVSPost2010Prop57
140
1.0
102
RTVSPost2010PropOp57
 70
     1
  0
ENDSEC
  0
EOF