0
SECTION
  2
HEADER
  9
$ACADVER
  1
AC1024
  9
$ACADMAINTVER
 70
     6
  9
$DWGCODEPAGE
  3
ANSI_1252
  9
$LASTSAVEDBY
  1
BirnerR
  9
$INSBASE
 10
0.0
 20
0.0
 30
0.0
  9
$EXTMIN
 10
2.132554
 20
3.563845
 30
2.132554
  9
$EXTMAX
 10
3.182554
 20
5.04883
 30
3.182554
  9
$LIMMIN
 10
2.132554
 20
3.563845
  9
$LIMMAX
 10
3.182554
 20
5.04883
  9
$ORTHOMODE
 70
     0
  9
$REGENMODE
 70
     1
  9
$FILLMODE
 70
     1
  9
$QTEXTMODE
 70
     0
  9
$MIRRTEXT
 70
     1
  9
$LTSCALE
 40
1.0
  9
$ATTMODE
 70
     1
  9
$TEXTSIZE
 40
0.2
  9
$TRACEWID
 40
0.05
  9
$TEXTSTYLE
  7
Standard
  9
$CLAYER
  8
0
  9
$CELTYPE
  6
ByLayer
  9
$CECOLOR
 62
   256
  9
$CELTSCALE
 40
1.0
  9
$DISPSILH
 70
     0
  9
$DIMSCALE
 40
1.0
  9
$DIMASZ
 40
0.18
  9
$DIMEXO
 40
0.0625
  9
$DIMDLI
 40
0.38
  9
$DIMRND
 40
0.0
  9
$DIMDLE
 40
0.0
  9
$DIMEXE
 40
0.18
  9
$DIMTP
 40
0.0
  9
$DIMTM
 40
0.0
  9
$DIMTXT
 40
0.18
  9
$DIMCEN
 40
0.09
  9
$DIMTSZ
 40
0.0
  9
$DIMTOL
 70
     0
  9
$DIMLIM
 70
     0
  9
$DIMTIH
 70
     1
  9
$DIMTOH
 70
     1
  9
$DIMSE1
 70
     0
  9
$DIMSE2
 70
     0
  9
$DIMTAD
 70
     0
  9
$DIMZIN
 70
     0
  9
$DIMBLK
  1

  9
$DIMASO
 70
     1
  9
$DIMSHO
 70
     1
  9
$DIMPOST
  1

  9
$DIMAPOST
  1

  9
$DIMALT
 70
     0
  9
$DIMALTD
 70
     2
  9
$DIMALTF
 40
25.4
  9
$DIMLFAC
 40
1.0
  9
$DIMTOFL
 70
     0
  9
$DIMTVP
 40
0.0
  9
$DIMTIX
 70
     0
  9
$DIMSOXD
 70
     0
  9
$DIMSAH
 70
     0
  9
$DIMBLK1
  1

  9
$DIMBLK2
  1

  9
$DIMSTYLE
  2
Standard
  9
$DIMCLRD
 70
     0
  9
$DIMCLRE
 70
     0
  9
$DIMCLRT
 70
     0
  9
$DIMTFAC
 40
1.0
  9
$DIMGAP
 40
0.09
  9
$DIMJUST
 70
     0
  9
$DIMSD1
 70
     0
  9
$DIMSD2
 70
     0
  9
$DIMTOLJ
 70
     1
  9
$DIMTZIN
 70
     0
  9
$DIMALTZ
 70
     0
  9
$DIMALTTZ
 70
     0
  9
$DIMUPT
 70
     0
  9
$DIMDEC
 70
     4
  9
$DIMTDEC
 70
     4
  9
$DIMALTU
 70
     2
  9
$DIMALTTD
 70
     2
  9
$DIMTXSTY
  7
Standard
  9
$DIMAUNIT
 70
     0
  9
$DIMADEC
 70
     0
  9
$DIMALTRND
 40
0.0
  9
$DIMAZIN
 70
     0
  9
$DIMDSEP
 70
    46
  9
$DIMATFIT
 70
     3
  9
$DIMFRAC
 70
     0
  9
$DIMLDRBLK
  1

  9
$DIMLUNIT
 70
     2
  9
$DIMLWD
 70
    -2
  9
$DIMLWE
 70
    -2
  9
$DIMTMOVE
 70
     0
  9
$DIMFXL
 40
1.0
  9
$DIMFXLON
 70
     0
  9
$DIMJOGANG
 40
0.785398
  9
$DIMTFILL
 70
     0
  9
$DIMTFILLCLR
 70
     0
  9
$DIMARCSYM
 70
     0
  9
$DIMLTYPE
  6

  9
$DIMLTEX1
  6

  9
$DIMLTEX2
  6

  9
$DIMTXTDIRECTION
 70
     0
  9
$LUNITS
 70
     2
  9
$LUPREC
 70
     4
  9
$SKETCHINC
 40
0.1
  9
$FILLETRAD
 40
0.5
  9
$AUNITS
 70
     0
  9
$AUPREC
 70
     0
  9
$MENU
  1
.
  9
$ELEVATION
 40
0.0
  9
$PELEVATION
 40
0.0
  9
$THICKNESS
 40
0.0
  9
$LIMCHECK
 70
     0
  9
$CHAMFERA
 40
0.0
  9
$CHAMFERB
 40
0.0
  9
$CHAMFERC
 40
0.0
  9
$CHAMFERD
 40
0.0
  9
$SKPOLY
 70
     0
  9
$TDCREATE
 40
2459144.58995934
  9
$TDUCREATE
 40
2459144.506626007
  9
$TDUPDATE
 40
2459144.589969826
  9
$TDUUPDATE
 40
2459144.506636493
  9
$TDINDWG
 40
0.0000000116
  9
$TDUSRTIMER
 40
0.0000000116
  9
$USRTIMER
 70
     1
  9
$ANGBASE
 50
0.0
  9
$ANGDIR
 70
     0
  9
$PDMODE
 70
    65
  9
$PDSIZE
 40
0.0
  9
$PLINEWID
 40
0.0
  9
$SPLFRAME
 70
     0
  9
$SPLINETYPE
 70
     6
  9
$SPLINESEGS
 70
     8
  9
$HANDSEED
  5
129
  9
$SURFTAB1
 70
     6
  9
$SURFTAB2
 70
     6
  9
$SURFTYPE
 70
     6
  9
$SURFU
 70
     6
  9
$SURFV
 70
     6
  9
$UCSBASE
  2

  9
$UCSNAME
  2

  9
$UCSORG
 10
0.0
 20
0.0
 30
0.0
  9
$UCSXDIR
 10
1.0
 20
0.0
 30
0.0
  9
$UCSYDIR
 10
0.0
 20
1.0
 30
0.0
  9
$UCSORTHOREF
  2

  9
$UCSORTHOVIEW
 70
     0
  9
$UCSORGTOP
 10
0.0
 20
0.0
 30
0.0
  9
$UCSORGBOTTOM
 10
0.0
 20
0.0
 30
0.0
  9
$UCSORGLEFT
 10
0.0
 20
0.0
 30
0.0
  9
$UCSORGRIGHT
 10
0.0
 20
0.0
 30
0.0
  9
$UCSORGFRONT
 10
0.0
 20
0.0
 30
0.0
  9
$UCSORGBACK
 10
0.0
 20
0.0
 30
0.0
  9
$PUCSBASE
  2

  9
$PUCSNAME
  2

  9
$PUCSORG
 10
0.0
 20
0.0
 30
0.0
  9
$PUCSXDIR
 10
1.0
 20
0.0
 30
0.0
  9
$PUCSYDIR
 10
0.0
 20
1.0
 30
0.0
  9
$PUCSORTHOREF
  2

  9
$PUCSORTHOVIEW
 70
     0
  9
$PUCSORGTOP
 10
0.0
 20
0.0
 30
0.0
  9
$PUCSORGBOTTOM
 10
0.0
 20
0.0
 30
0.0
  9
$PUCSORGLEFT
 10
0.0
 20
0.0
 30
0.0
  9
$PUCSORGRIGHT
 10
0.0
 20
0.0
 30
0.0
  9
$PUCSORGFRONT
 10
0.0
 20
0.0
 30
0.0
  9
$PUCSORGBACK
 10
0.0
 20
0.0
 30
0.0
  9
$USERI1
 70
     0
  9
$USERI2
 70
     0
  9
$USERI3
 70
     0
  9
$USERI4
 70
     0
  9
$USERI5
 70
     0
  9
$USERR1
 40
0.0
  9
$USERR2
 40
0.0
  9
$USERR3
 40
0.0
  9
$USERR4
 40
0.0
  9
$USERR5
 40
0.0
  9
$WORLDVIEW
 70
     1
  9
$SHADEDGE
 70
     3
  9
$SHADEDIF
 70
    70
  9
$TILEMODE
 70
     0
  9
$MAXACTVP
 70
    64
  9
$PINSBASE
 10
0.0
 20
0.0
 30
0.0
  9
$PLIMCHECK
 70
     0
  9
$PEXTMIN
 10
-0.0001
 20
-0.0001
 30
0.0
  9
$PEXTMAX
 10
0.2101
 20
0.297097
 30
0.0
  9
$PLIMMIN
 10
-0.0001
 20
-0.0001
  9
$PLIMMAX
 10
0.2101
 20
0.297097
  9
$UNITMODE
 70
     0
  9
$VISRETAIN
 70
     1
  9
$PLINEGEN
 70
     0
  9
$PSLTSCALE
 70
     0
  9
$TREEDEPTH
 70
  3020
  9
$CMLSTYLE
  2
Standard
  9
$CMLJUST
 70
     0
  9
$CMLSCALE
 40
1.0
  9
$PROXYGRAPHICS
 70
     1
  9
$MEASUREMENT
 70
     1
  9
$CELWEIGHT
370
    -1
  9
$ENDCAPS
280
     0
  9
$JOINSTYLE
280
     0
  9
$LWDISPLAY
290
     0
  9
$INSUNITS
 70
     6
  9
$HYPERLINKBASE
  1

  9
$STYLESHEET
  1

  9
$XEDIT
290
     1
  9
$CEPSNTYPE
380
     0
  9
$PSTYLEMODE
290
     1
  9
$FINGERPRINTGUID
  2
{3dc373c7-8478-4c01-9652-e152376b1004}
  9
$VERSIONGUID
  2
{FAEB1C32-E019-11D5-929B-00C0DF256EC4}
  9
$EXTNAMES
290
     1
  9
$PSVPSCALE
 40
0.0
  9
$OLESTARTUP
290
     0
  9
$SORTENTS
280
   127
  9
$INDEXCTL
280
     0
  9
$HIDETEXT
280
     1
  9
$XCLIPFRAME
280
     2
  9
$HALOGAP
280
     0
  9
$OBSCOLOR
 70
   257
  9
$OBSLTYPE
280
     0
  9
$INTERSECTIONDISPLAY
280
     0
  9
$INTERSECTIONCOLOR
 70
   257
  9
$DIMASSOC
280
     2
  9
$PROJECTNAME
  1

  9
$CAMERADISPLAY
290
     0
  9
$LENSLENGTH
 40
50.0
  9
$CAMERAHEIGHT
 40
0.0
  9
$STEPSPERSEC
 40
2.0
  9
$STEPSIZE
 40
6.0
  9
$3DDWFPREC
 40
2.0
  9
$PSOLWIDTH
 40
0.25
  9
$PSOLHEIGHT
 40
4.0
  9
$LOFTANG1
 40
1.570796
  9
$LOFTANG2
 40
1.570796
  9
$LOFTMAG1
 40
0.0
  9
$LOFTMAG2
 40
0.0
  9
$LOFTPARAM
 70
     7
  9
$LOFTNORMALS
280
     1
  9
$LATITUDE
 40
37.795
  9
$LONGITUDE
 40
-122.394
  9
$NORTHDIRECTION
 40
0.0
  9
$TIMEZONE
 70
 -8000
  9
$LIGHTGLYPHDISPLAY
280
     1
  9
$TILEMODELIGHTSYNCH
280
     1
  9
$CMATERIAL
347
44
  9
$SOLIDHIST
280
     0
  9
$SHOWHIST
280
     1
  9
$DWFFRAME
280
     2
  9
$DGNFRAME
280
     2
  9
$REALWORLDSCALE
290
     1
  9
$INTERFERECOLOR
 62
   256
  9
$CSHADOW
280
     0
  9
$SHADOWPLANELOCATION
 40
0.0
  0
ENDSEC
  0
SECTION
  2
CLASSES
  0
CLASS
  1
ACDBDICTIONARYWDFLT
  2
AcDbDictionaryWithDefault
  3
ObjectDBX Classes
 90
        0
 91
        3
280
     0
281
     0
  0
CLASS
  1
VISUALSTYLE
  2
AcDbVisualStyle
  3
ObjectDBX Classes
 90
     4095
 91
        3
280
     0
281
     0
  0
CLASS
  1
MATERIAL
  2
AcDbMaterial
  3
ObjectDBX Classes
 90
     1153
 91
        3
280
     0
281
     0
  0
CLASS
  1
SCALE
  2
AcDbScale
  3
ObjectDBX Classes
 90
     1153
 91
        3
280
     0
281
     0
  0
CLASS
  1
TABLESTYLE
  2
AcDbTableStyle
  3
ObjectDBX Classes
 90
     4095
 91
        3
280
     0
281
     0
  0
CLASS
  1
MLEADERSTYLE
  2
AcDbMLeaderStyle
  3
ACDB_MLEADERSTYLE_CLASS
 90
     4095
 91
        3
280
     0
281
     0
  0
CLASS
  1
SUN
  2
AcDbSun
  3
SCENEOE
 90
     1153
 91
        3
280
     0
281
     0
  0
CLASS
  1
SORTENTSTABLE
  2
AcDbSortentsTable
  3
ObjectDBX Classes
 90
        0
 91
        3
280
     0
281
     0
  0
CLASS
  1
DICTIONARYVAR
  2
AcDbDictionaryVar
  3
ObjectDBX Classes
 90
        0
 91
        3
280
     0
281
     0
  0
CLASS
  1
CELLSTYLEMAP
  2
AcDbCellStyleMap
  3
ObjectDBX Classes
 90
     1152
 91
        3
280
     0
281
     0
  0
ENDSEC
  0
SECTION
  2
TABLES
  0
TABLE
  2
VPORT
  5
8
330
0
100
AcDbSymbolTable
 70
     1
  0
VPORT
  5
29
330
8
100
AcDbSymbolTableRecord
100
AcDbViewportTableRecord
  2
*Active
 70
     0
 10
0.0
 20
0.0
 11
1.0
 21
1.0
 12
2.657554
 22
4.306338
 13
0.0
 23
0.0
 14
0.5
 24
0.5
 15
0.5
 25
0.5
 16
0.0
 26
0.0
 36
1.0
 17
0.0
 27
0.0
 37
0.0
 40
1.781982
 41
0.848493
 42
50.0
 43
0.0
 44
0.0
 50
0.0
 51
0.0
 71
     0
 72
   100
 73
     1
 74
     3
 75
     0
 76
     0
 77
     0
 78
     0
281
     0
 65
     1
110
0.0
120
0.0
130
0.0
111
1.0
121
0.0
131
0.0
112
0.0
122
1.0
132
0.0
 79
     0
146
0.0
348
2F
 60
     3
 61
     5
292
     1
282
     1
141
0.0
142
0.0
 63
   250
361
6D
  0
ENDTAB
  0
TABLE
  2
LTYPE
  5
5
330
0
100
AcDbSymbolTable
 70
     4
  0
LTYPE
  5
14
330
5
100
AcDbSymbolTableRecord
100
AcDbLinetypeTableRecord
  2
ByBlock
 70
     0
  3

 72
    65
 73
     0
 40
0.0
  0
LTYPE
  5
15
330
5
100
AcDbSymbolTableRecord
100
AcDbLinetypeTableRecord
  2
ByLayer
 70
     0
  3

 72
    65
 73
     0
 40
0.0
  0
LTYPE
  5
16
330
5
100
AcDbSymbolTableRecord
100
AcDbLinetypeTableRecord
  2
Continuous
 70
     0
  3
Solid line
 72
    65
 73
     0
 40
0.0
  0
LTYPE
  5
74
330
5
100
AcDbSymbolTableRecord
100
AcDbLinetypeTableRecord
  2
AUSGEZOGEN
 70
     0
  3
durchgezogene Linie
 72
    65
 73
     0
 40
0.0
  0
LTYPE
  5
7A
330
5
100
AcDbSymbolTableRecord
100
AcDbLinetypeTableRecord
  2
STRICHPUNKT2_S5
 70
     0
  3
Lang eng gestrichelt bzw. punktiert
 72
    65
 73
     4
 40
0.05
 49
0.035
 74
     0
 49
-0.005
 74
     0
 49
0.005
 74
     0
 49
-0.005
 74
     0
  0
LTYPE
  5
7B
330
5
100
AcDbSymbolTableRecord
100
AcDbLinetypeTableRecord
  2
VERDECKT2_S2
 70
     0
  3
Kurzgestrichelt
 72
    65
 73
     2
 40
0.015
 49
0.01
 74
     0
 49
-0.005
 74
     0
  0
ENDTAB
  0
TABLE
  2
LAYER
  5
2
330
0
100
AcDbSymbolTable
 70
     4
  0
LAYER
  5
10
330
2
100
AcDbSymbolTableRecord
100
AcDbLayerTableRecord
  2
0
 70
     0
 62
     7
  6
Continuous
370
    -3
390
F
347
46
  0
LAYER
  5
76
330
2
100
AcDbSymbolTableRecord
100
AcDbLayerTableRecord
  2
PLAN_1407
 70
     0
 62
     7
  6
AUSGEZOGEN
370
    -3
390
F
347
46
1001
AcCmTransparency
1071
 33554687
1001
AcAecLayerStandard
1000

1000
Dokument-Layer
  0
LAYER
  5
78
330
2
100
AcDbSymbolTableRecord
100
AcDbLayerTableRecord
  2
TB_1407
 70
     0
 62
     7
  6
AUSGEZOGEN
370
    -3
390
F
347
46
1001
AcCmTransparency
1071
 33554687
1001
AcAecLayerStandard
1000

1000
Dokument-Layer
  0
LAYER
  5
7C
330
2
100
AcDbSymbolTableRecord
100
AcDbLayerTableRecord
  2
XR$1$TB_1407_1
 70
     0
 62
     7
  6
AUSGEZOGEN
370
    -3
390
F
347
46
1001
AcCmTransparency
1071
 33554687
1001
AcAecLayerStandard
1000

1000
Dokument-Layer
  0
ENDTAB
  0
TABLE
  2
STYLE
  5
3
330
0
100
AcDbSymbolTable
 70
     2
  0
STYLE
  5
11
330
3
100
AcDbSymbolTableRecord
100
AcDbTextStyleTableRecord
  2
Standard
 70
     0
 40
0.0
 41
1.0
 50
0.0
 71
     0
 42
0.2
  3
txt
  4

  0
STYLE
  5
79
330
3
100
AcDbSymbolTableRecord
100
AcDbTextStyleTableRecord
  2
ARIAL
 70
     0
 40
0.0
 41
1.0
 50
0.0
 71
     0
 42
0.2
  3
ARIAL.TTF
  4

1001
ACAD
1000
Arial
1071
       34
  0
ENDTAB
  0
TABLE
  2
VIEW
  5
6
330
0
100
AcDbSymbolTable
 70
     0
  0
ENDTAB
  0
TABLE
  2
UCS
  5
7
330
0
100
AcDbSymbolTable
 70
     0
  0
ENDTAB
  0
TABLE
  2
APPID
  5
9
330
0
100
AcDbSymbolTable
 70
     4
  0
APPID
  5
12
330
9
100
AcDbSymbolTableRecord
100
AcDbRegAppTableRecord
  2
ACAD
 70
     0
  0
APPID
  5
75
330
9
100
AcDbSymbolTableRecord
100
AcDbRegAppTableRecord
  2
AcCmTransparency
 70
     0
  0
APPID
  5
77
330
9
100
AcDbSymbolTableRecord
100
AcDbRegAppTableRecord
  2
AcAecLayerStandard
 70
     0
  0
APPID
  5
94
330
9
100
AcDbSymbolTableRecord
100
AcDbRegAppTableRecord
  2
NEM_ODX
 70
     0
  0
ENDTAB
  0
TABLE
  2
DIMSTYLE
  5
A
330
0
100
AcDbSymbolTable
 70
     1
100
AcDbDimStyleTable
  0
DIMSTYLE
105
27
330
A
100
AcDbSymbolTableRecord
100
AcDbDimStyleTableRecord
  2
Standard
 70
     0
178
     0
340
11
  0
ENDTAB
  0
TABLE
  2
BLOCK_RECORD
  5
1
330
0
100
AcDbSymbolTable
 70
     0
  0
BLOCK_RECORD
  5
1F
102
{ACAD_XDICTIONARY
360
EC
102
}
330
1
100
AcDbSymbolTableRecord
100
AcDbBlockTableRecord
  2
*Model_Space
340
22
 70
     0
280
     1
281
     0
  0
BLOCK_RECORD
  5
6E
330
1
100
AcDbSymbolTableRecord
100
AcDbBlockTableRecord
  2
*Paper_Space
340
6F
 70
     0
280
     1
281
     0
  0
ENDTAB
  0
ENDSEC
  0
SECTION
  2
BLOCKS
  0
BLOCK
  5
20
330
1F
100
AcDbEntity
  8
0
100
AcDbBlockBegin
  2
*Model_Space
 70
     0
 10
0.0
 20
0.0
 30
0.0
  3
*Model_Space
  1

  0
ENDBLK
  5
21
330
1F
100
AcDbEntity
  8
0
100
AcDbBlockEnd
  0
BLOCK
  5
70
330
6E
100
AcDbEntity
 67
     1
  8
0
100
AcDbBlockBegin
  2
*Paper_Space
 70
     0
 10
0.0
 20
0.0
 30
0.0
  3
*Paper_Space
  1

  0
ENDBLK
  5
71
330
6E
100
AcDbEntity
 67
     1
  8
0
100
AcDbBlockEnd
  0
ENDSEC
  0
SECTION
  2
ENTITIES
  0
HATCH
  5
7D
330
1F
100
AcDbEntity
  8
XR$1$TB_1407_1
  6
AUSGEZOGEN
 62
    18
420
        0
440
 33554687
370
    35
100
AcDbHatch
 10
0.0
 20
0.0
 30
0.0
210
0.0
220
0.0
230
1.0
  2
SOLID
 70
     1
 71
     0
 91
       18
 92
        3
 72
     0
 73
     1
 93
       27
 10
2.251810138747315
 20
3.701846930763919
 10
2.255803882208257
 20
3.701846930763919
 10
2.256381008598809
 20
3.701874327144731
 10
2.256911993716419
 20
3.701956876765866
 10
2.257406930964532
 20
3.702085207181253
 10
2.257855726939696
 20
3.702268330358273
 10
2.258267754087982
 20
3.702488222362172
 10
2.258634000442014
 20
3.702762907127693
 10
2.259266280072888
 20
3.703413210693308
 10
2.259513568457602
 20
3.703788829493411
 10
2.259733460461489
 20
3.704200856641694
 10
2.26007231043471
 20
3.70509880907072
 10
2.260264445579099
 20
3.70609697457694
 10
2.260328610786791
 20
3.70716867773691
 10
2.260264445579099
 20
3.70831391855065
 10
2.26007231043471
 20
3.709348852883743
 10
2.259916583638512
 20
3.709816033272348
 10
2.259733460461489
 20
3.710255456801449
 10
2.259513568457602
 20
3.710658832461055
 10
2.259266280072888
 20
3.711025078815083
 10
2.258634000442014
 20
3.711647985999893
 10
2.258267754087982
 20
3.711895274384601
 10
2.257855726939696
 20
3.712105793942423
 10
2.257406930964532
 20
3.712270893184703
 10
2.256911993716419
 20
3.712389851154025
 10
2.255803882208257
 20
3.712490785188602
 10
2.251810138747315
 20
3.712490785188602
 97
        0
 92
        3
 72
     0
 73
     1
 93
       12
 10
2.263516323885907
 20
3.701846930763919
 10
2.27123813800962
 20
3.701846930763919
 10
2.27123813800962
 20
3.703175294754672
 10
2.265119372642178
 20
3.703175294754672
 10
2.265119372642178
 20
3.706637692619306
 10
2.270166434849646
 20
3.706637692619306
 10
2.270166434849646
 20
3.707965696131363
 10
2.265119372642178
 20
3.707965696131363
 10
2.265119372642178
 20
3.711162421197844
 10
2.270972465211468
 20
3.711162421197844
 10
2.270972465211468
 20
3.712490785188602
 10
2.263516323885907
 20
3.712490785188602
 97
        0
 92
        3
 72
     0
 73
     1
 93
       38
 10
2.280809928795633
 20
3.712490785188602
 10
2.280809928795633
 20
3.705575001426701
 10
2.280773159968748
 20
3.704924697861085
 10
2.280663574445502
 20
3.70437496785134
 10
2.280461706376352
 20
3.703907787462733
 10
2.280178009643446
 20
3.703541541108696
 10
2.279811402810724
 20
3.703266856343174
 10
2.279353594868183
 20
3.703065348752721
 10
2.278803864858445
 20
3.702946030304702
 10
2.278153561292825
 20
3.70290962195652
 10
2.2775032577272
 20
3.702946030304702
 10
2.276953527717463
 20
3.703065348752721
 10
2.276495719774918
 20
3.703266856343174
 10
2.276120100974823
 20
3.703541541108696
 10
2.275845416209294
 20
3.703907787462733
 10
2.275643908618841
 20
3.70437496785134
 10
2.275533962616894
 20
3.704924697861085
 10
2.275488181822639
 20
3.705575001426701
 10
2.275488181822639
 20
3.712490785188602
 10
2.274159817831894
 20
3.712490785188602
 10
2.274159817831894
 20
3.705309328628555
 10
2.274233355485661
 20
3.704457517472476
 10
2.274443875043483
 20
3.703715652318348
 10
2.274792097462761
 20
3.703074360720099
 10
2.275259277851369
 20
3.702543015123791
 10
2.275836043763226
 20
3.702130987975512
 10
2.276523116155732
 20
3.701828546350482
 10
2.277292738169375
 20
3.701645423173463
 10
2.278153561292825
 20
3.701581257965767
 10
2.279014744894973
 20
3.701645423173463
 10
2.279784006429906
 20
3.701828546350482
 10
2.280471078822416
 20
3.702130987975512
 10
2.281048205212967
 20
3.702543015123791
 10
2.28151538560158
 20
3.703074360720099
 10
2.281854235574801
 20
3.703715652318348
 10
2.28207412757869
 20
3.704457517472476
 10
2.282147304753756
 20
3.705309328628555
 10
2.282147304753756
 20
3.712490785188602
 97
        0
 92
        3
 72
     0
 73
     1
 93
        8
 10
2.284803672256567
 20
3.712490785188602
 10
2.284803672256567
 20
3.711162421197844
 10
2.28800039732305
 20
3.711162421197844
 10
2.28800039732305
 20
3.701846930763919
 10
2.289328400835105
 20
3.701846930763919
 10
2.289328400835105
 20
3.711162421197844
 10
2.292516113934217
 20
3.711162421197844
 10
2.292516113934217
 20
3.712490785188602
 97
        0
 92
        3
 72
     0
 73
     1
 93
       96
 10
2.29552070385631
 20
3.708927453289394
 10
2.295731223414133
 20
3.708405480139156
 10
2.296061061419981
 20
3.707993092512174
 10
2.296482461014342
 20
3.707654242538958
 10
2.29698604975113
 20
3.707388569740813
 10
2.297554164174316
 20
3.707187062150351
 10
2.298772221684428
 20
3.706866596590573
 10
2.299990639673223
 20
3.706591551346364
 10
2.300558393617711
 20
3.706436185028846
 10
2.301062342833205
 20
3.706234677438391
 10
2.301483381948857
 20
3.705987028574991
 10
2.301813219954704
 20
3.705666563015213
 10
2.302024099991228
 20
3.705272559801668
 10
2.302097277166297
 20
3.704777983032249
 10
2.302042123925968
 20
3.704310802643644
 10
2.301868373195027
 20
3.703926171876174
 10
2.301602700396868
 20
3.703596333870328
 10
2.301263850423661
 20
3.703340033518247
 10
2.300860835242744
 20
3.70314753789516
 10
2.300411678788886
 20
3.703019567958467
 10
2.299935486432904
 20
3.702937018337336
 10
2.299440909663489
 20
3.70290962195652
 10
2.298772221684428
 20
3.702946030304702
 10
2.298186083326495
 20
3.703065348752721
 10
2.297682134111009
 20
3.703266856343174
 10
2.297242710581909
 20
3.703541541108696
 10
2.296885476195251
 20
3.703907787462733
 10
2.296592046537594
 20
3.70437496785134
 10
2.296381526979764
 20
3.704924697861085
 10
2.296244184597
 20
3.705575001426701
 10
2.29491582060625
 20
3.705309328628555
 10
2.295007742673451
 20
3.704384340297405
 10
2.295126700642782
 20
3.70397195267043
 10
2.29528242743898
 20
3.703605706316395
 10
2.295483935029432
 20
3.703266856343174
 10
2.295712839000699
 20
3.702955402750773
 10
2.296280953423885
 20
3.702442441567912
 10
2.296949280924256
 20
3.702057810800445
 10
2.297718902937894
 20
3.701792138002293
 10
2.29855232968053
 20
3.701636411206089
 10
2.299440909663489
 20
3.701581257965767
 10
2.300219543644494
 20
3.701636411206089
 10
2.300961408798631
 20
3.701782765556225
 10
2.301639108745066
 20
3.702048438354372
 10
2.302234619549058
 20
3.702415045187099
 10
2.302729196318473
 20
3.702891237543079
 10
2.303104815118576
 20
3.703486748347073
 10
2.303242157501344
 20
3.703834610287666
 10
2.303343091535907
 20
3.704200856641694
 10
2.303425280678356
 20
3.705043655830403
 10
2.303352103503291
 20
3.705767497049785
 10
2.303141583945461
 20
3.706362647375086
 10
2.302811745939613
 20
3.706839200209766
 10
2.302390346345252
 20
3.707214458531167
 10
2.301886397129773
 20
3.707507527710131
 10
2.301327655152659
 20
3.707736792160087
 10
2.30010058567517
 20
3.70806663016594
 10
2.298882167686371
 20
3.708331942485394
 10
2.298323425709264
 20
3.708487669281594
 10
2.297819476493773
 20
3.708671152937308
 10
2.297389064932047
 20
3.708909068875952
 10
2.297059226926206
 20
3.70921151050098
 10
2.296848707368369
 20
3.709605153235823
 10
2.296775530193308
 20
3.710100090483938
 10
2.296839695401
 20
3.710457324870597
 10
2.297004434164567
 20
3.710750394049561
 10
2.297251722549282
 20
3.710988309988203
 10
2.297572188109059
 20
3.711162421197844
 10
2.297947806909161
 20
3.711281379167171
 10
2.298350822090067
 20
3.711363928788304
 10
2.299175236865337
 20
3.711428093995997
 10
2.299743351288519
 20
3.711400697615185
 10
2.300255951992685
 20
3.71131814799405
 10
2.30071412041392
 20
3.711171433165224
 10
2.301098751181381
 20
3.710960913607387
 10
2.301410204773791
 20
3.710667844428424
 10
2.301639108745066
 20
3.710301598074395
 10
2.301785823573887
 20
3.709843429653159
 10
2.301831604368145
 20
3.709293699643422
 10
2.303425280678356
 20
3.709293699643422
 10
2.303177992293641
 20
3.710136498832127
 10
2.302839142320428
 20
3.710850967605444
 10
2.302408730758693
 20
3.711446478409436
 10
2.301895769575837
 20
3.711922670765418
 10
2.301309631217912
 20
3.712289277598144
 10
2.300659327652288
 20
3.712554589917598
 10
2.299944858878975
 20
3.712701304746422
 10
2.299175236865337
 20
3.712756097508052
 10
2.298479152505465
 20
3.712710316713803
 10
2.297801452559023
 20
3.712554589917598
 10
2.297178545374213
 20
3.712307301532884
 10
2.296610430951031
 20
3.711959439592298
 10
2.296134238595056
 20
3.71151064361713
 10
2.295767992241018
 20
3.710960913607387
 10
2.295529715823687
 20
3.710310610041761
 10
2.295447166202547
 20
3.709559372441569
 97
        0
 92
        3
 72
     0
 73
     1
 93
       78
 10
2.307748862145135
 20
3.708038873306432
 10
2.307931985322147
 20
3.708844903668254
 10
2.308243438914554
 20
3.709568744887642
 10
2.308683222922345
 20
3.71019165207245
 10
2.309241964899463
 20
3.710713625222679
 10
2.309928676813267
 20
3.711098255990148
 10
2.310744079621164
 20
3.711336532407491
 10
2.311678440398374
 20
3.711428093995997
 10
2.312182029135162
 20
3.711391325169114
 10
2.312694990318029
 20
3.711272367199792
 10
2.313198939533516
 20
3.711089244022782
 10
2.313675131889487
 20
3.710823571224622
 10
2.314096531483848
 20
3.710493733218782
 10
2.314444753903136
 20
3.710081706070496
 10
2.31471006622259
 20
3.70959614126845
 10
2.314865793018796
 20
3.709028387323959
 10
2.316203168976911
 20
3.709293699643422
 10
2.315937496178762
 20
3.710136498832127
 10
2.315571249824731
 20
3.710850967605444
 10
2.31509505746875
 20
3.711446478409436
 10
2.314536315491635
 20
3.711922670765418
 10
2.313904035860761
 20
3.712289277598144
 10
2.313207951500882
 20
3.712554589917598
 10
2.312457074379378
 20
3.712701304746422
 10
2.311678440398374
 20
3.712756097508052
 10
2.311046160767503
 20
3.712728701127246
 10
2.310451010442202
 20
3.712646511984804
 10
2.309901280432457
 20
3.712518181569418
 10
2.30938831924959
 20
3.712335058392398
 10
2.308912126893623
 20
3.712105793942423
 10
2.30847234288581
 20
3.711831109176905
 10
2.308078700150975
 20
3.71151064361713
 10
2.307721465764324
 20
3.711162421197844
 10
2.30740063972585
 20
3.710768417984303
 10
2.307125954960325
 20
3.710338006422584
 10
2.306897050989054
 20
3.70988019848004
 10
2.306704555365971
 20
3.709385621710622
 10
2.30643888256783
 20
3.708322930518016
 10
2.306356693425384
 20
3.70716867773691
 10
2.30643888256783
 20
3.7060147854345
 10
2.306704555365971
 20
3.704952094241891
 10
2.306897050989054
 20
3.704457517472476
 10
2.307125954960325
 20
3.703999349051244
 10
2.30740063972585
 20
3.703568937489512
 10
2.307721465764324
 20
3.703175294754672
 10
2.308078700150975
 20
3.702827072335393
 10
2.30847234288581
 20
3.702506606775604
 10
2.308912126893623
 20
3.702231561531393
 10
2.30938831924959
 20
3.70200265756012
 10
2.309901280432457
 20
3.701819534383105
 10
2.310451010442202
 20
3.701691203967719
 10
2.311046160767503
 20
3.701608654346582
 10
2.311678440398374
 20
3.701581257965767
 10
2.312475098314125
 20
3.701654795619526
 10
2.313244720327767
 20
3.701874327144731
 10
2.313986585481898
 20
3.702222549564014
 10
2.314673657874396
 20
3.702708114366058
 10
2.315278180645762
 20
3.703321649104806
 10
2.315791141828628
 20
3.704054502291569
 10
2.316194157009542
 20
3.704887929034201
 10
2.316468841775059
 20
3.705840674224854
 10
2.314865793018796
 20
3.705840674224854
 10
2.314719438668654
 20
3.705180998213162
 10
2.31448116225132
 20
3.704594859855237
 10
2.314160696691543
 20
3.704091271118441
 10
2.313776065924075
 20
3.703678883491468
 10
2.313317897502832
 20
3.703349045485613
 10
2.31281430876604
 20
3.703111129546969
 10
2.312264578756302
 20
3.702964414718152
 10
2.311678440398374
 20
3.70290962195652
 10
2.310744079621164
 20
3.702991811098962
 10
2.309928676813267
 20
3.703239099483673
 10
2.309241964899463
 20
3.703624090729836
 10
2.308683222922345
 20
3.704146063880069
 10
2.308243438914554
 20
3.704768971064883
 10
2.307931985322147
 20
3.705492451805571
 10
2.307748862145135
 20
3.706298482167389
 10
2.307684696937439
 20
3.70716867773691
 97
        0
 92
        3
 72
     0
 73
     1
 93
       12
 10
2.319656554874179
 20
3.701846930763919
 10
2.320984558386238
 20
3.701846930763919
 10
2.320984558386238
 20
3.706637692619306
 10
2.326571978157376
 20
3.706637692619306
 10
2.326571978157376
 20
3.701846930763919
 10
2.328175026913655
 20
3.701846930763919
 10
2.328175026913655
 20
3.712490785188602
 10
2.326571978157376
 20
3.712490785188602
 10
2.326571978157376
 20
3.707965696131363
 10
2.320984558386238
 20
3.707965696131363
 10
2.320984558386238
 20
3.712490785188602
 10
2.319656554874179
 20
3.712490785188602
 97
        0
 92
        3
 72
     0
 73
     1
 93
       12
 10
2.331628412810915
 20
3.701846930763919
 10
2.339084193657786
 20
3.701846930763919
 10
2.339084193657786
 20
3.703175294754672
 10
2.332965788769027
 20
3.703175294754672
 10
2.332965788769027
 20
3.706637692619306
 10
2.338278163295957
 20
3.706637692619306
 10
2.338278163295957
 20
3.707965696131363
 10
2.332965788769027
 20
3.707965696131363
 10
2.332965788769027
 20
3.711162421197844
 10
2.339084193657786
 20
3.711162421197844
 10
2.339084193657786
 20
3.712490785188602
 10
2.331628412810915
 20
3.712490785188602
 97
        0
 92
        3
 72
     0
 73
     1
 93
       90
 10
2.254338175834743
 20
3.694280843436402
 10
2.254036094688397
 20
3.694574273094058
 10
2.253962557034641
 20
3.694739011857633
 10
2.253944533099891
 20
3.694931507480717
 10
2.253990313894145
 20
3.695206192246244
 10
2.254118283830846
 20
3.695435096217512
 10
2.254301767486549
 20
3.695618219394524
 10
2.254539683425192
 20
3.69576493422336
 10
2.255062017054124
 20
3.695939045432993
 10
2.255538209410098
 20
3.695993838194632
 10
2.256325855358483
 20
3.695902276606126
 10
2.256710486125959
 20
3.695783318636792
 10
2.25706772051262
 20
3.695627591840597
 10
2.257709012110861
 20
3.695206192246244
 10
2.258194576912906
 20
3.69466583468257
 10
2.260328610786791
 20
3.695993838194632
 10
2.259815649603935
 20
3.696470030550605
 10
2.259284664486329
 20
3.69689143014496
 10
2.258734934476587
 20
3.697248664531611
 10
2.258167180532103
 20
3.697560118124022
 10
2.257580681695473
 20
3.697798394541358
 10
2.256994543337552
 20
3.697981517718374
 10
2.256399032533559
 20
3.698082451752953
 10
2.255803882208257
 20
3.698118860101137
 10
2.254933686638743
 20
3.698073079306878
 10
2.254127656276914
 20
3.697917352510674
 10
2.25340381505753
 20
3.697661052158594
 10
2.252780907872713
 20
3.69729444532587
 10
2.25225893472249
 20
3.696809241002518
 10
2.251874303955018
 20
3.696213730198519
 10
2.251736961572258
 20
3.695874880225307
 10
2.251627015570303
 20
3.695499261425208
 10
2.251544465949178
 20
3.69466583468257
 10
2.251599619189493
 20
3.694088708292007
 10
2.251755345985694
 20
3.693566374663087
 10
2.25200263437041
 20
3.693099554753173
 10
2.252341484343612
 20
3.692687167126196
 10
2.252762883937973
 20
3.692339305185604
 10
2.253266472674762
 20
3.692064259941388
 10
2.253852611032694
 20
3.691853740383553
 10
2.254493902630938
 20
3.691716398000794
 10
2.256628296983517
 20
3.691276613993005
 10
2.257095477372121
 20
3.691166667991054
 10
2.257415942931901
 20
3.690992556781413
 10
2.257608438554985
 20
3.690754640842766
 10
2.257663231316613
 20
3.690406418423483
 10
2.257617450522354
 20
3.690122361211894
 10
2.257489120106974
 20
3.689866060859811
 10
2.257287612516507
 20
3.689637156888546
 10
2.257031312164426
 20
3.689444661265454
 10
2.256747254952836
 20
3.68928893446925
 10
2.25642678939306
 20
3.689169976499937
 10
2.255803882208257
 20
3.689078414911422
 10
2.254896917811851
 20
3.689169976499937
 10
2.254503275077012
 20
3.68928893446925
 10
2.254136668244283
 20
3.689444661265454
 10
2.25348636467867
 20
3.689866060859811
 10
2.25287282993992
 20
3.690406418423483
 10
2.250747447554718
 20
3.689343727230882
 10
2.251333946391337
 20
3.688794357699837
 10
2.251911072781885
 20
3.688336189278605
 10
2.252469814759007
 20
3.687969942924568
 10
2.253046580670861
 20
3.6876768737456
 10
2.25362370706142
 20
3.68746599370908
 10
2.254228229832789
 20
3.687319639358948
 10
2.254860509463667
 20
3.687237089737815
 10
2.255538209410098
 20
3.687209693356999
 10
2.256280074564239
 20
3.687246462183879
 10
2.25706772051262
 20
3.687347035739762
 10
2.257873750874435
 20
3.68754854333022
 10
2.258634000442014
 20
3.687878381336062
 10
2.258982222861298
 20
3.688098273339961
 10
2.259302688421075
 20
3.688354573692042
 10
2.259586745632664
 20
3.688657015317074
 10
2.259843406463443
 20
3.689014249703727
 10
2.260044914053896
 20
3.689407892438576
 10
2.260200640850094
 20
3.689866060859811
 10
2.260292202438611
 20
3.690369649596603
 10
2.260328610786791
 20
3.690937764019784
 10
2.260292202438611
 20
3.691368175581509
 10
2.26019126840403
 20
3.691752806348986
 10
2.260035541607821
 20
3.69208264435483
 10
2.259834034017372
 20
3.692375713533786
 10
2.259577733665284
 20
3.692632374364568
 10
2.259293676453701
 20
3.692851905889769
 10
2.258615976507267
 20
3.693200128309056
 10
2.257855726939696
 20
3.693438404726394
 10
2.257049696577863
 20
3.69361251593604
 10
2.255538209410098
 20
3.693868816288121
 10
2.25484212505023
 20
3.694051939465133
 97
        0
 92
        3
 72
     0
 73
     1
 93
        8
 10
2.266713048952385
 20
3.695728165396476
 10
2.269369416455194
 20
3.695728165396476
 10
2.269369416455194
 20
3.697853187302988
 10
2.261391301979399
 20
3.697853187302988
 10
2.261391301979399
 20
3.695728165396476
 10
2.2640476694822
 20
3.695728165396476
 10
2.2640476694822
 20
3.687484378122523
 10
2.266713048952385
 20
3.687484378122523
 97
        0
 92
        3
 72
     0
 73
     1
 93
       12
 10
2.27123813800962
 20
3.687484378122523
 10
2.279216252485422
 20
3.687484378122523
 10
2.279216252485422
 20
3.689343727230882
 10
2.273628832714284
 20
3.689343727230882
 10
2.273628832714284
 20
3.691734421935545
 10
2.278419234090973
 20
3.691734421935545
 10
2.278419234090973
 20
3.693868816288121
 10
2.273628832714284
 20
3.693868816288121
 10
2.273628832714284
 20
3.695728165396476
 10
2.278684906889125
 20
3.695728165396476
 10
2.278684906889125
 20
3.697853187302988
 10
2.27123813800962
 20
3.697853187302988
 97
        0
 92
        3
 72
     0
 73
     1
 93
        4
 10
2.281075601593781
 20
3.687484378122523
 10
2.283740981063963
 20
3.687484378122523
 10
2.283740981063963
 20
3.697853187302988
 10
2.281075601593781
 20
3.697853187302988
 97
        0
 92
        3
 72
     0
 73
     1
 93
       10
 10
2.288531742919354
 20
3.687484378122523
 10
2.288531742919354
 20
3.693868816288121
 10
2.292250441136065
 20
3.687484378122523
 10
2.29491582060625
 20
3.687484378122523
 10
2.29491582060625
 20
3.697853187302988
 10
2.292516113934217
 20
3.697853187302988
 10
2.292516113934217
 20
3.69120343681793
 10
2.288797415717506
 20
3.697853187302988
 10
2.286131675768627
 20
3.697853187302988
 10
2.286131675768627
 20
3.687484378122523
 97
        0
 92
        3
 72
     0
 73
     1
 93
       10
 10
2.305825347829084
 20
3.695728165396476
 10
2.305825347829084
 20
3.697853187302988
 10
2.297306515310914
 20
3.697853187302988
 10
2.297306515310914
 20
3.695728165396476
 10
2.302628622762594
 20
3.695728165396476
 10
2.297041202991452
 20
3.689343727230882
 10
2.297041202991452
 20
3.687484378122523
 10
2.305825347829084
 20
3.687484378122523
 10
2.305825347829084
 20
3.689343727230882
 10
2.300237928057931
 20
3.689343727230882
 97
        0
 92
        3
 72
     0
 73
     1
 93
       12
 10
2.307950369735588
 20
3.687484378122523
 10
2.315937496178762
 20
3.687484378122523
 10
2.315937496178762
 20
3.689343727230882
 10
2.310615749205776
 20
3.689343727230882
 10
2.310615749205776
 20
3.691734421935545
 10
2.315131465816937
 20
3.691734421935545
 10
2.315131465816937
 20
3.693868816288121
 10
2.310615749205776
 20
3.693868816288121
 10
2.310615749205776
 20
3.695728165396476
 10
2.315662811413241
 20
3.695728165396476
 10
2.315662811413241
 20
3.697853187302988
 10
2.307950369735588
 20
3.697853187302988
 97
        0
 92
        3
 72
     0
 73
     1
 93
       42
 10
2.320453573268632
 20
3.697853187302988
 10
2.317797205765824
 20
3.697853187302988
 10
2.317797205765824
 20
3.690937764019784
 10
2.317824602146627
 20
3.690461211185113
 10
2.31790715176776
 20
3.690012415209945
 10
2.31803512170446
 20
3.689609400029031
 10
2.318200220946725
 20
3.689234141707626
 10
2.31866740133533
 20
3.688592850109379
 10
2.31926255166064
 20
3.688079888926521
 10
2.319949624053145
 20
3.68769525815905
 10
2.320709873620713
 20
3.687420212914827
 10
2.321515903982531
 20
3.687264486118631
 10
2.322321934344357
 20
3.687209693356999
 10
2.323036403117666
 20
3.687264486118631
 10
2.323769256304434
 20
3.687420212914827
 10
2.32448372507775
 20
3.68769525815905
 10
2.325143040610737
 20
3.688079888926521
 10
2.325720167001303
 20
3.688592850109379
 10
2.326168962976463
 20
3.689234141707626
 10
2.326343074186109
 20
3.689609400029031
 10
2.32647140460149
 20
3.690012415209945
 10
2.326544581776569
 20
3.690461211185113
 10
2.326571978157376
 20
3.690937764019784
 10
2.326571978157376
 20
3.697853187302988
 10
2.324181283452713
 20
3.697853187302988
 10
2.324181283452713
 20
3.69120343681793
 10
2.324153887071903
 20
3.690809433604396
 10
2.324080709896834
 20
3.69042480283692
 10
2.323943367514073
 20
3.69006756845027
 10
2.323750871890993
 20
3.689737730444425
 10
2.323494571538905
 20
3.689472057646273
 10
2.323173745500434
 20
3.68926153808844
 10
2.322780102765592
 20
3.689124195705683
 10
2.322321934344357
 20
3.689078414911422
 10
2.321854753955749
 20
3.689124195705683
 10
2.321470123188284
 20
3.68926153808844
 10
2.3211496576285
 20
3.689472057646273
 10
2.320892996797725
 20
3.689737730444425
 10
2.320691489207272
 20
3.69006756845027
 10
2.320563158791877
 20
3.69042480283692
 10
2.320480969649435
 20
3.690809433604396
 10
2.320453573268632
 20
3.69120343681793
 97
        0
 92
        3
 72
     0
 73
     1
 93
       75
 10
2.328779549685021
 20
3.691386559994951
 10
2.328999441688917
 20
3.690360637629232
 10
2.329173552898557
 20
3.68988444527325
 10
2.329375060489013
 20
3.689444661265454
 10
2.329622348873728
 20
3.689041646084546
 10
2.329906406085314
 20
3.688675399730515
 10
2.330575094064382
 20
3.688052492545709
 10
2.330968736799224
 20
3.687805204160999
 10
2.331399148360951
 20
3.687594324124473
 10
2.331866328749548
 20
3.687429585360898
 10
2.332370277965042
 20
3.687310266912879
 10
2.333496773886637
 20
3.687209693356999
 10
2.334440507109918
 20
3.687264486118631
 10
2.335255549439113
 20
3.687447969774341
 10
2.335612783825783
 20
3.687594324124473
 10
2.335924237418182
 20
3.687777447301494
 10
2.336198922183708
 20
3.68800671175145
 10
2.336418814187609
 20
3.688281396516975
 10
2.336418814187609
 20
3.687484378122523
 10
2.338553208540176
 20
3.687484378122523
 10
2.338553208540176
 20
3.693071797893668
 10
2.334028119482945
 20
3.693071797893668
 10
2.334028119482945
 20
3.69120343681793
 10
2.336153141389449
 20
3.69120343681793
 10
2.336098348627825
 20
3.690745268396699
 10
2.335933249385556
 20
3.690351625661859
 10
2.335695333446905
 20
3.690030799623388
 10
2.335392891821885
 20
3.6897744992713
 10
2.335054041848664
 20
3.689582003648224
 10
2.334696807462014
 20
3.689444661265454
 10
2.334028119482945
 20
3.689343727230882
 10
2.333377815917317
 20
3.689398880471205
 10
2.332828085907576
 20
3.689582003648224
 10
2.332361265997672
 20
3.689866060859811
 10
2.331994659164947
 20
3.690241679659906
 10
2.331719974399422
 20
3.690708860048517
 10
2.331518466808958
 20
3.691249217612187
 10
2.331399148360951
 20
3.691862752350933
 10
2.33136274001276
 20
3.692531440329989
 10
2.331417532774388
 20
3.693374239518698
 10
2.331554875157149
 20
3.694088708292007
 10
2.331784139607124
 20
3.694683858617313
 10
2.332095593199517
 20
3.695160411451992
 10
2.332480223966989
 20
3.695526657806018
 10
2.332938031909526
 20
3.69579233060417
 10
2.333450993092383
 20
3.695948057400372
 10
2.334028119482945
 20
3.695993838194632
 10
2.334769984637072
 20
3.695902276606126
 10
2.33510919508899
 20
3.695783318636792
 10
2.335420288202696
 20
3.695627591840597
 10
2.335970018212433
 20
3.695206192246244
 10
2.336418814187609
 20
3.69466583468257
 10
2.338553208540176
 20
3.695462492598324
 10
2.338122436499762
 20
3.696112796163947
 10
2.337646244143777
 20
3.696662526173692
 10
2.337124270993544
 20
3.697120694594923
 10
2.336556156570358
 20
3.697486940948953
 10
2.335933249385556
 20
3.697770998160538
 10
2.335255549439113
 20
3.697972505750999
 10
2.334532068698439
 20
3.698082451752953
 10
2.333762446684796
 20
3.698118860101137
 10
2.333130527532609
 20
3.698091463720321
 10
2.332553401142054
 20
3.698008914099181
 10
2.332013043578384
 20
3.697880944162493
 10
2.331509094362894
 20
3.697697460506788
 10
2.331051286420353
 20
3.69746855653551
 10
2.330638898793376
 20
3.697193871769992
 10
2.330263640471979
 20
3.69688241817758
 10
2.329933802466138
 20
3.696525183790929
 10
2.329640733287165
 20
3.696131180577389
 10
2.32939344490245
 20
3.695709780983039
 10
2.32918256486593
 20
3.695242961073121
 10
2.329008453656287
 20
3.694757396271076
 10
2.328779549685021
 20
3.693694705078475
 10
2.328706372509952
 20
3.692531440329989
 97
        0
 92
       18
 72
     0
 73
     1
 93
       19
 10
2.255538209410098
 20
3.711162421197844
 10
2.256371636152738
 20
3.711089244022782
 10
2.257086104926057
 20
3.710869352018881
 10
2.257681615730057
 20
3.710530502045664
 10
2.258167180532103
 20
3.710063321657055
 10
2.258533426886134
 20
3.709486195266507
 10
2.258789727238208
 20
3.708799122873998
 10
2.258945454034413
 20
3.708029861339061
 10
2.258991234828672
 20
3.70716867773691
 10
2.258945454034413
 20
3.706307854613466
 10
2.258789727238208
 20
3.705538232599816
 10
2.258533426886134
 20
3.704851520686009
 10
2.258167180532103
 20
3.704274394295461
 10
2.257681615730057
 20
3.703807213906854
 10
2.257086104926057
 20
3.703468363933634
 10
2.256371636152738
 20
3.703248471929741
 10
2.255538209410098
 20
3.703175294754672
 10
2.253138142259381
 20
3.703175294754672
 10
2.253138142259381
 20
3.711162421197844
 97
        0
 75
     0
 76
     1
 98
        0
  0
HATCH
  5
7E
330
1F
100
AcDbEntity
  8
XR$1$TB_1407_1
  6
AUSGEZOGEN
 62
    18
420
        0
440
 33554687
370
    35
100
AcDbHatch
 10
0.0
 20
0.0
 30
0.0
210
0.0
220
0.0
230
1.0
  2
SOLID
 70
     1
 71
     0
 91
       20
 92
        3
 72
     0
 73
     1
 93
        8
 10
2.384846603498224
 20
3.712225112390445
 10
2.374999767467992
 20
3.687484378122523
 10
2.377390462172648
 20
3.687484378122523
 10
2.380321514440985
 20
3.694931507480717
 10
2.391231041663815
 20
3.694931507480717
 10
2.393887409166623
 20
3.687484378122523
 10
2.396552788636808
 20
3.687484378122523
 10
2.386971625404728
 20
3.712225112390445
 97
        0
 92
        3
 72
     0
 73
     1
 93
      116
 10
2.399474828937772
 20
3.699721908857415
 10
2.399511237285956
 20
3.700674654048065
 10
2.399602798874465
 20
3.701636411206089
 10
2.399758525670663
 20
3.702607180331494
 10
2.399987790120625
 20
3.703559925522146
 10
2.400280859299591
 20
3.70448491385329
 10
2.400638093686249
 20
3.70539187824969
 10
2.401068505247976
 20
3.706252701373143
 10
2.401572454463469
 20
3.707068104181033
 10
2.40214922037532
 20
3.707818981302527
 10
2.402790511973571
 20
3.708506053695033
 10
2.40350498074688
 20
3.709119948912468
 10
2.404301999141343
 20
3.709632910095328
 10
2.405172194710861
 20
3.710053949210987
 10
2.406124579422821
 20
3.710365402803393
 10
2.407150501788537
 20
3.710557898426476
 10
2.408258973775396
 20
3.710631075601545
 10
2.409577965320074
 20
3.710548886459103
 10
2.410759614481999
 20
3.710319622009136
 10
2.411299972045676
 20
3.710145871278195
 10
2.411803560782472
 20
3.709925979274294
 10
2.41227074117107
 20
3.709669318443519
 10
2.412710525178868
 20
3.709367237297183
 10
2.413498171127257
 20
3.708625372143053
 10
2.414166859106307
 20
3.707709395779282
 10
2.414725601083429
 20
3.706600923792428
 10
2.415174397058593
 20
3.705309328628555
 10
2.417565091763249
 20
3.706637692619306
 10
2.416823226609127
 20
3.708048245752499
 10
2.415962403485669
 20
3.709275675708674
 10
2.415000646327645
 20
3.710328994455211
 10
2.414469300731341
 20
3.710786802397748
 10
2.413910558754223
 20
3.711189817578665
 10
2.413324420396309
 20
3.711556424411387
 10
2.412701513211488
 20
3.711867878003783
 10
2.4120418371998
 20
3.712142562769315
 10
2.411354764807297
 20
3.712362454773209
 10
2.409880046466414
 20
3.712655523952171
 10
2.408258973775396
 20
3.712756097508052
 10
2.40685743260957
 20
3.712682920332985
 10
2.405565837445703
 20
3.712472400775159
 10
2.404356791902964
 20
3.712124178355872
 10
2.403257692362183
 20
3.711656997967266
 10
2.4022501544099
 20
3.711070859609336
 10
2.401334178046124
 20
3.710383787216835
 10
2.400509763270865
 20
3.709605153235823
 10
2.399776910084104
 20
3.708734957666306
 10
2.399135618485849
 20
3.707782572954346
 10
2.39858624895481
 20
3.706765662555996
 10
2.398119068566201
 20
3.705693959396023
 10
2.397743449766106
 20
3.704558091028359
 10
2.397450380587151
 20
3.703394826279875
 10
2.397248872996684
 20
3.702185780737133
 10
2.397120542581303
 20
3.700958350780957
 10
2.397084134233109
 20
3.699721908857415
 10
2.397120542581303
 20
3.698384532899289
 10
2.397248872996684
 20
3.69709293773542
 10
2.397450380587151
 20
3.695847483844491
 10
2.397734437798726
 20
3.694647450269129
 10
2.398100684152757
 20
3.693511581901459
 10
2.398558852573996
 20
3.692439878741483
 10
2.399089837691595
 20
3.691432340789208
 10
2.399712744876412
 20
3.690507352458057
 10
2.400408829236288
 20
3.689664553269349
 10
2.40119683566336
 20
3.688913315669155
 10
2.402076043200255
 20
3.688263012103531
 10
2.403028788390905
 20
3.687704270126424
 10
2.404072734691371
 20
3.687273858564693
 10
2.405208603059044
 20
3.686944020558853
 10
2.40641764860178
 20
3.686751524935767
 10
2.407727628179099
 20
3.6866783477607
 10
2.408826727719884
 20
3.686742512968396
 10
2.409935199706736
 20
3.686935008591476
 10
2.411015914834084
 20
3.687255474151256
 10
2.412051209645867
 20
3.687713282093786
 10
2.413003594357827
 20
3.688308792897786
 10
2.413864777959979
 20
3.689041646084546
 10
2.414597631146736
 20
3.689911841654057
 10
2.414899712293075
 20
3.690406418423483
 10
2.415174397058593
 20
3.690937764019784
 10
2.415174397058593
 20
3.687484378122523
 10
2.417299418965108
 20
3.687484378122523
 10
2.417299418965108
 20
3.700253254453712
 10
2.406124579422821
 20
3.700253254453712
 10
2.406124579422821
 20
3.698118860101137
 10
2.415174397058593
 20
3.698118860101137
 10
2.415174397058593
 20
3.696790856589081
 10
2.415073823502714
 20
3.695453480630951
 10
2.414762369910307
 20
3.694088708292007
 10
2.414515081525596
 20
3.693411008345578
 10
2.414222012346637
 20
3.692751332333888
 10
2.413864777959979
 20
3.692110040735641
 10
2.413443378365625
 20
3.691505517964275
 10
2.41296718600964
 20
3.690937764019784
 10
2.412417455999905
 20
3.69042480283692
 10
2.411812933228533
 20
3.689966634415689
 10
2.411135233282101
 20
3.689572991680847
 10
2.410393007649273
 20
3.689252165642376
 10
2.409568592874007
 20
3.689014249703727
 10
2.408689385337116
 20
3.688858522907531
 10
2.407727628179099
 20
3.688812742113276
 10
2.406664936986494
 20
3.688876907320968
 10
2.405694167861094
 20
3.689069042465359
 10
2.404787203464684
 20
3.689380496057764
 10
2.403963149168122
 20
3.689801895652112
 10
2.403220923535305
 20
3.69032386880235
 10
2.402543223588856
 20
3.69092839157372
 10
2.401938700817497
 20
3.691615463966218
 10
2.401407355221197
 20
3.692366701566414
 10
2.400940174832588
 20
3.693181743895615
 10
2.400546532097743
 20
3.694042927497764
 10
2.400207321645824
 20
3.69494953141547
 10
2.39994200932637
 20
3.695883892192682
 10
2.399740501735924
 20
3.696836637383325
 10
2.399593786907092
 20
3.697798394541358
 10
2.399502225318575
 20
3.698760151699384
 97
        0
 92
        3
 72
     0
 73
     1
 93
       37
 10
2.420761816829735
 20
3.687484378122523
 10
2.423152511534398
 20
3.687484378122523
 10
2.423152511534398
 20
3.698384532899289
 10
2.428740291784234
 20
3.698384532899289
 10
2.436727418227402
 20
3.687484378122523
 10
2.439649458528374
 20
3.687484378122523
 10
2.431671344052568
 20
3.698384532899289
 10
2.43327439280884
 20
3.698586040489743
 10
2.434016257962973
 20
3.698760151699384
 10
2.434702969876781
 20
3.698980043703281
 10
2.435344261475028
 20
3.699254728468806
 10
2.435930399832964
 20
3.699575194028583
 10
2.436471117875329
 20
3.699941800861307
 10
2.436956322198673
 20
3.700353828009591
 10
2.437396106206467
 20
3.700811996430824
 10
2.43777172500657
 20
3.701315585167618
 10
2.438101563012418
 20
3.701865315177362
 10
2.438366875331872
 20
3.702469837948729
 10
2.438577755368392
 20
3.703111129546969
 10
2.438733482164594
 20
3.703797841460786
 10
2.4388250437531
 20
3.704530694647543
 10
2.43885244013391
 20
3.705309328628555
 10
2.438751866578031
 20
3.706600923792428
 10
2.438440412985631
 20
3.707846738162041
 10
2.438202136568297
 20
3.708441888487347
 10
2.4379180793567
 20
3.709019014877895
 10
2.437560844970046
 20
3.709559372441569
 10
2.437157829789137
 20
3.710063321657055
 10
2.436690649400532
 20
3.710530502045664
 10
2.436168676250291
 20
3.71094252919395
 10
2.435573165446299
 20
3.71131814799405
 10
2.434922861880675
 20
3.71162960158645
 10
2.434208393107359
 20
3.711885901938536
 10
2.433429759126351
 20
3.712069385594245
 10
2.432587320416344
 20
3.712188343563563
 10
2.431671344052568
 20
3.712225112390445
 10
2.420761816829735
 20
3.712225112390445
 97
        0
 92
        3
 72
     0
 73
     1
 93
       64
 10
2.440611215686397
 20
3.697248664531611
 10
2.44082173524422
 20
3.696048991434949
 10
2.44110579245582
 20
3.694876354240396
 10
2.441481411255908
 20
3.693749858318799
 10
2.441939219198449
 20
3.692668782712754
 10
2.442479937240821
 20
3.691652232793098
 10
2.443111856392997
 20
3.690708860048517
 10
2.443826325166317
 20
3.689838664478999
 10
2.444632355528142
 20
3.689050658051918
 10
2.445529947478471
 20
3.68836394613811
 10
2.446510089049942
 20
3.687786819747557
 10
2.447590804177297
 20
3.687319639358948
 10
2.448754068925771
 20
3.686971416939667
 10
2.450009255741455
 20
3.686751524935767
 10
2.451345910742192
 20
3.6866783477607
 10
2.452655890319501
 20
3.686751524935767
 10
2.453874308308304
 20
3.686971416939667
 10
2.45500080422991
 20
3.687319639358948
 10
2.456045111009066
 20
3.687786819747557
 10
2.456997495721033
 20
3.68836394613811
 10
2.457877063736611
 20
3.689050658051918
 10
2.458664709685
 20
3.689838664478999
 10
2.459360794044875
 20
3.690708860048517
 10
2.459983701229675
 20
3.691652232793098
 10
2.460515046825986
 20
3.692668782712754
 10
2.460972854768523
 20
3.693749858318799
 10
2.461339461601249
 20
3.694876354240396
 10
2.461623158334144
 20
3.696048991434949
 10
2.461834038370665
 20
3.697248664531611
 10
2.461952996339984
 20
3.698476094487787
 10
2.461989765166866
 20
3.699721908857415
 10
2.461952996339984
 20
3.700958350780957
 10
2.461834038370665
 20
3.702185780737133
 10
2.461623158334144
 20
3.703394826279875
 10
2.461339461601249
 20
3.704558091028359
 10
2.460972854768523
 20
3.705693959396023
 10
2.460515046825986
 20
3.706765662555996
 10
2.459983701229675
 20
3.707782572954346
 10
2.459360794044875
 20
3.708734957666306
 10
2.458664709685
 20
3.709605153235823
 10
2.457877063736611
 20
3.710383787216835
 10
2.456997495721033
 20
3.711070859609336
 10
2.456045111009066
 20
3.711656997967266
 10
2.45500080422991
 20
3.712124178355872
 10
2.453874308308304
 20
3.712472400775159
 10
2.452655890319501
 20
3.712682920332985
 10
2.451345910742192
 20
3.712756097508052
 10
2.450009255741455
 20
3.712682920332985
 10
2.448754068925771
 20
3.712472400775159
 10
2.447590804177297
 20
3.712124178355872
 10
2.446510089049942
 20
3.711656997967266
 10
2.445529947478471
 20
3.711070859609336
 10
2.444632355528142
 20
3.710383787216835
 10
2.443826325166317
 20
3.709605153235823
 10
2.443111856392997
 20
3.708734957666306
 10
2.442479937240821
 20
3.707782572954346
 10
2.441939219198449
 20
3.706765662555996
 10
2.441481411255908
 20
3.705693959396023
 10
2.44110579245582
 20
3.704558091028359
 10
2.44082173524422
 20
3.703394826279875
 10
2.440611215686397
 20
3.702185780737133
 10
2.440492257717074
 20
3.700958350780957
 10
2.440455488890188
 20
3.699721908857415
 10
2.440492257717074
 20
3.698476094487787
 97
        0
 92
        3
 72
     0
 73
     1
 93
       57
 10
2.475829984179335
 20
3.687484378122523
 10
2.476837522131614
 20
3.687521146949404
 10
2.477771882908827
 20
3.687621720505283
 10
2.478642078478348
 20
3.68779583171493
 10
2.479430084905435
 20
3.688034108132268
 10
2.480153565646114
 20
3.68832717731123
 10
2.480812881179115
 20
3.688675399730515
 10
2.481399380015731
 20
3.689069042465359
 10
2.481912341198598
 20
3.689508826473149
 10
2.482370149141135
 20
3.689994391275197
 10
2.48275477990861
 20
3.690507352458057
 10
2.483084617914451
 20
3.691056721989107
 10
2.483350290712607
 20
3.691633848379657
 10
2.483551798303056
 20
3.692229359183655
 10
2.483698513131884
 20
3.692851905889769
 10
2.483780702274319
 20
3.693484185520644
 10
2.483808098655144
 20
3.694134489086266
 10
2.483734921480071
 20
3.695389315423259
 10
2.483506017508801
 20
3.69655258017174
 10
2.483322894331793
 20
3.697102310181486
 10
2.483112014295258
 20
3.697615271364346
 10
2.482846341497109
 20
3.698100475687692
 10
2.482544260350777
 20
3.698558644108927
 10
2.482196037931496
 20
3.698970671257212
 10
2.481811407164024
 20
3.699355662503376
 10
2.481371623156226
 20
3.69970352444397
 10
2.480895430800248
 20
3.700005966069004
 10
2.48036408520394
 20
3.700271638867149
 10
2.479786958813388
 20
3.700482158424986
 10
2.47916441210728
 20
3.700656269634619
 10
2.478486351682144
 20
3.700784600050016
 10
2.479603835636373
 20
3.701040900402097
 10
2.480089400438418
 20
3.701224023579114
 10
2.480538196413586
 20
3.70143490361564
 10
2.481325842361967
 20
3.701938492352425
 10
2.481948749546781
 20
3.702579783950678
 10
2.48242530238145
 20
3.703340033518247
 10
2.482608425558469
 20
3.703770445079974
 10
2.48275477990861
 20
3.704228613501202
 10
2.482947275531694
 20
3.705236151453486
 10
2.483011440739386
 20
3.706372019821156
 10
2.482965659945131
 20
3.707003938973336
 10
2.482782536768119
 20
3.707846738162041
 10
2.48262680997191
 20
3.70831391855065
 10
2.482406917968009
 20
3.708808495320072
 10
2.4821318727238
 20
3.709303072089486
 10
2.481784010783199
 20
3.70979764885891
 10
2.481353599221479
 20
3.710273841214888
 10
2.480840638038619
 20
3.710722637190056
 10
2.480236115267258
 20
3.711135024817033
 10
2.479530658461307
 20
3.711492259203691
 10
2.478715616132115
 20
3.71179434035003
 10
2.477790267322272
 20
3.712023604799995
 10
2.476745960543108
 20
3.712169959150122
 10
2.47556431138119
 20
3.712225112390445
 10
2.464920817435203
 20
3.712225112390445
 10
2.464920817435203
 20
3.687484378122523
 97
        0
 92
        3
 72
     0
 73
     1
 93
       56
 10
2.49179558557701
 20
3.687484378122523
 10
2.50297042511929
 20
3.687484378122523
 10
2.505232789408566
 20
3.687566927743657
 10
2.50626808422036
 20
3.687685885712983
 10
2.507238853345743
 20
3.687850984955249
 10
2.508136445296082
 20
3.688070516480451
 10
2.508970232517416
 20
3.688336189278605
 10
2.509730482084983
 20
3.688657015317074
 10
2.510417554477485
 20
3.689041646084546
 10
2.511031089216232
 20
3.689481430092337
 10
2.511562434812532
 20
3.689985018829133
 10
2.51202024275507
 20
3.690553133252315
 10
2.512395861555168
 20
3.691185052404498
 10
2.512688930734131
 20
3.691881136764372
 10
2.512899810770662
 20
3.692650398299316
 10
2.513037153153419
 20
3.693484185520644
 10
2.513073561501599
 20
3.694400161884421
 10
2.513046165120789
 20
3.695068849863481
 10
2.512954603532283
 20
3.695700769015666
 10
2.512808249182142
 20
3.696277895406214
 10
2.512606741591696
 20
3.696809241002518
 10
2.51235909272829
 20
3.69729444532587
 10
2.512066023549321
 20
3.697734229333659
 10
2.511727173576107
 20
3.6981282325472
 10
2.511351554776005
 20
3.698485466933862
 10
2.510930155181651
 20
3.698805932493633
 10
2.510481359206494
 20
3.699080617259164
 10
2.509996154883139
 20
3.699318893676496
 10
2.509483193700276
 20
3.699520401266955
 10
2.508393106126861
 20
3.699822842891981
 10
2.507220468932305
 20
3.699987581655563
 10
2.507220468932305
 20
3.700253254453712
 10
2.508356337299979
 20
3.700592104426929
 10
2.509363875252261
 20
3.701013504021277
 10
2.510225058854406
 20
3.70152646520414
 10
2.510948539595088
 20
3.702149372388951
 10
2.511516654018274
 20
3.702881865097015
 10
2.511745557989544
 20
3.703284880277923
 10
2.511938053612627
 20
3.703734036731783
 10
2.512194353964715
 20
3.70471381782456
 10
2.512276903585848
 20
3.705840674224854
 10
2.512240134758974
 20
3.706655716554051
 10
2.512121176789647
 20
3.707406954154247
 10
2.511928681166563
 20
3.708103038514126
 10
2.511663008368411
 20
3.708744330112373
 10
2.511333530841262
 20
3.709321456502927
 10
2.510930155181651
 20
3.709843429653159
 10
2.510472347239113
 20
3.710310610041761
 10
2.509950374088888
 20
3.710722637190056
 10
2.509373247698325
 20
3.711089244022782
 10
2.508741328546149
 20
3.711400697615185
 10
2.508063268121013
 20
3.711656997967266
 10
2.507339787380331
 20
3.71185850555772
 10
2.50576413500487
 20
3.71213355080194
 10
2.504033116311891
 20
3.712225112390445
 10
2.49179558557701
 20
3.712225112390445
 97
        0
 92
        3
 72
     0
 73
     1
 93
       58
 10
2.517332977760686
 20
3.695993838194632
 10
2.517397142968381
 20
3.694793804619259
 10
2.517580266145401
 20
3.693685693111102
 10
2.517882707770427
 20
3.692668782712754
 10
2.518285722951347
 20
3.691734421935545
 10
2.518780299720763
 20
3.690882610779465
 10
2.519357426111318
 20
3.690122361211894
 10
2.520007729676943
 20
3.689444661265454
 10
2.520722198450255
 20
3.688840138494093
 10
2.521500832431267
 20
3.688318165343853
 10
2.52232524720653
 20
3.687878381336062
 10
2.5231770583626
 20
3.68750276253596
 10
2.524065277866871
 20
3.687200681389633
 10
2.524972242263278
 20
3.686971416939667
 10
2.52588821862705
 20
3.686806678176088
 10
2.526804194990819
 20
3.686715116587582
 10
2.527711159387219
 20
3.6866783477607
 10
2.52861776330492
 20
3.686715116587582
 10
2.529533739668696
 20
3.686806678176088
 10
2.530449716032465
 20
3.686971416939667
 10
2.531347307982797
 20
3.687200681389633
 10
2.532235887965756
 20
3.68750276253596
 10
2.533097071567908
 20
3.687878381336062
 10
2.533921486343178
 20
3.688318165343853
 10
2.534690747878108
 20
3.688840138494093
 10
2.535414228618805
 20
3.689444661265454
 10
2.536064892663123
 20
3.690122361211894
 10
2.536641658574977
 20
3.690882610779465
 10
2.53713659582309
 20
3.691734421935545
 10
2.537539611004007
 20
3.692668782712754
 10
2.537841692150346
 20
3.693685693111102
 10
2.538024815327358
 20
3.694793804619259
 10
2.53808898053505
 20
3.695993838194632
 10
2.53808898053505
 20
3.712225112390445
 10
2.531970215167611
 20
3.712225112390445
 10
2.531970215167611
 20
3.696525183790929
 10
2.531915422405979
 20
3.695554054186838
 10
2.531750323163714
 20
3.694656462236499
 10
2.531466626430808
 20
3.693841419907301
 10
2.531035854390394
 20
3.693135963101355
 10
2.530459088478533
 20
3.692549824743435
 10
2.530110866059244
 20
3.692311548326099
 10
2.529726235291784
 20
3.692110040735641
 10
2.529286451283989
 20
3.691954313939439
 10
2.528810258928003
 20
3.691835355970115
 10
2.527711159387219
 20
3.691734421935545
 10
2.526611699367736
 20
3.691835355970115
 10
2.526135507011751
 20
3.691954313939439
 10
2.525695723003964
 20
3.692110040735641
 10
2.525311092236488
 20
3.692311548326099
 10
2.524963230295894
 20
3.692549824743435
 10
2.524386103905345
 20
3.693135963101355
 10
2.523955692343626
 20
3.693841419907301
 10
2.523671635132026
 20
3.694656462236499
 10
2.523506535889767
 20
3.695554054186838
 10
2.523451743128136
 20
3.696525183790929
 10
2.523451743128136
 20
3.712225112390445
 10
2.517332977760686
 20
3.712225112390445
 97
        0
 92
        3
 72
     0
 73
     1
 93
      105
 10
2.548467162161582
 20
3.699721908857415
 10
2.548494558542397
 20
3.700729446809692
 10
2.548586120130895
 20
3.7016638075869
 10
2.548732834959727
 20
3.702534003156417
 10
2.548934342550184
 20
3.703321649104806
 10
2.549181630934899
 20
3.70404549032419
 10
2.549483712081238
 20
3.704695793889807
 10
2.549831934500523
 20
3.705281932247735
 10
2.550225577235368
 20
3.705803905397976
 10
2.550656349275793
 20
3.706262073819207
 10
2.551123529664391
 20
3.706646704586681
 10
2.551627118401179
 20
3.706976542592527
 10
2.552167475964857
 20
3.707242215390675
 10
2.552735590388039
 20
3.707443722981134
 10
2.553330740713348
 20
3.707590077331262
 10
2.553944635930774
 20
3.707672626952399
 10
2.554585927529021
 20
3.707700023333217
 10
2.55538258544478
 20
3.707626846158142
 10
2.556161219425795
 20
3.707415966121616
 10
2.556903084579914
 20
3.707086488594472
 10
2.557608541385865
 20
3.706637692619306
 10
2.558249832984108
 20
3.706087962609565
 10
2.55880857496123
 20
3.705456043457378
 10
2.559275394871134
 20
3.704750586651442
 10
2.559642001703863
 20
3.70397195267043
 10
2.564689063911342
 20
3.706372019821156
 10
2.563754703134125
 20
3.707791584921724
 10
2.562737792735771
 20
3.70905578370478
 10
2.561620308781549
 20
3.710145871278195
 10
2.561025158456248
 20
3.710622063634175
 10
2.560402251271437
 20
3.711061847641964
 10
2.559751947705813
 20
3.711446478409436
 10
2.559073887280681
 20
3.711785328382657
 10
2.558359418507361
 20
3.71207839756162
 10
2.557617553353245
 20
3.712316673978957
 10
2.55684829181829
 20
3.712508809123343
 10
2.556042261456464
 20
3.712646511984804
 10
2.555199462267771
 20
3.712728701127246
 10
2.554320254730877
 20
3.712756097508052
 10
2.552909701597681
 20
3.712682920332985
 10
2.551590349574298
 20
3.712481412742531
 10
2.550344895683383
 20
3.712142562769315
 10
2.549190642902272
 20
3.711693766794151
 10
2.548118939742301
 20
3.711125652370965
 10
2.547138798170829
 20
3.710457324870597
 10
2.546241206220494
 20
3.709687702856963
 10
2.545435175858664
 20
3.708835891700883
 10
2.544720707085348
 20
3.707892518956292
 10
2.544097799900546
 20
3.706884981004014
 10
2.543566454304245
 20
3.705803905397976
 10
2.543127030775152
 20
3.704677409476369
 10
2.542787820323237
 20
3.703486748347073
 10
2.542540531938522
 20
3.702268330358273
 10
2.542394177588388
 20
3.701004131575215
 10
2.542339024348065
 20
3.699721908857415
 10
2.542394177588388
 20
3.698430313693541
 10
2.54254990438459
 20
3.697175487356546
 10
2.542815577182745
 20
3.695948057400372
 10
2.543172811569403
 20
3.694766408238449
 10
2.543639991958004
 20
3.693630539870779
 10
2.54419873393513
 20
3.692549824743435
 10
2.544849037500751
 20
3.691542286791155
 10
2.545599914622247
 20
3.690607926013936
 10
2.546451725778324
 20
3.689747102890493
 10
2.547386086555537
 20
3.688986492844222
 10
2.548412008921257
 20
3.688308792897786
 10
2.549529492875485
 20
3.687750050920675
 10
2.550729526450851
 20
3.687292242978136
 10
2.552021121614723
 20
3.68696240497229
 10
2.553394905921029
 20
3.686751524935767
 10
2.554851239848483
 20
3.6866783477607
 10
2.555593465481304
 20
3.686705744141511
 10
2.556325958189366
 20
3.686788293762647
 10
2.557773280149439
 20
3.687118131768493
 10
2.558469364509318
 20
3.687356047707135
 10
2.559156436901821
 20
3.687649477364797
 10
2.559825124880875
 20
3.687988327338013
 10
2.560466416479129
 20
3.688381970072855
 10
2.561693846435313
 20
3.68928893446925
 10
2.562820342356911
 20
3.690388034010041
 10
2.56381886834182
 20
3.691642860347032
 10
2.564276676284354
 20
3.692339305185604
 10
2.564689063911342
 20
3.693071797893668
 10
2.559907674502015
 20
3.695462492598324
 10
2.55944950608079
 20
3.69462906585569
 10
2.558890764103672
 20
3.69391459708237
 10
2.558258844951492
 20
3.693319086278374
 10
2.557571772558979
 20
3.692833881955028
 10
2.556866676231734
 20
3.692467275122302
 10
2.556161219425795
 20
3.692210974770218
 10
2.555483519479353
 20
3.692055247974015
 10
2.554851239848483
 20
3.69200009473369
 10
2.553944635930774
 20
3.692055247974015
 10
2.553120221155511
 20
3.692192590356774
 10
2.552378356001377
 20
3.692421494328046
 10
2.551718679989693
 20
3.692723935953074
 10
2.551123529664391
 20
3.693099554753173
 10
2.550610568481527
 20
3.6935299663149
 10
2.550152400060296
 20
3.694024543084323
 10
2.549758396846756
 20
3.694564900647993
 10
2.54942891931961
 20
3.69514202703855
 10
2.54915387407539
 20
3.695755561777291
 10
2.54892497010412
 20
3.69639685337554
 10
2.548750858894474
 20
3.697056529387226
 10
2.548531327369274
 20
3.698393905345349
 97
        0
 92
        3
 72
     0
 73
     1
 93
       12
 10
2.568151461775968
 20
3.687484378122523
 10
2.574270227143411
 20
3.687484378122523
 10
2.574270227143411
 20
3.697853187302988
 10
2.583585717577339
 20
3.697853187302988
 10
2.583585717577339
 20
3.687484378122523
 10
2.589704122466083
 20
3.687484378122523
 10
2.589704122466083
 20
3.712225112390445
 10
2.583585717577339
 20
3.712225112390445
 10
2.583585717577339
 20
3.703175294754672
 10
2.574270227143411
 20
3.703175294754672
 10
2.574270227143411
 20
3.712225112390445
 10
2.568151461775968
 20
3.712225112390445
 97
        0
 92
        3
 72
     0
 73
     1
 93
        8
 10
2.605669723863765
 20
3.707434350535061
 10
2.612054162029349
 20
3.707434350535061
 10
2.612054162029349
 20
3.712225112390445
 10
2.5928918355652
 20
3.712225112390445
 10
2.5928918355652
 20
3.707434350535061
 10
2.599550958496315
 20
3.707434350535061
 10
2.599550958496315
 20
3.687484378122523
 10
2.605669723863765
 20
3.687484378122523
 97
        0
 92
        3
 72
     0
 73
     1
 93
        8
 10
2.610185440474926
 20
3.687484378122523
 10
2.616844563406045
 20
3.687484378122523
 10
2.618172927396788
 20
3.69120343681793
 10
2.627213372586503
 20
3.69120343681793
 10
2.628550748544626
 20
3.687484378122523
 10
2.635200859508369
 20
3.687484378122523
 10
2.625885369074452
 20
3.712225112390445
 10
2.619500930908857
 20
3.712225112390445
 97
        0
 92
        3
 72
     0
 73
     1
 93
        6
 10
2.637857227011181
 20
3.687484378122523
 10
2.653822467930161
 20
3.687484378122523
 10
2.653822467930161
 20
3.692531440329989
 10
2.644241665176779
 20
3.692531440329989
 10
2.644241665176779
 20
3.712225112390445
 10
2.637857227011181
 20
3.712225112390445
 97
        0
 92
       18
 72
     0
 73
     1
 93
        3
 10
2.385908934212134
 20
3.709028387323959
 10
2.390434023269358
 20
3.696790856589081
 10
2.381118532835434
 20
3.696790856589081
 97
        0
 92
       18
 72
     0
 73
     1
 93
       29
 10
2.430874325658119
 20
3.709825045239723
 10
2.432349043998999
 20
3.709751868064654
 10
2.433585485922548
 20
3.709531976060762
 10
2.434116831518849
 20
3.709367237297183
 10
2.434593384353525
 20
3.709165729706731
 10
2.435023795915252
 20
3.70893646525676
 10
2.435399414715351
 20
3.708661780491237
 10
2.435719880275127
 20
3.708359699344908
 10
2.435994565040645
 20
3.708020488892986
 10
2.436223829490614
 20
3.707654242538958
 10
2.43640695266763
 20
3.70725122735805
 10
2.436644868606277
 20
3.706344262961649
 10
2.436727418227402
 20
3.705309328628555
 10
2.436663253019717
 20
3.704411736678221
 10
2.436443361015817
 20
3.703550553076075
 10
2.436269610284869
 20
3.703138525927788
 10
2.436049718280975
 20
3.702735510746881
 10
2.435784045482823
 20
3.702359891946779
 10
2.435463579923043
 20
3.70201166952749
 10
2.435087961122955
 20
3.701691203967719
 10
2.434648177115149
 20
3.701398134788755
 10
2.434144227899659
 20
3.701141834436674
 10
2.433585485922548
 20
3.70093095440015
 10
2.432953566770365
 20
3.700756843190504
 10
2.43224847044312
 20
3.700628873253811
 10
2.431460464016041
 20
3.700546323632674
 10
2.43060865285996
 20
3.700518927251856
 10
2.423152511534398
 20
3.700518927251856
 10
2.423152511534398
 20
3.709825045239723
 97
        0
 92
       18
 72
     0
 73
     1
 93
       64
 10
2.442873579975662
 20
3.700674654048065
 10
2.442974514010243
 20
3.701636411206089
 10
2.443130240806445
 20
3.702607180331494
 10
2.443350132810338
 20
3.703559925522146
 10
2.443643201989305
 20
3.70448491385329
 10
2.444000436375966
 20
3.70539187824969
 10
2.444421475491618
 20
3.706252701373143
 10
2.444907040293661
 20
3.707068104181033
 10
2.445465782270779
 20
3.707818981302527
 10
2.44609806190166
 20
3.708506053695033
 10
2.446794146261528
 20
3.709119948912468
 10
2.447563407796472
 20
3.709632910095328
 10
2.448396834539112
 20
3.710053949210987
 10
2.449312810902885
 20
3.710365402803393
 10
2.450292591995652
 20
3.710557898426476
 10
2.451345910742192
 20
3.710631075601545
 10
2.45240860193479
 20
3.710557898426476
 10
2.453388743506258
 20
3.710365402803393
 10
2.454286335456586
 20
3.710053949210987
 10
2.455110750231857
 20
3.709632910095328
 10
2.455852615385983
 20
3.709119948912468
 10
2.456530675811112
 20
3.708506053695033
 10
2.457135198582485
 20
3.707818981302527
 10
2.457666183700095
 20
3.707068104181033
 10
2.458133364088692
 20
3.706252701373143
 10
2.458527367302232
 20
3.70539187824969
 10
2.458866217275449
 20
3.70448491385329
 10
2.459131890073609
 20
3.703559925522146
 10
2.459342409631431
 20
3.702607180331494
 10
2.459480112492886
 20
3.701636411206089
 10
2.459571674081396
 20
3.700674654048065
 10
2.45959907046221
 20
3.699721908857415
 10
2.459571674081396
 20
3.698760151699384
 10
2.459480112492886
 20
3.697798394541358
 10
2.459342409631431
 20
3.696836637383325
 10
2.459131890073609
 20
3.695883892192682
 10
2.458866217275449
 20
3.69494953141547
 10
2.458527367302232
 20
3.694042927497764
 10
2.458133364088692
 20
3.693181743895615
 10
2.457666183700095
 20
3.692366701566414
 10
2.457135198582485
 20
3.691615463966218
 10
2.456530675811112
 20
3.69092839157372
 10
2.455852615385983
 20
3.69032386880235
 10
2.455110750231857
 20
3.689801895652112
 10
2.454286335456586
 20
3.689380496057764
 10
2.453388743506258
 20
3.689069042465359
 10
2.45240860193479
 20
3.688876907320968
 10
2.451345910742192
 20
3.688812742113276
 10
2.450292591995652
 20
3.688876907320968
 10
2.449312810902885
 20
3.689069042465359
 10
2.448396834539112
 20
3.689380496057764
 10
2.447563407796472
 20
3.689801895652112
 10
2.446794146261528
 20
3.69032386880235
 10
2.44609806190166
 20
3.69092839157372
 10
2.445465782270779
 20
3.691615463966218
 10
2.444907040293661
 20
3.692366701566414
 10
2.444421475491618
 20
3.693181743895615
 10
2.444000436375966
 20
3.694042927497764
 10
2.443643201989305
 20
3.69494953141547
 10
2.443350132810338
 20
3.695883892192682
 10
2.443130240806445
 20
3.696836637383325
 10
2.442974514010243
 20
3.697798394541358
 10
2.442873579975662
 20
3.698760151699384
 10
2.442846183594852
 20
3.699721908857415
 97
        0
 92
       18
 72
     0
 73
     1
 93
       26
 10
2.475033326263573
 20
3.709825045239723
 10
2.476342945362199
 20
3.709788636891533
 10
2.477469801762492
 20
3.709650934030075
 10
2.478431558920526
 20
3.709413018091438
 10
2.47885295851488
 20
3.709238906881792
 10
2.479219204868904
 20
3.709028387323959
 10
2.479549042874752
 20
3.708790110906623
 10
2.479833100086334
 20
3.708506053695033
 10
2.480071016024981
 20
3.708176215689191
 10
2.480263511648061
 20
3.707809969335162
 10
2.480419238444266
 20
3.707388569740813
 10
2.480529184446223
 20
3.706930761798271
 10
2.48062074603473
 20
3.705840674224854
 10
2.480519812000145
 20
3.704887929034201
 10
2.480400854030829
 20
3.704457517472476
 10
2.480226742821179
 20
3.704054502291569
 10
2.480016223263353
 20
3.703669871524095
 10
2.479759562432574
 20
3.703321649104806
 10
2.479118631313025
 20
3.702708114366058
 10
2.478321612918565
 20
3.702222549564014
 10
2.477854432529967
 20
3.702030053940931
 10
2.477359855760537
 20
3.701874327144731
 10
2.476260756219756
 20
3.701654795619526
 10
2.475033326263573
 20
3.701581257965767
 10
2.467311512139856
 20
3.701581257965767
 10
2.467311512139856
 20
3.709825045239723
 97
        0
 92
       18
 72
     0
 73
     1
 93
       28
 10
2.475033326263573
 20
3.699456236059255
 10
2.476526429017912
 20
3.699355662503376
 10
2.477827036149153
 20
3.699071605291787
 10
2.478394790093634
 20
3.698860725255263
 10
2.478917123722568
 20
3.698613436870553
 10
2.47939331607855
 20
3.698320367691593
 10
2.479814715672897
 20
3.697990890164441
 10
2.480190334472992
 20
3.697624283331714
 10
2.480519812000145
 20
3.697221268150801
 10
2.480794857244365
 20
3.696781484143004
 10
2.481014388769568
 20
3.696314303754405
 10
2.481188499979214
 20
3.695810715017609
 10
2.481316830394601
 20
3.695279369421312
 10
2.481417403950473
 20
3.694134489086266
 10
2.481335214808042
 20
3.693328458724442
 10
2.481106310836771
 20
3.692531440329989
 10
2.480702935177157
 20
3.691762178795047
 10
2.480116796819236
 20
3.691075106402548
 10
2.479759562432574
 20
3.690763652810141
 10
2.479347535284295
 20
3.690479595598552
 10
2.478889366863064
 20
3.690232307213839
 10
2.478385778126268
 20
3.690012415209945
 10
2.477827036149153
 20
3.68984767644637
 10
2.477213140931724
 20
3.689719346030985
 10
2.476544452952651
 20
3.689637156888546
 10
2.475829984179335
 20
3.689609400029031
 10
2.467311512139856
 20
3.689609400029031
 10
2.467311512139856
 20
3.699456236059255
 97
        0
 92
       18
 72
     0
 73
     1
 93
       19
 10
2.50297042511929
 20
3.707434350535061
 10
2.503639113098355
 20
3.707406954154247
 10
2.504253008315792
 20
3.707324404533114
 10
2.504793365879466
 20
3.70716867773691
 10
2.505260546268071
 20
3.706939773765646
 10
2.505636165068173
 20
3.706619308205866
 10
2.505919861801071
 20
3.706197908611512
 10
2.506093973010714
 20
3.705675574982581
 10
2.506158138218406
 20
3.705043655830403
 10
2.506093973010714
 20
3.704393352264784
 10
2.505919861801071
 20
3.703834610287666
 10
2.505636165068173
 20
3.703376802345127
 10
2.505260546268071
 20
3.703010195512399
 10
2.504793365879466
 20
3.702726138300814
 10
2.504253008315792
 20
3.702534003156417
 10
2.503639113098355
 20
3.702415045187099
 10
2.50297042511929
 20
3.70237827636022
 10
2.497648678146307
 20
3.70237827636022
 10
2.497648678146307
 20
3.707434350535061
 97
        0
 92
       18
 72
     0
 73
     1
 93
       19
 10
2.504033116311891
 20
3.697853187302988
 10
2.504765969498651
 20
3.697807406508731
 10
2.505388516204756
 20
3.697661052158594
 10
2.50589246542025
 20
3.697422775741261
 10
2.506295480601163
 20
3.69709293773542
 10
2.506588549780126
 20
3.696671538141061
 10
2.506799429816657
 20
3.696176961371644
 10
2.506918387785966
 20
3.695590823013712
 10
2.506955156612851
 20
3.694931507480717
 10
2.506918387785966
 20
3.694345008644101
 10
2.506781045403209
 20
3.693795639113048
 10
2.506533757018505
 20
3.693301062343629
 10
2.506158138218406
 20
3.69287029030321
 10
2.505636165068173
 20
3.692504043949179
 10
2.504939720229607
 20
3.692238371151026
 10
2.504051500725335
 20
3.692064259941388
 10
2.50297042511929
 20
3.69200009473369
 10
2.497914350944456
 20
3.69200009473369
 10
2.497914350944456
 20
3.697853187302988
 97
        0
 92
       18
 72
     0
 73
     1
 93
        3
 10
2.622697655975336
 20
3.706106347023006
 10
2.625619696276296
 20
3.695728165396476
 10
2.619500930908857
 20
3.695728165396476
 97
        0
 75
     0
 76
     1
 98
        0
  0
HATCH
  5
80
102
{ACAD_REACTORS
330
7F
102
}
330
1F
100
AcDbEntity
  8
XR$1$TB_1407_1
  6
AUSGEZOGEN
 62
     3
440
 33554687
370
    35
100
AcDbHatch
 10
0.0
 20
0.0
 30
0.0
210
0.0
220
0.0
230
1.0
  2
SOLID
 70
     1
 71
     0
 91
        1
 92
        3
 72
     0
 73
     1
 93
       22
 10
2.345999977419681
 20
3.687209693356999
 10
2.3611685604229
 20
3.687209693356999
 10
2.359886337705096
 20
3.688052492545709
 10
2.358640523335483
 20
3.688968468909477
 10
2.35744048976011
 20
3.689976006861756
 10
2.356304621392436
 20
3.691075106402548
 10
2.355251302645917
 20
3.692265767531842
 10
2.354280533520513
 20
3.693575747109155
 10
2.353410337950999
 20
3.694995312209719
 10
2.352650088383424
 20
3.696525183790929
 10
2.352182907994819
 20
3.697523709775831
 10
2.351779892813906
 20
3.69853124772811
 10
2.351431670394611
 20
3.699538785680395
 10
2.351138601215659
 20
3.700546323632674
 10
2.350735586034746
 20
3.702570771983299
 10
2.35055246285772
 20
3.704576475441796
 10
2.350588871205918
 20
3.706555142998172
 10
2.350818135655879
 20
3.708497041727667
 10
2.351239535250233
 20
3.710393159662903
 10
2.351523231983135
 20
3.71131814799405
 10
2.351853069988972
 20
3.712225112390445
 10
2.345999977419681
 20
3.712225112390445
 97
        0
 75
     0
 76
     1
 98
        0
  0
HATCH
  5
81
102
{ACAD_REACTORS
330
7F
102
}
330
1F
100
AcDbEntity
  8
XR$1$TB_1407_1
  6
AUSGEZOGEN
 62
     3
440
 33554687
370
    35
100
AcDbHatch
 10
0.0
 20
0.0
 30
0.0
210
0.0
220
0.0
230
1.0
  2
SOLID
 70
     1
 71
     0
 91
        1
 92
        3
 72
     0
 73
     1
 93
       24
 10
2.358567346160406
 20
3.69092839157372
 10
2.359776391703142
 20
3.689810907619491
 10
2.361104395215204
 20
3.688803369667208
 10
2.362542344729213
 20
3.687942546543762
 10
2.364090600723864
 20
3.687209693356999
 10
2.371006024007068
 20
3.687209693356999
 10
2.371006024007068
 20
3.712225112390445
 10
2.35744048976011
 20
3.712225112390445
 10
2.356881747782999
 20
3.711583820792197
 10
2.356405555427024
 20
3.710860340051508
 10
2.355581140651758
 20
3.709293699643422
 10
2.355205521851663
 20
3.708497041727667
 10
2.354875683845815
 20
3.707681638919769
 10
2.354600999080297
 20
3.706866596590573
 10
2.354372095109019
 20
3.706042181815314
 10
2.354051269070545
 20
3.704393352264784
 10
2.353913926687784
 20
3.702744522714253
 10
2.353950695514669
 20
3.701095693163716
 10
2.354152203105122
 20
3.699483632440075
 10
2.354518449459157
 20
3.697898968097237
 10
2.35504078308808
 20
3.696360445027354
 10
2.355718483034522
 20
3.694885726686464
 10
2.356533885842409
 20
3.693474813074576
 10
2.357486270554365
 20
3.692155821529894
 97
        0
 75
     0
 76
     1
 98
        0
  0
MTEXT
  5
82
330
1F
100
AcDbEntity
  8
XR$1$TB_1407_1
  6
AUSGEZOGEN
 62
     7
440
 33554687
370
    -3
100
AcDbMText
 10
2.252616
 20
4.970459
 30
0.0
 40
0.025
 41
0.405443
 46
0.0
 71
     7
 72
     5
  1
\W1.00;BAUKERAMIKFASSADE
  7
ARIAL
 73
     1
 44
1.0
  0
MTEXT
  5
83
330
1F
100
AcDbEntity
  8
XR$1$TB_1407_1
  6
AUSGEZOGEN
 62
     7
440
 33554687
370
    -3
100
AcDbMText
 10
2.251548
 20
4.912892
 30
0.0
 40
0.0175
 41
0.434598
 46
0.0
 71
     7
 72
     5
  1
\W1.00;FACADE CERAMIQUE DE BATIMENT
  7
ARIAL
 73
     1
 44
1.0
  0
MTEXT
  5
84
330
1F
100
AcDbEntity
  8
XR$1$TB_1407_1
  6
AUSGEZOGEN
 62
     7
440
 33554687
370
    -3
100
AcDbMText
 10
2.251548
 20
4.939142
 30
0.0
 40
0.0175
 41
0.457071
 46
0.0
 71
     7
 72
     5
  1
\W1.00;ARCHITECTURAL CERAMICS FACADE
  7
ARIAL
 73
     1
 44
1.0
  0
MTEXT
  5
85
330
1F
100
AcDbEntity
  8
XR$1$TB_1407_1
  6
AUSGEZOGEN
 62
     7
440
 33554687
370
    -3
100
AcDbMText
 10
2.25072
 20
4.852544
 30
0.0
 40
0.025
 41
0.217121
 46
0.0
 71
     7
 72
     5
  1
\W1.00;INNENECKE
  7
ARIAL
 73
     1
 44
1.0
  0
MTEXT
  5
86
330
1F
100
AcDbEntity
  8
XR$1$TB_1407_1
  6
AUSGEZOGEN
 62
     7
440
 33554687
370
    -3
100
AcDbMText
 10
2.25072
 20
4.823889
 30
0.0
 40
0.0175
 41
0.219938
 46
0.0
 71
     7
 72
     5
  1
\W1.00;INTERNAL ANGLE
  7
ARIAL
 73
     1
 44
1.0
  0
MTEXT
  5
87
330
1F
100
AcDbEntity
  8
XR$1$TB_1407_1
  6
AUSGEZOGEN
 62
     7
440
 33554687
370
    -3
100
AcDbMText
 10
2.25072
 20
4.797639
 30
0.0
 40
0.0175
 41
0.230726
 46
0.0
 71
     7
 72
     5
  1
\W1.00;ANGLE INTERIEUR
  7
ARIAL
 73
     1
 44
1.0
  0
MTEXT
  5
88
330
1F
100
AcDbEntity
  8
XR$1$TB_1407_1
  6
AUSGEZOGEN
 62
     7
440
 33554687
370
    -3
100
AcDbMText
 10
2.25017
 20
3.80549
 30
0.0
 40
0.0175
 41
0.743802
 46
0.0
 71
     7
 72
     5
  1
\W1.01;Die Verlegevorschriften des Klebemittelherstellers sind einzuhalten!
  7
ARIAL
 73
     1
 44
1.0
  0
MTEXT
  5
89
330
1F
100
AcDbEntity
  8
XR$1$TB_1407_1
  6
AUSGEZOGEN
 62
     7
440
 33554687
370
    -3
100
AcDbMText
 10
2.25017
 20
3.776102
 30
0.0
 40
0.0175
 41
0.766251
 46
0.0
 71
     7
 72
     5
  1
\W1.00;The laying instructions of the adhesive producer have to be observed!
  7
ARIAL
 73
     1
 44
1.0
  0
MTEXT
  5
8A
330
1F
100
AcDbEntity
  8
XR$1$TB_1407_1
  6
AUSGEZOGEN
 62
     7
440
 33554687
370
    -3
100
AcDbMText
 10
2.25017
 20
3.746714
 30
0.0
 40
0.0175
 41
0.832461
 46
0.0
 71
     7
 72
     5
  1
\W1.01;Les instructions de pose du fabricant de l'adzhésive doivent être observées!
  7
ARIAL
 73
     1
 44
1.0
  0
LINE
  5
8B
330
1F
100
AcDbEntity
  8
XR$1$TB_1407_1
  6
AUSGEZOGEN
 62
     1
440
 33554687
370
    70
100
AcDbLine
 10
2.132554
 20
3.563845
 30
0.0
 11
3.182554
 21
3.563845
 31
0.0
  0
MTEXT
  5
8C
330
1F
100
AcDbEntity
  8
XR$1$TB_1407_1
  6
AUSGEZOGEN
 62
     7
440
 33554687
370
    -3
100
AcDbMText
 10
2.250362
 20
3.631224
 30
0.0
 40
0.009
 41
0.89646
 46
0.0
 71
     7
 72
     5
  1
\W0.85;THESE ARE NOT BINDING CONSTRUCTION PROPOSALS WHICH HAVE TO BE VERIFIED FOR EACH INDIVIDUAL PROJECT AS REGARDS APPLICABILITY AND CORRECTNESS.
  7
ARIAL
 73
     1
 44
1.0
  0
MTEXT
  5
8D
330
1F
100
AcDbEntity
  8
XR$1$TB_1407_1
  6
AUSGEZOGEN
 62
     7
440
 33554687
370
    -3
100
AcDbMText
 10
2.250362
 20
3.649223
 30
0.0
 40
0.009
 41
0.8975
 46
0.0
 71
     7
 72
     5
  1
\W0.91;DIES SIND UNVERBINDLICHE KONSTRUKTIONSVORSCHLÄGE, DIE FÜR JEDES PROJEKT AUF ANWENDBARKEIT UND RICHTIGKEIT GEPRÜFT WERDEN MÜSSEN.
  7
ARIAL
 73
     1
 44
1.0
  0
MTEXT
  5
8E
330
1F
100
AcDbEntity
  8
XR$1$TB_1407_1
  6
AUSGEZOGEN
 62
     7
440
 33554687
370
    -3
100
AcDbMText
 10
2.250362
 20
3.613224
 30
0.0
 40
0.009
 41
0.895804
 46
0.0
 71
     7
 72
     5
  1
\W0.80;IL S' AGIT DE PROPOSITIONS DE CONSTRUCTION SANS ENGAGEMENT DE NOTRE PART QUI DOIVENT ETRE VERIFIEES POUR CHAQUE PROJET A LEUR EXACTITUDE ET FAISABILITE.
  7
ARIAL
 73
     1
 44
1.0
  0
MTEXT
  5
8F
330
1F
100
AcDbEntity
  8
XR$1$TB_1407_1
  6
AUSGEZOGEN
 62
     7
440
 33554687
370
    -3
100
AcDbMText
 10
2.665023
 20
3.687152
 30
0.0
 40
0.009
 41
0.348436
 46
0.0
 71
     7
 72
     5
  1
\W0.92;Tel. 09435 / 391 3238   e-mail: as.fassade@deutsche-steinzeug.de
  7
ARIAL
 73
     1
 44
1.0
  0
LINE
  5
90
330
1F
100
AcDbEntity
  8
XR$1$TB_1407_1
  6
AUSGEZOGEN
 62
    52
440
 33554687
370
    70
100
AcDbLine
 10
2.132554
 20
3.563845
 30
0.0
 11
2.132554
 21
5.04883
 31
0.0
  0
LINE
  5
91
330
1F
100
AcDbEntity
  8
XR$1$TB_1407_1
  6
AUSGEZOGEN
 62
    52
440
 33554687
370
    70
100
AcDbLine
 10
3.182544
 20
3.563845
 30
0.0
 11
3.182544
 21
5.04883
 31
0.0
  0
LINE
  5
92
330
1F
100
AcDbEntity
  8
XR$1$TB_1407_1
  6
AUSGEZOGEN
 62
    52
440
 33554687
370
    70
100
AcDbLine
 10
3.182544
 20
5.04883
 30
0.0
 11
2.132554
 21
5.04883
 31
0.0
  0
MTEXT
  5
93
330
1F
100
AcDbEntity
  8
XR$1$TB_1407_1
  6
AUSGEZOGEN
 62
     7
440
 33554687
370
    -3
100
AcDbMText
 10
2.664571
 20
3.703394
 30
0.0
 40
0.009
 41
0.418059
 46
0.0
 71
     7
 72
     5
  1
\W1.00;AGROB BUCHTAL GmbH   Architektenservice   D - 92521 Schwarzenfeld
  7
ARIAL
 73
     1
 44
1.0
  0
HATCH
  5
95
330
1F
100
AcDbEntity
  8
XR$1$TB_1407_1
  6
AUSGEZOGEN
 62
    14
440
 33554687
370
    -3
100
AcDbHatch
 10
0.0
 20
0.0
 30
0.0
210
0.0
220
0.0
230
1.0
  2
_USER
 70
     0
 71
     0
 91
        1
 92
        0
 93
        4
 72
     1
 10
2.573850551070102
 20
4.322843732124158
 11
2.573850551070102
 21
3.973535815752257
 72
     1
 10
2.573850551070102
 20
3.973535815752257
 11
2.618850551070102
 21
3.973535815752257
 72
     1
 10
2.618850551070102
 20
3.973535815752257
 11
2.618850551070102
 21
4.277843732124158
 72
     1
 10
2.618850551070102
 20
4.277843732124158
 11
2.573850551070102
 21
4.322843732124158
 97
        0
 75
     0
 76
     0
 52
90.0
 41
0.06
 77
     1
 78
     2
 53
90.00000000000001
 43
0.0
 44
0.0
 45
-0.06
 46
0.0
 79
     0
 53
180.0
 43
0.0
 44
0.0
 45
0.0
 46
-0.06
 79
     0
 98
        0
1001
ACAD
1010
0.0
1020
0.0
1030
0.0
1001
NEM_ODX
1002
{
1000
BZM_DEPEND
1070
     1
1000
BZM_SCALE
1040
5.0
1000
MUSTER_415
1002
}
  0
HATCH
  5
96
330
1F
100
AcDbEntity
  8
XR$1$TB_1407_1
  6
AUSGEZOGEN
 62
    14
440
 33554687
370
    -3
100
AcDbHatch
 10
0.0
 20
0.0
 30
0.0
210
0.0
220
0.0
230
1.0
  2
_USER
 70
     0
 71
     0
 91
        1
 92
        0
 93
        4
 72
     1
 10
2.987330647499161
 20
4.344056941123754
 11
2.595063737813697
 21
4.344056941123754
 72
     1
 10
2.595063737813697
 20
4.344056941123754
 11
2.640063737813697
 21
4.299056941123754
 72
     1
 10
2.640063737813697
 20
4.299056941123754
 11
2.987330647499161
 21
4.299056941123754
 72
     1
 10
2.987330647499161
 20
4.299056941123754
 11
2.987330647499161
 21
4.344056941123754
 97
        0
 75
     0
 76
     0
 52
90.0
 41
0.06
 77
     1
 78
     2
 53
90.00000000000001
 43
0.0
 44
0.0
 45
-0.06
 46
0.0
 79
     0
 53
180.0
 43
0.0
 44
0.0
 45
0.0
 46
-0.06
 79
     0
 98
        0
1001
ACAD
1010
0.0
1020
0.0
1030
0.0
1001
NEM_ODX
1002
{
1000
BZM_DEPEND
1070
     1
1000
BZM_SCALE
1040
5.0
1000
MUSTER_415
1002
}
  0
HATCH
  5
97
330
1F
100
AcDbEntity
  8
XR$1$TB_1407_1
  6
AUSGEZOGEN
 62
     7
440
 33554687
370
    -3
100
AcDbHatch
 10
0.0
 20
0.0
 30
0.0
210
0.0
220
0.0
230
1.0
  2
SCHRAFFUR_304
 70
     0
 71
     0
 91
        1
 92
        0
 93
      203
 72
     1
 10
2.621520396909839
 20
4.267605682791922
 11
2.621739379844718
 21
4.267091741924007
 72
     1
 10
2.621739379844718
 20
4.267091741924007
 11
2.62197585249765
 21
4.26658796632864
 72
     1
 10
2.62197585249765
 20
4.26658796632864
 11
2.622229583814801
 21
4.266094848237297
 72
     1
 10
2.622229583814801
 20
4.266094848237297
 11
2.622500325879157
 21
4.265612869468169
 72
     1
 10
2.622500325879157
 20
4.265612869468169
 11
2.622787814152762
 21
4.265142500955386
 72
     1
 10
2.622787814152762
 20
4.265142500955386
 11
2.623091767735195
 21
4.264684202288868
 72
     1
 10
2.623091767735195
 20
4.264684202288869
 11
2.623411889638032
 21
4.264238421265282
 72
     1
 10
2.623411889638032
 20
4.264238421265281
 11
2.623747867075025
 21
4.263805593450484
 72
     1
 10
2.623747867075025
 20
4.263805593450485
 11
2.624099371767729
 21
4.263386141753956
 72
     1
 10
2.624099371767729
 20
4.263386141753956
 11
2.624466060266252
 21
4.262980476015572
 72
     1
 10
2.624466060266252
 20
4.262980476015572
 11
2.624847574284837
 21
4.262588992605159
 72
     1
 10
2.624847574284837
 20
4.262588992605159
 11
2.625243541051934
 21
4.26221207403521
 72
     1
 10
2.625243541051934
 20
4.262212074035209
 11
2.625653573674435
 21
4.261850088587123
 72
     1
 10
2.625653573674435
 20
4.261850088587123
 11
2.626077271515697
 21
4.261503389951385
 72
     1
 10
2.626077271515697
 20
4.261503389951385
 11
2.626514220587001
 21
4.261172316881956
 72
     1
 10
2.626514220587001
 20
4.261172316881957
 11
2.62696399395205
 21
4.260857192865306
 72
     1
 10
2.62696399395205
 20
4.260857192865306
 11
2.627426152144126
 21
4.260558325804316
 72
     1
 10
2.627426152144126
 20
4.260558325804316
 11
2.627900243595486
 21
4.26027600771745
 72
     1
 10
2.627900243595486
 20
4.26027600771745
 11
2.62838580507858
 21
4.260010514453419
 72
     1
 10
2.62838580507858
 20
4.260010514453419
 11
2.628882362158661
 21
4.259762105421656
 72
     1
 10
2.628882362158661
 20
4.259762105421657
 11
2.629389429657356
 21
4.259531023338853
 72
     1
 10
2.629389429657356
 20
4.259531023338852
 11
2.62990651212672
 21
4.259317493991792
 72
     1
 10
2.62990651212672
 20
4.259317493991792
 11
2.630433104333333
 21
4.259121726016762
 72
     1
 10
2.630433104333333
 20
4.259121726016762
 11
2.630968691751953
 21
4.258943910695668
 72
     1
 10
2.630968691751953
 20
4.258943910695667
 11
2.631512751068256
 21
4.258784221769162
 72
     1
 10
2.631512751068255
 20
4.258784221769162
 11
2.632064750690153
 21
4.258642815266864
 72
     1
 10
2.632064750690153
 20
4.258642815266863
 11
2.632624151267205
 21
4.258519829354918
 72
     1
 10
2.632624151267205
 20
4.258519829354919
 11
2.633190406217611
 21
4.258415384200991
 72
     1
 10
2.633190406217612
 20
4.258415384200991
 11
2.633762962262269
 21
4.258329581856853
 72
     1
 10
2.633762962262269
 20
4.258329581856853
 11
2.634341259965368
 21
4.258262506158672
 72
     1
 10
2.634341259965368
 20
4.258262506158672
 11
2.634924734281015
 21
4.258214222645092
 72
     1
 10
2.634924734281015
 20
4.258214222645092
 11
2.635512815105324
 21
4.258184778493201
 72
     1
 10
2.635512815105324
 20
4.258184778493201
 11
2.636104927833463
 21
4.258174202472432
 72
     1
 10
2.636104927833463
 20
4.258174202472432
 11
2.636700493921084
 21
4.258182504916455
 72
     1
 10
2.636700493921084
 20
4.258182504916455
 11
2.637298931449617
 21
4.258209677713074
 72
     1
 10
2.637298931449617
 20
4.258209677713074
 11
2.63789965569485
 21
4.258255694312168
 72
     1
 10
2.637899655694849
 20
4.258255694312167
 11
2.638502079698252
 21
4.258320509751613
 72
     1
 10
2.638502079698252
 20
4.258320509751613
 11
2.63910561484049
 21
4.258404060701232
 72
     1
 10
2.639105614840489
 20
4.258404060701232
 11
2.639709671416549
 21
4.258506265524661
 72
     1
 10
2.639709671416549
 20
4.258506265524661
 11
2.640313659211932
 21
4.258627024359119
 72
     1
 10
2.640313659211931
 20
4.258627024359119
 11
2.640916988079343
 21
4.258766219212986
 72
     1
 10
2.640916988079343
 20
4.258766219212987
 11
2.64151906851532
 21
4.258923714081086
 72
     1
 10
2.64151906851532
 20
4.258923714081086
 11
2.642119312236218
 21
4.259099355077577
 72
     1
 10
2.642119312236218
 20
4.259099355077576
 11
2.642717132753024
 21
4.259292970586311
 72
     1
 10
2.642717132753024
 20
4.259292970586312
 11
2.643311945944398
 21
4.259504371428521
 72
     1
 10
2.643311945944398
 20
4.259504371428521
 11
2.643903170627411
 21
4.259733351047653
 72
     1
 10
2.643903170627411
 20
4.259733351047653
 11
2.644490229125413
 21
4.259979685711202
 72
     1
 10
2.644490229125414
 20
4.259979685711201
 11
2.645072547832471
 21
4.260243134729315
 72
     1
 10
2.645072547832471
 20
4.260243134729315
 11
2.645649557773826
 21
4.260523440689962
 72
     1
 10
2.645649557773826
 20
4.260523440689962
 11
2.646220695161837
 21
4.260820329710446
 72
     1
 10
2.646220695161837
 20
4.260820329710446
 11
2.646785401946843
 21
4.261133511705022
 72
     1
 10
2.646785401946843
 20
4.261133511705022
 11
2.64734312636243
 21
4.261462680668322
 72
     1
 10
2.647343126362429
 20
4.261462680668321
 11
2.647893323464546
 21
4.261807514974354
 72
     1
 10
2.647893323464546
 20
4.261807514974355
 11
2.648435455663969
 21
4.262167677690763
 72
     1
 10
2.648435455663969
 20
4.262167677690763
 11
2.648968993251568
 21
4.26254281690803
 72
     1
 10
2.648968993251568
 20
4.26254281690803
 11
2.649493414915875
 21
4.262932566083331
 72
     1
 10
2.649493414915875
 20
4.262932566083331
 11
2.650008208252454
 21
4.26333654439867
 72
     1
 10
2.650008208252454
 20
4.26333654439867
 11
2.650512870264561
 21
4.263754357132975
 72
     1
 10
2.650512870264561
 20
4.263754357132975
 11
2.651006907854616
 21
4.264185596047777
 72
     1
 10
2.651006907854615
 20
4.264185596047777
 11
2.651489838305998
 21
4.264629839786084
 72
     1
 10
2.651489838305998
 20
4.264629839786084
 11
2.651961189754706
 21
4.265086654284096
 72
     1
 10
2.651961189754706
 20
4.265086654284096
 11
2.652386966960389
 21
4.265520519669468
 72
     1
 10
2.652386966960388
 20
4.265520519669468
 11
2.652420501650402
 21
4.26555559319531
 72
     1
 10
2.652420501650402
 20
4.26555559319531
 11
2.652867325206418
 21
4.266036198326643
 72
     1
 10
2.652867325206418
 20
4.266036198326643
 11
2.653301223838247
 21
4.266528000086128
 72
     1
 10
2.653301223838247
 20
4.266528000086128
 11
2.653721773590132
 21
4.267030517941739
 72
     1
 10
2.653721773590132
 20
4.267030517941739
 11
2.654128563549304
 21
4.267543260890924
 72
     1
 10
2.654128563549304
 20
4.267543260890923
 11
2.654521196247476
 21
4.268065727940333
 72
     1
 10
2.654521196247476
 20
4.268065727940333
 11
2.654899288049209
 21
4.268597408595362
 72
     1
 10
2.654899288049209
 20
4.268597408595363
 11
2.655262469526749
 21
4.26913778335892
 72
     1
 10
2.655262469526749
 20
4.26913778335892
 11
2.655610385820996
 21
4.269686324239041
 72
     1
 10
2.655610385820996
 20
4.269686324239041
 11
2.655942696988228
 21
4.270242495264771
 72
     1
 10
2.655942696988228
 20
4.270242495264771
 11
2.656259078332253
 21
4.270805753009853
 72
     1
 10
2.656259078332253
 20
4.270805753009852
 11
2.65655922072167
 21
4.271375547123707
 72
     1
 10
2.65655922072167
 20
4.271375547123707
 11
2.656842830891914
 21
4.271951320869166
 72
     1
 10
2.656842830891914
 20
4.271951320869166
 11
2.657109631731798
 21
4.272532511666456
 72
     1
 10
2.657109631731798
 20
4.272532511666455
 11
2.657359362554276
 21
4.273118551642883
 72
     1
 10
2.657359362554276
 20
4.273118551642884
 11
2.657591779351159
 21
4.273708868187694
 72
     1
 10
2.657591779351159
 20
4.273708868187694
 11
2.657806655031527
 21
4.274302884511568
 72
     1
 10
2.657806655031527
 20
4.274302884511568
 11
2.658003779643618
 21
4.274900020210182
 72
     1
 10
2.658003779643618
 20
4.274900020210182
 11
2.658182960579972
 21
4.275499691831323
 72
     1
 10
2.658182960579972
 20
4.275499691831323
 11
2.658344022765618
 21
4.276101313444967
 72
     1
 10
2.658344022765618
 20
4.276101313444967
 11
2.658486808829144
 21
4.27670429721578
 72
     1
 10
2.658486808829144
 20
4.27670429721578
 11
2.658611179256457
 21
4.277308053977483
 72
     1
 10
2.658611179256458
 20
4.277308053977483
 11
2.658717012527105
 21
4.277911993808524
 72
     1
 10
2.658717012527104
 20
4.277911993808524
 11
2.658804205233005
 21
4.278515526608475
 72
     1
 10
2.658804205233005
 20
4.278515526608475
 11
2.65887267217949
 21
4.279118062674612
 72
     1
 10
2.65887267217949
 20
4.279118062674612
 11
2.658922346468549
 21
4.2797190132781
 72
     1
 10
2.65892234646855
 20
4.2797190132781
 11
2.658953179564189
 21
4.280317791239244
 72
     1
 10
2.658953179564189
 20
4.280317791239244
 11
2.65896514133986
 21
4.280913811501196
 72
     1
 10
2.65896514133986
 20
4.280913811501196
 11
2.658958220107893
 21
4.281506491701621
 72
     1
 10
2.658958220107893
 20
4.281506491701621
 11
2.65893242263092
 21
4.282095252741703
 72
     1
 10
2.65893242263092
 20
4.282095252741703
 11
2.658887774115261
 21
4.282679519351981
 72
     1
 10
2.658887774115261
 20
4.282679519351981
 11
2.658824318186303
 21
4.28325872065443
 72
     1
 10
2.658824318186303
 20
4.28325872065443
 11
2.658742116845871
 21
4.283832290720263
 72
     1
 10
2.658742116845871
 20
4.283832290720264
 11
2.658641250411643
 21
4.284399669122887
 72
     1
 10
2.658641250411643
 20
4.284399669122886
 11
2.658521817438681
 21
4.284960301485487
 72
     1
 10
2.658521817438681
 20
4.284960301485487
 11
2.658383934623126
 21
4.285513640022707
 72
     1
 10
2.658383934623126
 20
4.285513640022708
 11
2.65822773668818
 21
4.286059144075875
 72
     1
 10
2.65822773668818
 20
4.286059144075875
 11
2.658053376252473
 21
4.286596280641268
 72
     1
 10
2.658053376252473
 20
4.286596280641268
 11
2.657861023680935
 21
4.287124524890914
 72
     1
 10
2.657861023680935
 20
4.287124524890914
 11
2.657650866918341
 21
4.287643360685389
 72
     1
 10
2.657650866918341
 20
4.28764336068539
 11
2.657423111305668
 21
4.288152281078125
 72
     1
 10
2.657423111305668
 20
4.288152281078125
 11
2.657177979379463
 21
4.288650788810739
 72
     1
 10
2.657177979379463
 20
4.288650788810739
 11
2.656915710654405
 21
4.289138396798906
 72
     1
 10
2.656915710654405
 20
4.289138396798906
 11
2.656636561389279
 21
4.289614628608271
 72
     1
 10
2.65663656138928
 20
4.289614628608271
 11
2.656340804336589
 21
4.290079018919974
 72
     1
 10
2.656340804336589
 20
4.290079018919974
 11
2.656028728476054
 21
4.290531113985303
 72
     1
 10
2.656028728476054
 20
4.290531113985302
 11
2.655700638732254
 21
4.290970472069033
 72
     1
 10
2.655700638732254
 20
4.290970472069033
 11
2.655356855676692
 21
4.291396663881069
 72
     1
 10
2.655356855676692
 20
4.291396663881069
 11
2.654997715214563
 21
4.291809272995865
 72
     1
 10
2.654997715214563
 20
4.291809272995865
 11
2.654623568256555
 21
4.292207896259328
 72
     1
 10
2.654623568256555
 20
4.292207896259328
 11
2.654234780375972
 21
4.292592144182726
 72
     1
 10
2.654234780375972
 20
4.292592144182727
 11
2.653831731451544
 21
4.292961641323255
 72
     1
 10
2.653831731451545
 20
4.292961641323254
 11
2.653414815296248
 21
4.293316026650874
 72
     1
 10
2.653414815296248
 20
4.293316026650875
 11
2.652984439272521
 21
4.29365495390107
 72
     1
 10
2.652984439272521
 20
4.29365495390107
 11
2.652541023894234
 21
4.293978091913175
 72
     1
 10
2.652541023894234
 20
4.293978091913176
 11
2.652085002415813
 21
4.294285124953952
 72
     1
 10
2.652085002415813
 20
4.294285124953951
 11
2.651616820408912
 21
4.29457575302608
 72
     1
 10
2.651616820408912
 20
4.29457575302608
 11
2.651136935327053
 21
4.294849692161293
 72
     1
 10
2.651136935327053
 20
4.294849692161293
 11
2.650645816058656
 21
4.295106674697821
 72
     1
 10
2.650645816058656
 20
4.295106674697822
 11
2.650143942468892
 21
4.29534644954194
 72
     1
 10
2.650143942468893
 20
4.295346449541939
 11
2.649631804930817
 21
4.295568782413289
 72
     1
 10
2.649631804930817
 20
4.295568782413289
 11
2.649109903846234
 21
4.295773456073801
 72
     1
 10
2.649109903846234
 20
4.295773456073801
 11
2.648578749156759
 21
4.295960270539954
 72
     1
 10
2.648578749156759
 20
4.295960270539954
 11
2.648038859845565
 21
4.296129043278172
 72
     1
 10
2.648038859845565
 20
4.296129043278172
 11
2.647490763430292
 21
4.296279609383179
 72
     1
 10
2.647490763430292
 20
4.296279609383179
 11
2.646934995447616
 21
4.296411821739123
 72
     1
 10
2.646934995447616
 20
4.296411821739122
 11
2.646372098929983
 21
4.296525551163318
 72
     1
 10
2.646372098929983
 20
4.296525551163318
 11
2.645802623875026
 21
4.296620686532476
 72
     1
 10
2.645802623875026
 20
4.296620686532477
 11
2.645227126708163
 21
4.296697134891272
 72
     1
 10
2.645227126708163
 20
4.296697134891272
 11
2.644646169738928
 21
4.296754821543177
 72
     1
 10
2.644646169738928
 20
4.296754821543177
 11
2.644060320611545
 21
4.296793690123439
 72
     1
 10
2.644060320611545
 20
4.296793690123439
 11
2.643470151750292
 21
4.296813702654162
 72
     1
 10
2.643470151750291
 20
4.296813702654161
 11
2.642876239800189
 21
4.296814839581402
 72
     1
 10
2.642876239800189
 20
4.296814839581402
 11
2.642279165063577
 21
4.296797099794288
 72
     1
 10
2.642279165063577
 20
4.296797099794288
 11
2.641679510933104
 21
4.296760500626098
 72
     1
 10
2.641679510933104
 20
4.296760500626099
 11
2.641077863321707
 21
4.29670507783732
 72
     1
 10
2.641077863321707
 20
4.29670507783732
 11
2.64047481009012
 21
4.296630885580717
 72
     1
 10
2.64047481009012
 20
4.296630885580717
 11
2.639870940472488
 21
4.29653799634842
 72
     1
 10
2.639870940472488
 20
4.29653799634842
 11
2.639266844500638
 21
4.296426500901082
 72
     1
 10
2.639266844500638
 20
4.296426500901082
 11
2.638663112427558
 21
4.296296508179211
 72
     1
 10
2.638663112427558
 20
4.29629650817921
 11
2.638060334150681
 21
4.296148145196717
 72
     1
 10
2.638060334150681
 20
4.296148145196717
 11
2.637459098635499
 21
4.295981556916819
 72
     1
 10
2.637459098635499
 20
4.295981556916819
 11
2.636859993340092
 21
4.295796906110392
 72
     1
 10
2.636859993340092
 20
4.295796906110392
 11
2.63626360364114
 21
4.295594373196931
 72
     1
 10
2.636263603641141
 20
4.295594373196931
 11
2.635670512261952
 21
4.295374156068267
 72
     1
 10
2.635670512261952
 20
4.295374156068267
 11
2.635081298703097
 21
4.295136469895209
 72
     1
 10
2.635081298703097
 20
4.295136469895209
 11
2.634496538676188
 21
4.294881546917306
 72
     1
 10
2.634496538676188
 20
4.294881546917306
 11
2.633916803541359
 21
4.294609636215921
 72
     1
 10
2.633916803541358
 20
4.29460963621592
 11
2.633342659748997
 21
4.294321003470868
 72
     1
 10
2.633342659748997
 20
4.294321003470868
 11
2.632774668286273
 21
4.294015930700816
 72
     1
 10
2.632774668286273
 20
4.294015930700816
 11
2.632213384129013
 21
4.293694715987731
 72
     1
 10
2.632213384129013
 20
4.293694715987731
 11
2.631659355699434
 21
4.293357673185627
 72
     1
 10
2.631659355699434
 20
4.293357673185627
 11
2.631113124330293
 21
4.2930051316139
 72
     1
 10
2.631113124330294
 20
4.2930051316139
 11
2.630575223735959
 21
4.292637435735564
 72
     1
 10
2.630575223735959
 20
4.292637435735563
 11
2.630046179490924
 21
4.292254944820668
 72
     1
 10
2.630046179490924
 20
4.292254944820669
 11
2.629526508516278
 21
4.291858032595275
 72
     1
 10
2.629526508516278
 20
4.291858032595275
 11
2.629016718574632
 21
4.291447086876286
 72
     1
 10
2.629016718574632
 20
4.291447086876286
 11
2.628517307773988
 21
4.291022509192515
 72
     1
 10
2.628517307773988
 20
4.291022509192515
 11
2.628028764081048
 21
4.290584714392364
 72
     1
 10
2.628028764081048
 20
4.290584714392364
 11
2.627551564844428
 21
4.290134130238477
 72
     1
 10
2.627551564844428
 20
4.290134130238477
 11
2.627086176328248
 21
4.28967119698978
 72
     1
 10
2.627086176328248
 20
4.28967119698978
 11
2.626633053256554
 21
4.289196366971317
 72
     1
 10
2.626633053256554
 20
4.289196366971317
 11
2.62619263836901
 21
4.288710104132277
 72
     1
 10
2.62619263836901
 20
4.288710104132277
 11
2.625765361988309
 21
4.288212883592691
 72
     1
 10
2.625765361988309
 20
4.28821288359269
 11
2.625351641599706
 21
4.287705191179187
 72
     1
 10
2.625351641599706
 20
4.287705191179188
 11
2.624951881443105
 21
4.287187522950309
 72
     1
 10
2.624951881443105
 20
4.287187522950309
 11
2.624566472118079
 21
4.286660384711813
 72
     1
 10
2.624566472118079
 20
4.286660384711813
 11
2.624195790202219
 21
4.286124291522458
 72
     1
 10
2.624195790202219
 20
4.286124291522458
 11
2.623840197883192
 21
4.285579767190751
 72
     1
 10
2.623840197883192
 20
4.285579767190751
 11
2.623500042604846
 21
4.285027343763137
 72
     1
 10
2.623500042604846
 20
4.285027343763137
 11
2.623175656727735
 21
4.284467561004152
 72
     1
 10
2.623175656727735
 20
4.284467561004153
 11
2.622867357204366
 21
4.283900965869021
 72
     1
 10
2.622867357204366
 20
4.283900965869021
 11
2.622575445269519
 21
4.283328111969237
 72
     1
 10
2.622575445269519
 20
4.283328111969237
 11
2.622300206145907
 21
4.282749559031638
 72
     1
 10
2.622300206145907
 20
4.282749559031638
 11
2.622041908765493
 21
4.282165872351501
 72
     1
 10
2.622041908765493
 20
4.282165872351501
 11
2.621800805506723
 21
4.281577622240214
 72
     1
 10
2.621800805506723
 20
4.281577622240214
 11
2.621577131947925
 21
4.280985383468016
 72
     1
 10
2.621577131947925
 20
4.280985383468016
 11
2.621371106637134
 21
4.28038973470241
 72
     1
 10
2.621371106637134
 20
4.28038973470241
 11
2.621182930878548
 21
4.27979125794275
 72
     1
 10
2.621182930878548
 20
4.27979125794275
 11
2.621012788535842
 21
4.279190537951579
 72
     1
 10
2.621012788535842
 20
4.279190537951579
 11
2.620860845852511
 21
4.278588161683272
 72
     1
 10
2.620860845852512
 20
4.278588161683272
 11
2.620727251289444
 21
4.27798471771052
 72
     1
 10
2.620727251289444
 20
4.27798471771052
 11
2.620612135379853
 21
4.27738079564926
 72
     1
 10
2.620612135379853
 20
4.27738079564926
 11
2.620515610601748
 21
4.276776985582554
 72
     1
 10
2.620515610601748
 20
4.276776985582553
 11
2.620508650237226
 21
4.27672839012095
 72
     1
 10
2.620508650237226
 20
4.27672839012095
 11
2.620437771268021
 21
4.276173877484043
 72
     1
 10
2.620437771268021
 20
4.276173877484044
 11
2.620378693434301
 21
4.27557206064148
 72
     1
 10
2.620378693434301
 20
4.27557206064148
 11
2.620338434824642
 21
4.274972123080955
 72
     1
 10
2.620338434824642
 20
4.274972123080955
 11
2.620317034775119
 21
4.274374650992338
 72
     1
 10
2.620317034775119
 20
4.274374650992338
 11
2.620314514195396
 21
4.273780228156525
 72
     1
 10
2.620314514195396
 20
4.273780228156525
 11
2.620330875548292
 21
4.273189435375033
 72
     1
 10
2.620330875548292
 20
4.273189435375034
 11
2.620366102847378
 21
4.272602849902511
 72
     1
 10
2.620366102847378
 20
4.272602849902511
 11
2.620420161672597
 21
4.272021044882703
 72
     1
 10
2.620420161672597
 20
4.272021044882702
 11
2.620492999203891
 21
4.27144458878845
 72
     1
 10
2.620492999203891
 20
4.271444588788451
 11
2.620584544272816
 21
4.270874044866241
 72
     1
 10
2.620584544272816
 20
4.270874044866241
 11
2.620694707432076
 21
4.270309970585871
 72
     1
 10
2.620694707432075
 20
4.270309970585871
 11
2.620823381042923
 21
4.269752917095742
 72
     1
 10
2.620823381042923
 20
4.269752917095742
 11
2.620970439380329
 21
4.269203428684353
 72
     1
 10
2.620970439380329
 20
4.269203428684354
 11
2.621135738755827
 21
4.268662042248479
 72
     1
 10
2.621135738755827
 20
4.268662042248479
 11
2.621319117657908
 21
4.268129286768573
 72
     1
 10
2.621319117657908
 20
4.268129286768573
 11
2.621520396909838
 21
4.267605682791922
 97
        0
 75
     0
 76
     2
 52
0.0
 41
0.005
 77
     0
 78
     2
 53
45.0
 43
0.0
 44
0.0
 45
-0.0053033008588991
 46
0.0053033008588991
 79
     0
 53
135.0
 43
0.0
 44
0.0
 45
-0.0053033008588991
 46
-0.0053033008588991
 79
     0
 98
        0
1001
ACAD
1010
0.0
1020
0.0
1030
0.0
1001
NEM_ODX
1002
{
1000
BZM_DEPEND
1070
     1
1000
BZM_SCALE
1040
5.0
1000
SCHRAFFUR_304
1002
}
  0
HATCH
  5
98
330
1F
100
AcDbEntity
  8
XR$1$TB_1407_1
  6
AUSGEZOGEN
 62
     7
440
 33554687
370
    -3
100
AcDbHatch
 10
0.0
 20
0.0
 30
0.0
210
0.0
220
0.0
230
1.0
  2
SCHRAFFUR_12
 70
     0
 71
     0
 91
        1
 92
        0
 93
       39
 72
     1
 10
2.651850551070102
 20
4.250186467814747
 11
2.666874203098237
 21
4.266056941123754
 72
     1
 10
2.666874203098237
 20
4.266056941123754
 11
2.665177162821837
 21
4.266350602025983
 72
     1
 10
2.665177162821837
 20
4.266350602025983
 11
2.663255342441777
 21
4.267394065355018
 72
     1
 10
2.663255342441777
 20
4.267394065355018
 11
2.662177162821837
 21
4.26853022961
 72
     1
 10
2.662177162821837
 20
4.26853022961
 11
2.661235709830347
 21
4.270504026853141
 72
     1
 10
2.661235709830347
 20
4.270504026853141
 11
2.661039487579557
 21
4.271742925386268
 72
     1
 10
2.661039487579557
 20
4.271742925386269
 11
2.661031264788087
 21
4.272056941123754
 72
     1
 10
2.661031264788087
 20
4.272056941123754
 11
2.661031264788087
 21
4.278056941123754
 72
     1
 10
2.661031264788087
 20
4.278056941123754
 11
2.658717012527104
 21
4.277911993808525
 72
     1
 10
2.658717012527104
 20
4.277911993808524
 11
2.658182960579972
 21
4.275499691831323
 72
     1
 10
2.658182960579972
 20
4.275499691831323
 11
2.656259078332253
 21
4.270805753009852
 72
     1
 10
2.656259078332253
 20
4.270805753009852
 11
2.652386966960388
 21
4.265520519669468
 72
     1
 10
2.652386966960388
 20
4.265520519669468
 11
2.646785401946843
 21
4.261133511705022
 72
     1
 10
2.646785401946843
 20
4.261133511705022
 11
2.642119312236218
 21
4.259099355077577
 72
     1
 10
2.642119312236218
 20
4.259099355077576
 11
2.639105614840489
 21
4.258404060701232
 72
     1
 10
2.639105614840489
 20
4.258404060701232
 11
2.639105614840489
 21
4.256186467814747
 72
     1
 10
2.639105614840489
 20
4.256186467814747
 11
2.645850551070092
 21
4.256186467814747
 72
     1
 10
2.645850551070092
 20
4.256186467814747
 11
2.648317048118562
 21
4.255656055761743
 72
     1
 10
2.648317048118562
 20
4.255656055761743
 11
2.649543995367937
 21
4.254914942116125
 72
     1
 10
2.649543995367937
 20
4.254914942116126
 11
2.650909605435322
 21
4.25341229622459
 72
     1
 10
2.650909605435322
 20
4.25341229622459
 11
2.650916518623113
 21
4.253401428584621
 72
     1
 10
2.650916518623113
 20
4.25340142858462
 11
2.651015003232125
 21
4.25324071630925
 72
     1
 10
2.651015003232125
 20
4.25324071630925
 11
2.651108391150365
 21
4.253076989859357
 72
     1
 10
2.651108391150365
 20
4.253076989859357
 11
2.651196590215232
 21
4.252910410813185
 72
     1
 10
2.651196590215232
 20
4.252910410813185
 11
2.651279513384897
 21
4.252741143564137
 72
     1
 10
2.651279513384898
 20
4.252741143564137
 11
2.651357078824206
 21
4.252569355158555
 72
     1
 10
2.651357078824205
 20
4.252569355158555
 11
2.651429209985431
 21
4.252395215130854
 72
     1
 10
2.651429209985431
 20
4.252395215130855
 11
2.651495835683827
 21
4.252218895336219
 72
     1
 10
2.651495835683827
 20
4.252218895336219
 11
2.651556890167873
 21
4.252040569780997
 72
     1
 10
2.651556890167873
 20
4.252040569780997
 11
2.651612313184163
 21
4.251860414450983
 72
     1
 10
2.651612313184163
 20
4.251860414450983
 11
2.651662050036873
 21
4.251678607137736
 72
     1
 10
2.651662050036874
 20
4.251678607137736
 11
2.651706051641734
 21
4.251495327263127
 72
     1
 10
2.651706051641734
 20
4.251495327263126
 11
2.651744274574474
 21
4.251310755702261
 72
     1
 10
2.651744274574474
 20
4.251310755702262
 11
2.651776681113672
 21
4.251125074604989
 72
     1
 10
2.651776681113672
 20
4.251125074604988
 11
2.651803239277988
 21
4.250938467216132
 72
     1
 10
2.651803239277988
 20
4.250938467216132
 11
2.65182392285772
 21
4.250751117694659
 72
     1
 10
2.65182392285772
 20
4.25075111769466
 11
2.651838711440671
 21
4.250563210931923
 72
     1
 10
2.651838711440671
 20
4.250563210931923
 11
2.651847590432296
 21
4.250374932369215
 72
     1
 10
2.651847590432296
 20
4.250374932369215
 11
2.651850551070102
 21
4.250186467814747
 97
        0
 75
     0
 76
     2
 52
0.0
 41
0.001
 77
     0
 78
     2
 53
45.0
 43
0.0
 44
0.0
 45
-0.0017677669529664
 46
0.0017677669529664
 79
     0
 53
135.0
 43
0.0
 44
0.0
 45
-0.0017677669529664
 46
-0.0017677669529664
 79
     0
 98
        0
1001
ACAD
1010
0.0
1020
0.0
1030
0.0
1001
NEM_ODX
1002
{
1000
BZM_DEPEND
1070
     0
1000
SCHRAFFUR_12
1002
}
  0
HATCH
  5
99
330
1F
100
AcDbEntity
  8
XR$1$TB_1407_1
  6
AUSGEZOGEN
 62
     9
440
 33554687
370
    -3
100
AcDbHatch
 10
0.0
 20
0.0
 30
0.0
210
0.0
220
0.0
230
1.0
  2
SOLID
 70
     1
 71
     0
 91
        1
 92
        3
 72
     0
 73
     1
 93
       13
 10
2.651850551070102
 20
3.973535815752257
 10
2.651850551070102
 20
4.250186467814747
 10
2.651842328278632
 20
4.250500483552203
 10
2.651817682442312
 20
4.250813638594352
 10
2.651776681113672
 20
4.251125074604988
 10
2.651719436674502
 20
4.251433937959654
 10
2.651646106027832
 20
4.251739382085361
 10
2.651582797725322
 20
4.251958852728841
 10
2.650347458579291
 20
4.254158598584718
 10
2.648317048118562
 20
4.255656055761743
 10
2.645850551070092
 20
4.256186467814747
 10
2.633850551070102
 20
4.256186467814747
 10
2.633850551070102
 20
3.973535815752257
 97
        0
 75
     0
 76
     1
 98
        0
  0
HATCH
  5
9A
330
1F
100
AcDbEntity
  8
XR$1$TB_1407_1
  6
AUSGEZOGEN
 62
     9
440
 33554687
370
    -3
100
AcDbHatch
 10
0.0
 20
0.0
 30
0.0
210
0.0
220
0.0
230
1.0
  2
SOLID
 70
     1
 71
     0
 91
        1
 92
        3
 72
     0
 73
     1
 93
       31
 10
2.666874203098237
 20
4.266056941123754
 10
2.987330647499161
 20
4.266056941123754
 10
2.987330647499161
 20
4.284056941123754
 10
2.661031264788087
 20
4.284056941123754
 10
2.661031264788087
 20
4.272056941123754
 10
2.661039487579557
 20
4.271742925386269
 10
2.661064133415877
 20
4.27142977034415
 10
2.661105134744517
 20
4.271118334333514
 10
2.661162379183687
 20
4.270809470978848
 10
2.661235709830347
 20
4.270504026853141
 10
2.661324925690317
 20
4.270202839157504
 10
2.661429782229107
 20
4.269906733426484
 10
2.661549992042227
 20
4.269616521265305
 10
2.661685225642957
 20
4.269332998125317
 10
2.661835112365377
 20
4.269056941123754
 10
2.661999241380417
 20
4.268789106913658
 10
2.662177162821837
 20
4.26853022961
 10
2.662368389019347
 20
4.268281018777454
 10
2.662572395835217
 20
4.268042157485604
 10
2.662788624100967
 20
4.267814300436638
 10
2.663016481149927
 20
4.267598072170893
 10
2.663255342441777
 20
4.267394065355018
 10
2.663504553274327
 20
4.267202839157506
 10
2.663763430577997
 20
4.26702491771608
 10
2.664031264788097
 20
4.266860788701043
 10
2.664307321789637
 20
4.266710901978628
 10
2.664590844929627
 20
4.266575668377898
 10
2.664881057090797
 20
4.266455458564777
 10
2.665177162821837
 20
4.266350602025983
 10
2.665478350517467
 20
4.266261386166021
 10
2.665783794643187
 20
4.26618805551935
 97
        0
 75
     0
 76
     1
 98
        0
  0
LINE
  5
9B
330
1F
100
AcDbEntity
  8
XR$1$TB_1407_1
  6
STRICHPUNKT2_S5
 62
    14
440
 33554687
370
    -3
100
AcDbLine
 10
2.987331
 20
4.614057
 30
0.0
 11
2.987331
 21
4.206057
 31
0.0
  0
LINE
  5
9C
330
1F
100
AcDbEntity
  8
XR$1$TB_1407_1
  6
AUSGEZOGEN
 62
   174
440
 33554687
370
    35
100
AcDbLine
 10
2.573851
 20
3.973536
 30
0.0
 11
2.573851
 21
4.344057
 31
0.0
  0
LINE
  5
9D
330
1F
100
AcDbEntity
  8
XR$1$TB_1407_1
  6
AUSGEZOGEN
 62
    14
440
 33554687
370
    -3
100
AcDbLine
 10
2.621745
 20
4.300406
 30
0.0
 11
2.620684
 21
4.292981
 31
0.0
  0
ARC
  5
9E
330
1F
100
AcDbEntity
  8
XR$1$TB_1407_1
  6
AUSGEZOGEN
 62
    14
440
 33554687
370
    -3
100
AcDbCircle
 10
2.613259
 20
4.294042
 30
0.0
 40
0.0074999978542328
100
AcDbArc
 50
98.13019
 51
351.869873
  0
LINE
  5
9F
330
1F
100
AcDbEntity
  8
XR$1$TB_1407_1
  6
AUSGEZOGEN
 62
    14
440
 33554687
370
    -3
100
AcDbLine
 10
2.611138
 20
4.311012
 30
0.0
 11
2.610077
 21
4.303588
 31
0.0
  0
ARC
  5
A0
330
1F
100
AcDbEntity
  8
XR$1$TB_1407_1
  6
AUSGEZOGEN
 62
    14
440
 33554687
370
    -3
100
AcDbCircle
 10
2.618563
 20
4.309952
 30
0.0
 40
0.0074999978542328
100
AcDbArc
 50
278.13019
 51
171.869828
  0
LINE
  5
A1
330
1F
100
AcDbEntity
  8
XR$1$TB_1407_1
  6
AUSGEZOGEN
 62
    14
440
 33554687
370
    -3
100
AcDbLine
 10
2.619623
 20
4.302527
 30
0.0
 11
2.612199
 21
4.301466
 31
0.0
  0
LINE
  5
A2
330
1F
100
AcDbEntity
  8
XR$1$TB_1407_1
  6
AUSGEZOGEN
 62
   174
440
 33554687
370
    35
100
AcDbLine
 10
2.573851
 20
4.344057
 30
0.0
 11
2.987331
 21
4.344057
 31
0.0
  0
ARC
  5
A3
330
1F
100
AcDbEntity
  8
XR$1$TB_1407_1
  6
AUSGEZOGEN
 62
    14
440
 33554687
370
    -3
100
AcDbCircle
 10
2.602653
 20
4.304648
 30
0.0
 40
0.0074999978542328
100
AcDbArc
 50
98.13019
 51
351.869873
  0
LINE
  5
A4
330
1F
100
AcDbEntity
  8
XR$1$TB_1407_1
  6
AUSGEZOGEN
 62
    14
440
 33554687
370
    -3
100
AcDbLine
 10
2.600531
 20
4.321619
 30
0.0
 11
2.599471
 21
4.314194
 31
0.0
  0
ARC
  5
A5
330
1F
100
AcDbEntity
  8
XR$1$TB_1407_1
  6
AUSGEZOGEN
 62
    14
440
 33554687
370
    -3
100
AcDbCircle
 10
2.607956
 20
4.320558
 30
0.0
 40
0.0074999978542328
100
AcDbArc
 50
278.13019
 51
171.869828
  0
LINE
  5
A6
330
1F
100
AcDbEntity
  8
XR$1$TB_1407_1
  6
AUSGEZOGEN
 62
    14
440
 33554687
370
    -3
100
AcDbLine
 10
2.609017
 20
4.313134
 30
0.0
 11
2.601592
 21
4.312073
 31
0.0
  0
ARC
  5
A7
330
1F
100
AcDbEntity
  8
XR$1$TB_1407_1
  6
AUSGEZOGEN
 62
    14
440
 33554687
370
    -3
100
AcDbCircle
 10
2.592046
 20
4.315255
 30
0.0
 40
0.0074999978542328
100
AcDbArc
 50
98.13019
 51
351.869873
  0
LINE
  5
A8
330
1F
100
AcDbEntity
  8
XR$1$TB_1407_1
  6
AUSGEZOGEN
 62
    14
440
 33554687
370
    -3
100
AcDbLine
 10
2.589925
 20
4.332225
 30
0.0
 11
2.588864
 21
4.324801
 31
0.0
  0
ARC
  5
A9
330
1F
100
AcDbEntity
  8
XR$1$TB_1407_1
  6
AUSGEZOGEN
 62
    14
440
 33554687
370
    -3
100
AcDbCircle
 10
2.597349
 20
4.331165
 30
0.0
 40
0.0074999978542328
100
AcDbArc
 50
278.13019
 51
171.869828
  0
LINE
  5
AA
330
1F
100
AcDbEntity
  8
XR$1$TB_1407_1
  6
AUSGEZOGEN
 62
    14
440
 33554687
370
    -3
100
AcDbLine
 10
2.59841
 20
4.32374
 30
0.0
 11
2.590985
 21
4.322679
 31
0.0
  0
ARC
  5
AB
330
1F
100
AcDbEntity
  8
XR$1$TB_1407_1
  6
AUSGEZOGEN
 62
    14
440
 33554687
370
    -3
100
AcDbCircle
 10
2.581439
 20
4.325861
 30
0.0
 40
0.0074999978542328
100
AcDbArc
 50
98.13019
 51
351.869873
  0
LINE
  5
AC
330
1F
100
AcDbEntity
  8
XR$1$TB_1407_1
  6
AUSGEZOGEN
 62
    14
440
 33554687
370
    -3
100
AcDbLine
 10
2.579318
 20
4.342832
 30
0.0
 11
2.578257
 21
4.335407
 31
0.0
  0
LINE
  5
AD
330
1F
100
AcDbEntity
  8
XR$1$TB_1407_1
  6
AUSGEZOGEN
 62
    14
440
 33554687
370
    -3
100
AcDbLine
 10
2.587803
 20
4.334347
 30
0.0
 11
2.580379
 21
4.333286
 31
0.0
  0
ARC
  5
AE
330
1F
100
AcDbEntity
  8
XR$1$TB_1407_1
  6
AUSGEZOGEN
 62
    14
440
 33554687
370
    -3
100
AcDbCircle
 10
2.570833
 20
4.336468
 30
0.0
 40
0.0074999978542328
100
AcDbArc
 50
293.725646
 51
351.869873
  0
ARC
  5
AF
330
1F
100
AcDbEntity
  8
XR$1$TB_1407_1
  6
AUSGEZOGEN
 62
    14
440
 33554687
370
    -3
100
AcDbCircle
 10
2.586743
 20
4.341771
 30
0.0
 40
0.0074999978542328
100
AcDbArc
 50
278.13019
 51
17.742786
  0
ARC
  5
B0
330
1F
100
AcDbEntity
  8
XR$1$TB_1407_1
  6
AUSGEZOGEN
 62
    14
440
 33554687
370
    -3
100
AcDbCircle
 10
2.586743
 20
4.341771
 30
0.0
 40
0.0074999978542328
100
AcDbArc
 50
134.976637
 51
135.023363
  0
ARC
  5
B1
330
1F
100
AcDbEntity
  8
XR$1$TB_1407_1
  6
AUSGEZOGEN
 62
    14
440
 33554687
370
    -3
100
AcDbCircle
 10
2.586743
 20
4.341771
 30
0.0
 40
0.0074999978542328
100
AcDbArc
 50
162.257214
 51
171.869828
  0
LINE
  5
B2
330
1F
100
AcDbEntity
  8
XR$1$TB_1407_1
  6
AUSGEZOGEN
 62
    54
440
 33554687
370
    -3
100
AcDbLine
 10
2.597637
 20
4.299057
 30
0.0
 11
2.597654
 21
4.299057
 31
0.0
  0
LINE
  5
B3
330
1F
100
AcDbEntity
  8
XR$1$TB_1407_1
  6
AUSGEZOGEN
 62
    54
440
 33554687
370
    -3
100
AcDbLine
 10
2.607651
 20
4.299057
 30
0.0
 11
2.607683
 21
4.299057
 31
0.0
  0
LINE
  5
B4
330
1F
100
AcDbEntity
  8
XR$1$TB_1407_1
  6
AUSGEZOGEN
 62
     7
440
 33554687
370
    -3
100
AcDbLine
 10
2.618851
 20
4.289043
 30
0.0
 11
2.618851
 21
4.289012
 31
0.0
  0
LINE
  5
B5
330
1F
100
AcDbEntity
  8
XR$1$TB_1407_1
  6
AUSGEZOGEN
 62
    54
440
 33554687
370
    -3
100
AcDbLine
 10
2.640064
 20
4.299057
 30
0.0
 11
2.987331
 21
4.299057
 31
0.0
  0
LINE
  5
B6
330
1F
100
AcDbEntity
  8
XR$1$TB_1407_1
  6
STRICHPUNKT2_S5
 62
    14
440
 33554687
370
    -3
100
AcDbLine
 10
2.291961
 20
3.973536
 30
0.0
 11
2.68169
 21
3.973536
 31
0.0
  0
LINE
  5
B7
330
1F
100
AcDbEntity
  8
XR$1$TB_1407_1
  6
AUSGEZOGEN
 62
     7
440
 33554687
370
    -3
100
AcDbLine
 10
2.618851
 20
3.973536
 30
0.0
 11
2.618851
 21
4.277844
 31
0.0
  0
LINE
  5
B8
330
1F
100
AcDbEntity
  8
XR$1$TB_1407_1
  6
AUSGEZOGEN
 62
     7
440
 33554687
370
    -3
100
AcDbLine
 10
2.677808
 20
4.321991
 30
0.0
 11
2.600531
 21
4.321991
 31
0.0
  0
LINE
  5
B9
330
1F
100
AcDbEntity
  8
XR$1$TB_1407_1
  6
AUSGEZOGEN
 62
     7
440
 33554687
370
    -3
100
AcDbLine
 10
2.738204
 20
4.261595
 30
0.0
 11
2.677808
 21
4.321991
 31
0.0
  0
LINE
  5
BA
330
1F
100
AcDbEntity
  8
XR$1$TB_1407_1
  6
VERDECKT2_S2
 62
     7
440
 33554687
370
    40
100
AcDbLine
 10
2.640064
 20
4.299257
 30
0.0
 11
2.987331
 21
4.299257
 31
0.0
  0
LINE
  5
BB
330
1F
100
AcDbEntity
  8
XR$1$TB_1407_1
  6
AUSGEZOGEN
 62
     7
440
 33554687
370
    -3
100
AcDbLine
 10
2.731106
 20
4.018953
 30
0.0
 11
2.601541
 21
4.018953
 31
0.0
  0
LINE
  5
BC
330
1F
100
AcDbEntity
  8
XR$1$TB_1407_1
  6
AUSGEZOGEN
 62
     7
440
 33554687
370
    -3
100
AcDbLine
 10
2.731932
 20
3.980742
 30
0.0
 11
2.511545
 21
3.980742
 31
0.0
  0
LINE
  5
BD
330
1F
100
AcDbEntity
  8
XR$1$TB_1407_1
  6
AUSGEZOGEN
 62
     7
440
 33554687
370
    -3
100
AcDbLine
 10
2.731932
 20
4.131968
 30
0.0
 11
2.643833
 21
4.131968
 31
0.0
  0
LINE
  5
BE
330
1F
100
AcDbEntity
  8
XR$1$TB_1407_1
  6
AUSGEZOGEN
 62
     7
440
 33554687
370
    -3
100
AcDbLine
 10
2.626547
 20
4.095263
 30
0.0
 11
2.731932
 21
4.095263
 31
0.0
  0
LINE
  5
BF
330
1F
100
AcDbEntity
  8
XR$1$TB_1407_1
  6
VERDECKT2_S2
 62
     7
440
 33554687
370
    40
100
AcDbLine
 10
2.618651
 20
3.973536
 30
0.0
 11
2.618651
 21
4.277844
 31
0.0
  0
LINE
  5
C0
330
1F
100
AcDbEntity
  8
XR$1$TB_1407_1
  6
AUSGEZOGEN
 62
     7
440
 33554687
370
    -3
100
AcDbLine
 10
2.618651
 20
4.057297
 30
0.0
 11
2.731932
 21
4.057297
 31
0.0
  0
ARC
  5
C1
330
1F
100
AcDbEntity
  8
XR$1$TB_1407_1
  6
AUSGEZOGEN
 62
    94
440
 33554687
370
    25
100
AcDbCircle
 10
2.645851
 20
4.250186
 30
0.0
 40
0.006
100
AcDbArc
 50
0.0
 51
90.0
  0
LINE
  5
C2
330
1F
100
AcDbEntity
  8
XR$1$TB_1407_1
  6
AUSGEZOGEN
 62
    94
440
 33554687
370
    25
100
AcDbLine
 10
2.633851
 20
4.256186
 30
0.0
 11
2.645851
 21
4.256186
 31
0.0
  0
LINE
  5
C3
330
1F
100
AcDbEntity
  8
XR$1$TB_1407_1
  6
AUSGEZOGEN
 62
    94
440
 33554687
370
    25
100
AcDbLine
 10
2.633851
 20
3.973536
 30
0.0
 11
2.633851
 21
4.256186
 31
0.0
  0
LINE
  5
C4
330
1F
100
AcDbEntity
  8
XR$1$TB_1407_1
  6
AUSGEZOGEN
 62
    94
440
 33554687
370
    25
100
AcDbLine
 10
2.651851
 20
3.973536
 30
0.0
 11
2.651851
 21
4.250186
 31
0.0
  0
LINE
  5
C5
330
1F
100
AcDbEntity
  8
XR$1$TB_1407_1
  6
AUSGEZOGEN
 62
    94
440
 33554687
370
    25
100
AcDbLine
 10
2.661031
 20
4.272057
 30
0.0
 11
2.661031
 21
4.284057
 31
0.0
  0
LINE
  5
C6
330
1F
100
AcDbEntity
  8
XR$1$TB_1407_1
  6
AUSGEZOGEN
 62
    94
440
 33554687
370
    25
100
AcDbLine
 10
2.661031
 20
4.284057
 30
0.0
 11
2.987331
 21
4.284057
 31
0.0
  0
LINE
  5
C7
330
1F
100
AcDbEntity
  8
XR$1$TB_1407_1
  6
AUSGEZOGEN
 62
    94
440
 33554687
370
    25
100
AcDbLine
 10
2.667031
 20
4.266057
 30
0.0
 11
2.987331
 21
4.266057
 31
0.0
  0
ARC
  5
C8
330
1F
100
AcDbEntity
  8
XR$1$TB_1407_1
  6
AUSGEZOGEN
 62
    94
440
 33554687
370
    25
100
AcDbCircle
 10
2.667031
 20
4.272057
 30
0.0
 40
0.006
100
AcDbArc
 50
180.0
 51
270.0
  0
ARC
  5
C9
330
1F
100
AcDbEntity
  8
XR$1$TB_1407_1
  6
AUSGEZOGEN
 62
    14
440
 33554687
370
    -3
100
AcDbCircle
 10
2.645079
 20
4.262222
 30
0.0
 40
0.0074999978542328
100
AcDbArc
 50
134.976637
 51
135.023363
  0
ARC
  5
CA
330
1F
100
AcDbEntity
  8
XR$1$TB_1407_1
  6
AUSGEZOGEN
 62
    14
440
 33554687
370
    -3
100
AcDbCircle
 10
2.650382
 20
4.278132
 30
0.0
 40
0.0074999978542328
100
AcDbArc
 50
134.976637
 51
135.023363
  0
LINE
  5
CB
330
1F
100
AcDbEntity
  8
XR$1$TB_1407_1
  6
AUSGEZOGEN
 62
    54
440
 33554687
370
    -3
100
AcDbLine
 10
2.618851
 20
4.277844
 30
0.0
 11
2.573851
 21
4.322844
 31
0.0
  0
LINE
  5
CC
330
1F
100
AcDbEntity
  8
XR$1$TB_1407_1
  6
AUSGEZOGEN
 62
    54
440
 33554687
370
    -3
100
AcDbLine
 10
2.650391
 20
4.288729
 30
0.0
 11
2.650371
 21
4.288749
 31
0.0
  0
LINE
  5
CD
330
1F
100
AcDbEntity
  8
XR$1$TB_1407_1
  6
AUSGEZOGEN
 62
    54
440
 33554687
370
    -3
100
AcDbLine
 10
2.640064
 20
4.299057
 30
0.0
 11
2.595064
 21
4.344057
 31
0.0
  0
LINE
  5
CE
330
1F
100
AcDbEntity
  8
XR$1$TB_1407_1
  6
AUSGEZOGEN
 62
     7
440
 33554687
370
    -3
100
AcDbLine
 10
2.650371
 20
4.288749
 30
0.0
 11
2.650401
 21
4.288736
 31
0.0
  0
LINE
  5
CF
330
1F
100
AcDbEntity
  8
XR$1$TB_1407_1
  6
AUSGEZOGEN
 62
     7
440
 33554687
370
    -3
100
AcDbLine
 10
2.618851
 20
4.277844
 30
0.0
 11
2.619279
 21
4.277226
 31
0.0
  0
LINE
  5
D0
330
1F
100
AcDbEntity
  8
XR$1$TB_1407_1
  6
AUSGEZOGEN
 62
     7
440
 33554687
370
    -3
100
AcDbLine
 10
2.640064
 20
4.299057
 30
0.0
 11
2.641206
 21
4.298239
 31
0.0
  0
ARC
  5
D1
330
1F
100
AcDbEntity
  8
XR$1$TB_1407_1
  6
AUSGEZOGEN
 62
    14
440
 33554687
370
    -3
100
AcDbCircle
 10
2.629169
 20
4.299345
 30
0.0
 40
0.0074999978542328
100
AcDbArc
 50
335.284624
 51
171.869828
  0
LINE
  5
D2
330
1F
100
AcDbEntity
  8
XR$1$TB_1407_1
  6
AUSGEZOGEN
 62
    14
440
 33554687
370
    -3
100
AcDbLine
 10
2.629374
 20
4.291798
 30
0.0
 11
2.622805
 21
4.29086
 31
0.0
  0
LINE
  5
D3
330
1F
100
AcDbEntity
  8
XR$1$TB_1407_1
  6
AUSGEZOGEN
 62
     7
440
 33554687
370
    -3
100
AcDbLine
 10
2.651851
 20
4.250186
 30
0.0
 11
2.666874
 21
4.266057
 31
0.0
  0
ARC
  5
D4
330
1F
100
AcDbEntity
  8
XR$1$TB_1407_1
  6
AUSGEZOGEN
 62
    14
440
 33554687
370
    -3
100
AcDbCircle
 10
2.623866
 20
4.283435
 30
0.0
 40
0.0074999978542328
100
AcDbArc
 50
98.13019
 51
243.40869
  0
ELLIPSE
  5
D5
330
1F
100
AcDbEntity
  8
XR$1$TB_1407_1
  6
AUSGEZOGEN
 62
     7
440
 33554687
370
    -3
100
AcDbEllipse
 10
2.639639
 20
4.277495
 30
0.0
 11
0.01485939139796389
 21
0.01483908647060582
 31
0.0
210
0.0
220
0.0
230
1.0
 40
0.832729
 41
0.0
 42
6.283185307179586
  0
LINE
  5
D6
330
1F
100
AcDbEntity
  8
XR$1$TB_1407_1
  6
AUSGEZOGEN
 62
     7
440
 33554687
370
    -3
100
AcDbLine
 10
2.639106
 20
4.256186
 30
0.0
 11
2.639106
 21
4.258404
 31
0.0
  0
LINE
  5
D7
330
1F
100
AcDbEntity
  8
XR$1$TB_1407_1
  6
AUSGEZOGEN
 62
     7
440
 33554687
370
    -3
100
AcDbLine
 10
2.661031
 20
4.278057
 30
0.0
 11
2.658717
 21
4.277912
 31
0.0
  0
CIRCLE
  5
D8
330
1F
100
AcDbEntity
  8
XR$1$TB_1407_1
  6
AUSGEZOGEN
 62
     7
440
 33554687
370
    -3
100
AcDbCircle
 10
2.749724
 20
4.247765
 30
0.0
 40
0.0177913987405051
  0
CIRCLE
  5
D9
330
1F
100
AcDbEntity
  8
XR$1$TB_1407_1
  6
AUSGEZOGEN
 62
     7
440
 33554687
370
    -3
100
AcDbCircle
 10
2.749724
 20
4.208833
 30
0.0
 40
0.0177913987405051
  0
CIRCLE
  5
DA
330
1F
100
AcDbEntity
  8
XR$1$TB_1407_1
  6
AUSGEZOGEN
 62
     7
440
 33554687
370
    -3
100
AcDbCircle
 10
2.748898
 20
4.169892
 30
0.0
 40
0.0177913987405051
  0
MTEXT
  5
DB
330
1F
100
AcDbEntity
  8
XR$1$TB_1407_1
  6
AUSGEZOGEN
 62
     7
440
 33554687
370
    -3
100
AcDbMText
 10
2.742078
 20
4.010172
 30
0.0
 40
0.0175
 41
0.022374
 46
0.0
 71
     7
 72
     5
  1
\W0.99;2
  7
ARIAL
 73
     1
 44
1.0
  0
CIRCLE
  5
DC
330
1F
100
AcDbEntity
  8
XR$1$TB_1407_1
  6
AUSGEZOGEN
 62
     7
440
 33554687
370
    -3
100
AcDbCircle
 10
2.748898
 20
4.018939
 30
0.0
 40
0.0177913987405051
  0
MTEXT
  5
DD
330
1F
100
AcDbEntity
  8
XR$1$TB_1407_1
  6
AUSGEZOGEN
 62
     7
440
 33554687
370
    -3
100
AcDbMText
 10
2.742904
 20
3.972018
 30
0.0
 40
0.0175
 41
0.021605
 46
0.0
 71
     7
 72
     5
  1
\W0.90;1
  7
ARIAL
 73
     1
 44
1.0
  0
CIRCLE
  5
DE
330
1F
100
AcDbEntity
  8
XR$1$TB_1407_1
  6
AUSGEZOGEN
 62
     7
440
 33554687
370
    -3
100
AcDbCircle
 10
2.749724
 20
3.980785
 30
0.0
 40
0.0177913987405051
  0
MTEXT
  5
DF
330
1F
100
AcDbEntity
  8
XR$1$TB_1407_1
  6
AUSGEZOGEN
 62
     7
440
 33554687
370
    -3
100
AcDbMText
 10
2.742904
 20
4.04735
 30
0.0
 40
0.0175
 41
0.022374
 46
0.0
 71
     7
 72
     5
  1
\W0.99;3
  7
ARIAL
 73
     1
 44
1.0
  0
CIRCLE
  5
E0
330
1F
100
AcDbEntity
  8
XR$1$TB_1407_1
  6
AUSGEZOGEN
 62
     7
440
 33554687
370
    -3
100
AcDbCircle
 10
2.749724
 20
4.056117
 30
0.0
 40
0.0177913987405051
  0
MTEXT
  5
E1
330
1F
100
AcDbEntity
  8
XR$1$TB_1407_1
  6
AUSGEZOGEN
 62
     7
440
 33554687
370
    -3
100
AcDbMText
 10
2.742904
 20
4.085316
 30
0.0
 40
0.0175
 41
0.022374
 46
0.0
 71
     7
 72
     5
  1
\W0.99;4
  7
ARIAL
 73
     1
 44
1.0
  0
CIRCLE
  5
E2
330
1F
100
AcDbEntity
  8
XR$1$TB_1407_1
  6
AUSGEZOGEN
 62
     7
440
 33554687
370
    -3
100
AcDbCircle
 10
2.749724
 20
4.094083
 30
0.0
 40
0.0177913987405051
  0
CIRCLE
  5
E3
330
1F
100
AcDbEntity
  8
XR$1$TB_1407_1
  6
AUSGEZOGEN
 62
     7
440
 33554687
370
    -3
100
AcDbCircle
 10
2.749724
 20
4.132011
 30
0.0
 40
0.0177913987405051
  0
MTEXT
  5
E4
330
1F
100
AcDbEntity
  8
XR$1$TB_1407_1
  6
AUSGEZOGEN
 62
     7
440
 33554687
370
    -3
100
AcDbMText
 10
2.742904
 20
4.123244
 30
0.0
 40
0.0175
 41
0.022374
 46
0.0
 71
     7
 72
     5
  1
\W0.99;5
  7
ARIAL
 73
     1
 44
1.0
  0
MTEXT
  5
E5
330
1F
100
AcDbEntity
  8
XR$1$TB_1407_1
  6
AUSGEZOGEN
 62
     7
440
 33554687
370
    -3
100
AcDbMText
 10
2.742078
 20
4.161125
 30
0.0
 40
0.0175
 41
0.022374
 46
0.0
 71
     7
 72
     5
  1
\W0.99;6
  7
ARIAL
 73
     1
 44
1.0
  0
MTEXT
  5
E6
330
1F
100
AcDbEntity
  8
XR$1$TB_1407_1
  6
AUSGEZOGEN
 62
     7
440
 33554687
370
    -3
100
AcDbMText
 10
2.742904
 20
4.200066
 30
0.0
 40
0.0175
 41
0.022374
 46
0.0
 71
     7
 72
     5
  1
\W0.99;7
  7
ARIAL
 73
     1
 44
1.0
  0
MTEXT
  5
E7
330
1F
100
AcDbEntity
  8
XR$1$TB_1407_1
  6
AUSGEZOGEN
 62
     7
440
 33554687
370
    -3
100
AcDbMText
 10
2.741261
 20
4.239049
 30
0.0
 40
0.0175
 41
0.022374
 46
0.0
 71
     7
 72
     5
  1
\W0.99;8
  7
ARIAL
 73
     1
 44
1.0
  0
LINE
  5
E8
330
1F
100
AcDbEntity
  8
XR$1$TB_1407_1
  6
AUSGEZOGEN
 62
     7
440
 33554687
370
    -3
100
AcDbLine
 10
2.639776
 20
4.278132
 30
0.0
 11
2.715791
 21
4.208833
 31
0.0
  0
LINE
  5
E9
330
1F
100
AcDbEntity
  8
XR$1$TB_1407_1
  6
AUSGEZOGEN
 62
     7
440
 33554687
370
    -3
100
AcDbLine
 10
2.715791
 20
4.208833
 30
0.0
 11
2.731932
 21
4.208833
 31
0.0
  0
LINE
  5
EA
330
1F
100
AcDbEntity
  8
XR$1$TB_1407_1
  6
AUSGEZOGEN
 62
     7
440
 33554687
370
    -3
100
AcDbLine
 10
2.648564
 20
4.258521
 30
0.0
 11
2.731336
 21
4.172741
 31
0.0
  0
MTEXT
  5
EB
330
1F
100
AcDbEntity
  8
XR$1$TB_1407_1
  6
AUSGEZOGEN
 62
     7
440
 33554687
370
    -3
100
AcDbMText
 10
3.02953
 20
3.667508
 30
0.0
 40
0.009
 41
0.095517
 46
0.0
 71
     7
 72
     5
  1
\W0.91;STAND: Juli 2019
  7
ARIAL
 73
     1
 44
1.0
  0
VIEWPORT
  5
72
330
6E
100
AcDbEntity
 67
     1
  8
0
100
AcDbViewport
 10
0.105
 20
0.148499
 30
0.0
 40
0.2102
 41
0.297197
 68
     1
 69
     1
 12
0.105
 22
0.148499
 13
0.0
 23
0.0
 14
0.5
 24
0.5
 15
0.5
 25
0.5
 16
0.0
 26
0.0
 36
1.0
 17
0.0
 27
0.0
 37
0.0
 42
50.0
 43
0.0
 44
0.0
 45
0.297197
 50
0.0
 51
0.0
 72
   100
 90
   557152
  1

281
     0
 71
     1
 74
     0
110
0.0
120
0.0
130
0.0
111
1.0
121
0.0
131
0.0
112
0.0
122
1.0
132
0.0
 79
     0
146
0.0
170
     0
 61
     5
348
2F
292
     1
282
     1
141
0.0
142
0.0
 63
   256
361
73
  0
VIEWPORT
  5
EE
330
6E
100
AcDbEntity
 67
     1
  8
PLAN_1407
  6
AUSGEZOGEN
 62
     7
370
    35
100
AcDbViewport
 10
0.105
 20
0.148499
 30
0.0
 40
0.2102
 41
0.297197
 68
     2
 69
     2
 12
0.0
 22
0.0
 13
0.0
 23
0.0
 14
1.0
 24
1.0
 15
0.0
 25
0.0
 16
0.0
 26
0.0
 36
1.0
 17
2.657554
 27
4.306338
 37
0.0
 42
50.0
 43
0.0
 44
0.0
 45
1.485985
 50
0.0
 51
0.0
 72
   100
331
10
331
76
331
78
 90
   557280
  1

281
     0
 71
     1
 74
     0
110
0.0
120
0.0
130
0.0
111
1.0
121
0.0
131
0.0
112
0.0
122
1.0
132
0.0
 79
     0
146
0.0
170
     0
 61
     5
348
2F
292
     1
282
     1
141
0.0
142
0.0
 63
   256
361
EF
  0
ENDSEC
  0
SECTION
  2
OBJECTS
  0
DICTIONARY
  5
C
330
0
100
AcDbDictionary
281
     1
  3
ACAD_DETAILVIEWSTYLE
350
127
  3
ACAD_GROUP
350
D
  3
ACAD_LAYOUT
350
1A
  3
ACAD_MATERIAL
350
43
  3
ACAD_MLEADERSTYLE
350
6B
  3
ACAD_MLINESTYLE
350
17
  3
ACAD_PLOTSETTINGS
350
19
  3
ACAD_PLOTSTYLENAME
350
E
  3
ACAD_SCALELIST
350
47
  3
ACAD_SECTIONVIEWSTYLE
350
128
  3
ACAD_TABLESTYLE
350
69
  3
ACAD_VISUALSTYLE
350
2A
  3
ACDB_RECOMPOSE_DATA
350
124
  3
AcDbVariableDictionary
350
F0
  0
SUN
  5
6D
330
29
100
AcDbSun
 90
        1
290
     0
 63
     7
421
 16777215
 40
1.0
291
     1
 91
  2455826
 92
 54000000
292
     0
 70
     2
 71
   256
280
     1
  0
DICTIONARY
  5
EC
330
1F
100
AcDbDictionary
280
     1
281
     1
  3
ACAD_SORTENTS
360
ED
  0
SUN
  5
73
330
72
100
AcDbSun
 90
        1
290
     0
 63
     7
421
 16777215
 40
1.0
291
     1
 91
  2455826
 92
 54000000
292
     0
 70
     2
 71
   256
280
     1
  0
SUN
  5
EF
330
EE
100
AcDbSun
 90
        1
290
     0
 63
     7
421
 16777215
 40
1.0
291
     1
 91
  2455826
 92
 54000000
292
     0
 70
     2
 71
   256
280
     1
  0
DICTIONARY
  5
127
102
{ACAD_REACTORS
330
C
102
}
330
C
100
AcDbDictionary
281
     1
  0
DICTIONARY
  5
D
102
{ACAD_REACTORS
330
C
102
}
330
C
100
AcDbDictionary
281
     1
  3
VERBUNDBLOCK_0
350
7F
  0
DICTIONARY
  5
1A
102
{ACAD_REACTORS
330
C
102
}
330
C
100
AcDbDictionary
281
     1
  3
Baukeramikfassade 8
350
6F
  3
Model
350
22
  0
DICTIONARY
  5
43
102
{ACAD_REACTORS
330
C
102
}
330
C
100
AcDbDictionary
281
     1
  3
ByBlock
350
45
  3
ByLayer
350
44
  3
Global
350
46
  0
DICTIONARY
  5
6B
102
{ACAD_REACTORS
330
C
102
}
330
C
100
AcDbDictionary
281
     1
  3
Standard
350
6C
  0
DICTIONARY
  5
17
102
{ACAD_REACTORS
330
C
102
}
330
C
100
AcDbDictionary
281
     1
  3
Standard
350
18
  0
DICTIONARY
  5
19
102
{ACAD_REACTORS
330
C
102
}
330
C
100
AcDbDictionary
281
     1
  0
ACDBDICTIONARYWDFLT
  5
E
102
{ACAD_REACTORS
330
C
102
}
330
C
100
AcDbDictionary
281
     1
  3
Normal
350
F
100
AcDbDictionaryWithDefault
340
F
  0
DICTIONARY
  5
47
102
{ACAD_REACTORS
330
C
102
}
330
C
100
AcDbDictionary
281
     1
  3
A0
350
48
  3
A1
350
49
  3
A2
350
4A
  3
A3
350
4B
  3
A4
350
4C
  3
A5
350
4D
  3
A6
350
4E
  3
A7
350
4F
  3
A8
350
50
  3
A9
350
51
  3
B0
350
52
  3
B1
350
53
  3
B2
350
54
  3
B3
350
55
  3
B4
350
56
  3
B5
350
57
  3
B6
350
58
  3
B7
350
59
  3
B8
350
5A
  3
B9
350
5B
  3
C0
350
5C
  3
C1
350
5D
  3
C2
350
5E
  3
C3
350
5F
  3
C4
350
60
  3
C5
350
61
  3
C6
350
62
  3
C7
350
63
  3
C8
350
64
  3
C9
350
65
  3
D0
350
66
  3
D1
350
67
  3
D2
350
68
  0
DICTIONARY
  5
128
102
{ACAD_REACTORS
330
C
102
}
330
C
100
AcDbDictionary
281
     1
  0
DICTIONARY
  5
69
102
{ACAD_REACTORS
330
C
102
}
330
C
100
AcDbDictionary
281
     1
  3
Standard
350
6A
  0
DICTIONARY
  5
2A
102
{ACAD_REACTORS
330
C
102
}
330
C
100
AcDbDictionary
281
     1
  3
2dWireframe
350
2F
  3
Basic
350
32
  3
Brighten
350
36
  3
ColorChange
350
3A
  3
Conceptual
350
34
  3
Dim
350
35
  3
EdgeColorOff
350
3D
  3
Facepattern
350
39
  3
Flat
350
2B
  3
FlatWithEdges
350
2C
  3
Gouraud
350
2D
  3
GouraudWithEdges
350
2E
  3
Hidden
350
31
  3
JitterOff
350
3B
  3
Linepattern
350
38
  3
OverhangOff
350
3C
  3
Realistic
350
33
  3
Shaded
350
42
  3
Shaded with edges
350
41
  3
Shades of Gray
350
3E
  3
Sketchy
350
3F
  3
Thicken
350
37
  3
Wireframe
350
30
  3
X-Ray
350
40
  0
XRECORD
  5
124
102
{ACAD_REACTORS
330
C
102
}
330
C
100
AcDbXrecord
280
     1
 90
        1
330
6A
  0
DICTIONARY
  5
F0
102
{ACAD_REACTORS
330
C
102
}
330
C
100
AcDbDictionary
281
     1
  3
CANNOSCALE
350
F1
  3
CMLEADERSTYLE
350
126
  3
CTABLESTYLE
350
125
  0
SORTENTSTABLE
  5
ED
102
{ACAD_REACTORS
330
EC
102
}
330
EC
100
AcDbSortentsTable
330
1F
331
82
  5
84
331
83
  5
85
331
84
  5
86
331
85
  5
87
331
86
  5
88
331
87
  5
89
331
88
  5
8A
331
89
  5
8B
331
8A
  5
8C
331
8B
  5
8D
331
8C
  5
8E
331
8D
  5
8F
331
8E
  5
90
331
8F
  5
91
331
90
  5
92
331
91
  5
93
331
92
  5
95
331
93
  5
96
331
95
  5
97
331
96
  5
98
331
97
  5
99
331
98
  5
9A
331
99
  5
82
331
9A
  5
83
  0
GROUP
  5
7F
102
{ACAD_REACTORS
330
D
102
}
330
D
100
AcDbGroup
300

 70
     0
 71
     1
340
80
340
81
  0
LAYOUT
  5
6F
102
{ACAD_REACTORS
330
1A
102
}
330
1A
100
AcDbPlotSettings
  1

  2
none_device
  4
none_user_media
  6

 40
0.0
 41
0.0
 42
0.0
 43
0.0
 44
297.0
 45
209.9
 46
0.0
 47
0.0
 48
0.0
 49
0.0
140
0.0
141
0.0
142
1000.0
143
1.0
 70
   688
 72
     1
 73
     1
 74
     5
  7

 75
    33
 76
     0
 77
     2
 78
   300
147
1000.0
148
0.0
149
0.0
100
AcDbLayout
  1
Baukeramikfassade 8
 70
     0
 71
     1
 10
-0.0001
 20
-0.0001
 11
0.2101
 21
0.297097
 12
0.0
 22
0.0
 32
0.0
 14
-0.0001
 24
-0.0001
 34
0.0
 15
0.2101
 25
0.297097
 35
0.0
146
0.0
 13
0.0
 23
0.0
 33
0.0
 16
1.0
 26
0.0
 36
0.0
 17
0.0
 27
1.0
 37
0.0
 76
     0
330
6E
331
72
  0
LAYOUT
  5
22
102
{ACAD_REACTORS
330
1A
102
}
330
1A
100
AcDbPlotSettings
  1

  2
none_device
  4
Letter_(8.50_x_11.00_Inches)
  6

 40
6.35
 41
6.35
 42
6.350005
 43
6.350005
 44
215.9
 45
279.4
 46
0.0
 47
0.0
 48
0.0
 49
0.0
140
0.0
141
0.0
142
1.0
143
1.0
 70
  1712
 72
     0
 73
     0
 74
     0
  7

 75
     0
 76
     0
 77
     2
 78
   300
147
1.0
148
0.0
149
0.0
100
AcDbLayout
  1
Model
 70
     1
 71
     0
 10
2.132554
 20
3.563845
 11
3.182554
 21
5.04883
 12
0.0
 22
0.0
 32
0.0
 14
2.132554
 24
3.563845
 34
2.132554
 15
3.182554
 25
5.04883
 35
3.182554
146
0.0
 13
0.0
 23
0.0
 33
0.0
 16
1.0
 26
0.0
 36
0.0
 17
0.0
 27
1.0
 37
0.0
 76
     0
330
1F
331
29
  0
MATERIAL
  5
45
102
{ACAD_REACTORS
330
43
102
}
330
43
100
AcDbMaterial
  1
ByBlock
 72
     1
 94
      127
  0
MATERIAL
  5
44
102
{ACAD_REACTORS
330
43
102
}
330
43
100
AcDbMaterial
  1
ByLayer
 72
     1
 94
      127
  0
MATERIAL
  5
46
102
{ACAD_REACTORS
330
43
102
}
330
43
100
AcDbMaterial
  1
Global
 72
     1
 94
      127
  0
MLEADERSTYLE
  5
6C
102
{ACAD_REACTORS
330
6B
102
}
330
6B
100
AcDbMLeaderStyle
179
     2
170
     2
171
     1
172
     0
 90
        2
 40
0.0
 41
0.0
173
     1
 91
-1056964608
340
14
 92
       -2
290
     1
 42
0.09
291
     1
 43
0.36
  3
Standard
341
0
 44
0.18
300

342
11
174
     1
178
     6
175
     1
176
     0
 93
-1056964608
 45
0.18
292
     0
297
     0
 46
0.18
343
0
 94
-1056964608
 47
1.0
 49
1.0
140
1.0
293
     1
141
0.0
294
     1
177
     0
142
1.0
295
     0
296
     0
143
0.125
271
     0
272
     9
273
     9
  0
MLINESTYLE
  5
18
102
{ACAD_REACTORS
330
17
102
}
330
17
100
AcDbMlineStyle
  2
Standard
 70
     0
  3

 62
   256
 51
90.0
 52
90.0
 71
     2
 49
0.5
 62
   256
  6
BYLAYER
 49
-0.5
 62
   256
  6
BYLAYER
  0
ACDBPLACEHOLDER
  5
F
102
{ACAD_REACTORS
330
E
102
}
330
E
  0
SCALE
  5
48
102
{ACAD_REACTORS
330
47
102
}
330
47
100
AcDbScale
 70
     0
300
1:1
140
1.0
141
1.0
290
     1
  0
SCALE
  5
49
102
{ACAD_REACTORS
330
47
102
}
330
47
100
AcDbScale
 70
     0
300
1:2
140
1.0
141
2.0
290
     0
  0
SCALE
  5
4A
102
{ACAD_REACTORS
330
47
102
}
330
47
100
AcDbScale
 70
     0
300
1:4
140
1.0
141
4.0
290
     0
  0
SCALE
  5
4B
102
{ACAD_REACTORS
330
47
102
}
330
47
100
AcDbScale
 70
     0
300
1:5
140
1.0
141
5.0
290
     0
  0
SCALE
  5
4C
102
{ACAD_REACTORS
330
47
102
}
330
47
100
AcDbScale
 70
     0
300
1:8
140
1.0
141
8.0
290
     0
  0
SCALE
  5
4D
102
{ACAD_REACTORS
330
47
102
}
330
47
100
AcDbScale
 70
     0
300
1:10
140
1.0
141
10.0
290
     0
  0
SCALE
  5
4E
102
{ACAD_REACTORS
330
47
102
}
330
47
100
AcDbScale
 70
     0
300
1:16
140
1.0
141
16.0
290
     0
  0
SCALE
  5
4F
102
{ACAD_REACTORS
330
47
102
}
330
47
100
AcDbScale
 70
     0
300
1:20
140
1.0
141
20.0
290
     0
  0
SCALE
  5
50
102
{ACAD_REACTORS
330
47
102
}
330
47
100
AcDbScale
 70
     0
300
1:30
140
1.0
141
30.0
290
     0
  0
SCALE
  5
51
102
{ACAD_REACTORS
330
47
102
}
330
47
100
AcDbScale
 70
     0
300
1:40
140
1.0
141
40.0
290
     0
  0
SCALE
  5
52
102
{ACAD_REACTORS
330
47
102
}
330
47
100
AcDbScale
 70
     0
300
1:50
140
1.0
141
50.0
290
     0
  0
SCALE
  5
53
102
{ACAD_REACTORS
330
47
102
}
330
47
100
AcDbScale
 70
     0
300
1:100
140
1.0
141
100.0
290
     0
  0
SCALE
  5
54
102
{ACAD_REACTORS
330
47
102
}
330
47
100
AcDbScale
 70
     0
300
2:1
140
2.0
141
1.0
290
     0
  0
SCALE
  5
55
102
{ACAD_REACTORS
330
47
102
}
330
47
100
AcDbScale
 70
     0
300
4:1
140
4.0
141
1.0
290
     0
  0
SCALE
  5
56
102
{ACAD_REACTORS
330
47
102
}
330
47
100
AcDbScale
 70
     0
300
8:1
140
8.0
141
1.0
290
     0
  0
SCALE
  5
57
102
{ACAD_REACTORS
330
47
102
}
330
47
100
AcDbScale
 70
     0
300
10:1
140
10.0
141
1.0
290
     0
  0
SCALE
  5
58
102
{ACAD_REACTORS
330
47
102
}
330
47
100
AcDbScale
 70
     0
300
100:1
140
100.0
141
1.0
290
     0
  0
SCALE
  5
59
102
{ACAD_REACTORS
330
47
102
}
330
47
100
AcDbScale
 70
     0
300
1/128" = 1'-0"
140
0.007812
141
12.0
290
     0
  0
SCALE
  5
5A
102
{ACAD_REACTORS
330
47
102
}
330
47
100
AcDbScale
 70
     0
300
1/64" = 1'-0"
140
0.015625
141
12.0
290
     0
  0
SCALE
  5
5B
102
{ACAD_REACTORS
330
47
102
}
330
47
100
AcDbScale
 70
     0
300
1/32" = 1'-0"
140
0.03125
141
12.0
290
     0
  0
SCALE
  5
5C
102
{ACAD_REACTORS
330
47
102
}
330
47
100
AcDbScale
 70
     0
300
1/16" = 1'-0"
140
0.0625
141
12.0
290
     0
  0
SCALE
  5
5D
102
{ACAD_REACTORS
330
47
102
}
330
47
100
AcDbScale
 70
     0
300
3/32" = 1'-0"
140
0.09375
141
12.0
290
     0
  0
SCALE
  5
5E
102
{ACAD_REACTORS
330
47
102
}
330
47
100
AcDbScale
 70
     0
300
1/8" = 1'-0"
140
0.125
141
12.0
290
     0
  0
SCALE
  5
5F
102
{ACAD_REACTORS
330
47
102
}
330
47
100
AcDbScale
 70
     0
300
3/16" = 1'-0"
140
0.1875
141
12.0
290
     0
  0
SCALE
  5
60
102
{ACAD_REACTORS
330
47
102
}
330
47
100
AcDbScale
 70
     0
300
1/4" = 1'-0"
140
0.25
141
12.0
290
     0
  0
SCALE
  5
61
102
{ACAD_REACTORS
330
47
102
}
330
47
100
AcDbScale
 70
     0
300
3/8" = 1'-0"
140
0.375
141
12.0
290
     0
  0
SCALE
  5
62
102
{ACAD_REACTORS
330
47
102
}
330
47
100
AcDbScale
 70
     0
300
1/2" = 1'-0"
140
0.5
141
12.0
290
     0
  0
SCALE
  5
63
102
{ACAD_REACTORS
330
47
102
}
330
47
100
AcDbScale
 70
     0
300
3/4" = 1'-0"
140
0.75
141
12.0
290
     0
  0
SCALE
  5
64
102
{ACAD_REACTORS
330
47
102
}
330
47
100
AcDbScale
 70
     0
300
1" = 1'-0"
140
1.0
141
12.0
290
     0
  0
SCALE
  5
65
102
{ACAD_REACTORS
330
47
102
}
330
47
100
AcDbScale
 70
     0
300
1-1/2" = 1'-0"
140
1.5
141
12.0
290
     0
  0
SCALE
  5
66
102
{ACAD_REACTORS
330
47
102
}
330
47
100
AcDbScale
 70
     0
300
3" = 1'-0"
140
3.0
141
12.0
290
     0
  0
SCALE
  5
67
102
{ACAD_REACTORS
330
47
102
}
330
47
100
AcDbScale
 70
     0
300
6" = 1'-0"
140
6.0
141
12.0
290
     0
  0
SCALE
  5
68
102
{ACAD_REACTORS
330
47
102
}
330
47
100
AcDbScale
 70
     0
300
1'-0" = 1'-0"
140
12.0
141
12.0
290
     0
  0
TABLESTYLE
  5
6A
102
{ACAD_REACTORS
330
69
102
}
102
{ACAD_XDICTIONARY
360
122
102
}
330
69
100
AcDbTableStyle
  3
Standard
 70
     0
 71
     0
 40
0.06
 41
0.06
280
     0
281
     0
  7
Standard
140
0.18
170
     2
 62
     0
 63
   257
283
     0
 90
        4
 91
        0
  1

274
    -2
284
     1
 64
     0
275
    -2
285
     1
 65
     0
276
    -2
286
     1
 66
     0
277
    -2
287
     1
 67
     0
278
    -2
288
     1
 68
     0
279
    -2
289
     1
 69
     0
  7
Standard
140
0.25
170
     5
 62
     0
 63
   257
283
     0
 90
        4
 91
        0
  1

274
    -2
284
     1
 64
     0
275
    -2
285
     1
 65
     0
276
    -2
286
     1
 66
     0
277
    -2
287
     1
 67
     0
278
    -2
288
     1
 68
     0
279
    -2
289
     1
 69
     0
  7
Standard
140
0.18
170
     5
 62
     0
 63
   257
283
     0
 90
        4
 91
        0
  1

274
    -2
284
     1
 64
     0
275
    -2
285
     1
 65
     0
276
    -2
286
     1
 66
     0
277
    -2
287
     1
 67
     0
278
    -2
288
     1
 68
     0
279
    -2
289
     1
 69
     0
  0
VISUALSTYLE
  5
2F
102
{ACAD_REACTORS
330
2A
102
}
102
{ACAD_XDICTIONARY
360
FA
102
}
330
2A
100
AcDbVisualStyle
  2
2dWireframe
 70
     4
177
     2
291
     0
 71
     0
176
     1
 72
     2
176
     1
 73
     0
176
     1
 90
        0
176
     1
 40
0.6
176
     1
 41
30.0
176
     1
 62
     5
 63
     7
421
 16777215
176
     1
 74
     1
176
     1
 91
        4
176
     1
 64
     7
176
     1
 65
   257
176
     1
 75
     1
176
     1
175
     1
176
     1
 42
1.0
176
     1
 92
        0
176
     1
 66
   257
176
     1
 43
1.0
176
     1
 76
     1
176
     1
 77
     6
176
     1
 78
     2
176
     1
 67
     7
176
     1
 79
     5
176
     1
170
     0
176
     1
171
     0
176
     1
290
     0
176
     1
 93
        1
176
     1
 44
0.0
176
     1
173
     0
176
     1
  0
VISUALSTYLE
  5
32
102
{ACAD_REACTORS
330
2A
102
}
102
{ACAD_XDICTIONARY
360
100
102
}
330
2A
100
AcDbVisualStyle
  2
Basic
 70
     7
177
     2
291
     1
 71
     1
176
     1
 72
     0
176
     1
 73
     1
176
     1
 90
        0
176
     1
 40
0.6
176
     1
 41
30.0
176
     1
 62
     5
 63
     7
421
 16777215
176
     1
 74
     0
176
     1
 91
        4
176
     1
 64
     7
176
     1
 65
   257
176
     1
 75
     1
176
     1
175
     1
176
     1
 42
1.0
176
     1
 92
        8
176
     1
 66
     7
176
     1
 43
1.0
176
     1
 76
     1
176
     1
 77
     6
176
     1
 78
     2
176
     1
 67
     7
176
     1
 79
     5
176
     1
170
     0
176
     1
171
     0
176
     1
290
     0
176
     1
 93
        1
176
     1
 44
0.0
176
     1
173
     0
176
     1
  0
VISUALSTYLE
  5
36
102
{ACAD_REACTORS
330
2A
102
}
102
{ACAD_XDICTIONARY
360
108
102
}
330
2A
100
AcDbVisualStyle
  2
Brighten
 70
    12
177
     2
291
     1
 71
     2
176
     1
 72
     2
176
     1
 73
     0
176
     1
 90
        0
176
     1
 40
0.6
176
     1
 41
30.0
176
     1
 62
     5
 63
     7
421
 16777215
176
     1
 74
     1
176
     1
 91
        4
176
     1
 64
     7
176
     1
 65
   257
176
     1
 75
     1
176
     1
175
     1
176
     1
 42
1.0
176
     1
 92
        8
176
     1
 66
     7
176
     1
 43
1.0
176
     1
 76
     1
176
     1
 77
     6
176
     1
 78
     2
176
     1
 67
     7
176
     1
 79
     5
176
     1
170
     0
176
     1
171
     0
176
     1
290
     0
176
     1
 93
        1
176
     1
 44
50.0
176
     1
173
     0
176
     1
  0
VISUALSTYLE
  5
3A
102
{ACAD_REACTORS
330
2A
102
}
102
{ACAD_XDICTIONARY
360
110
102
}
330
2A
100
AcDbVisualStyle
  2
ColorChange
 70
    16
177
     2
291
     1
 71
     2
176
     1
 72
     2
176
     1
 73
     3
176
     1
 90
        0
176
     1
 40
0.6
176
     1
 41
30.0
176
     1
 62
     5
 63
     8
421
  8421504
176
     1
 74
     1
176
     1
 91
        4
176
     1
 64
     7
176
     1
 65
   257
176
     1
 75
     1
176
     1
175
     1
176
     1
 42
1.0
176
     1
 92
        8
176
     1
 66
     8
424
  8421504
176
     1
 43
1.0
176
     1
 76
     1
176
     1
 77
     6
176
     1
 78
     2
176
     1
 67
     7
176
     1
 79
     5
176
     1
170
     0
176
     1
171
     0
176
     1
290
     0
176
     1
 93
        1
176
     1
 44
0.0
176
     1
173
     0
176
     1
  0
VISUALSTYLE
  5
34
102
{ACAD_REACTORS
330
2A
102
}
102
{ACAD_XDICTIONARY
360
104
102
}
330
2A
100
AcDbVisualStyle
  2
Conceptual
 70
     9
177
     2
291
     0
 71
     3
176
     1
 72
     2
176
     1
 73
     0
176
     1
 90
        0
176
     1
 40
0.6
176
     1
 41
30.0
176
     1
 62
     5
 63
     7
421
 16777215
176
     1
 74
     2
176
     1
 91
        2
176
     1
 64
     7
176
     1
 65
   257
176
     1
 75
     1
176
     1
175
     1
176
     1
 42
179.0
176
     1
 92
        8
176
     1
 66
     7
176
     1
 43
1.0
176
     1
 76
     1
176
     1
 77
     6
176
     1
 78
     2
176
     1
 67
     7
176
     1
 79
     3
176
     1
170
     0
176
     1
171
     0
176
     1
290
     0
176
     1
 93
        1
176
     1
 44
0.0
176
     1
173
     0
176
     1
  0
VISUALSTYLE
  5
35
102
{ACAD_REACTORS
330
2A
102
}
102
{ACAD_XDICTIONARY
360
106
102
}
330
2A
100
AcDbVisualStyle
  2
Dim
 70
    11
177
     2
291
     1
 71
     2
176
     1
 72
     2
176
     1
 73
     0
176
     1
 90
        0
176
     1
 40
0.6
176
     1
 41
30.0
176
     1
 62
     5
 63
     7
421
 16777215
176
     1
 74
     1
176
     1
 91
        4
176
     1
 64
     7
176
     1
 65
   257
176
     1
 75
     1
176
     1
175
     1
176
     1
 42
1.0
176
     1
 92
        8
176
     1
 66
     7
176
     1
 43
1.0
176
     1
 76
     1
176
     1
 77
     6
176
     1
 78
     2
176
     1
 67
     7
176
     1
 79
     5
176
     1
170
     0
176
     1
171
     0
176
     1
290
     0
176
     1
 93
        1
176
     1
 44
-50.0
176
     1
173
     0
176
     1
  0
VISUALSTYLE
  5
3D
102
{ACAD_REACTORS
330
2A
102
}
102
{ACAD_XDICTIONARY
360
116
102
}
330
2A
100
AcDbVisualStyle
  2
EdgeColorOff
 70
    22
177
     2
291
     1
 71
     2
176
     0
 72
     2
176
     0
 73
     0
176
     0
 90
        0
176
     0
 40
0.6
176
     0
 41
30.0
176
     0
 62
     5
 63
     7
421
 16777215
176
     0
 74
     1
176
     0
 91
        4
176
     0
 64
     7
176
     0
 65
   257
176
     0
 75
     1
176
     0
175
     1
176
     0
 42
1.0
176
     0
 92
        8
176
     2
 66
     7
176
     0
 43
1.0
176
     0
 76
     1
176
     0
 77
     6
176
     0
 78
     2
176
     0
 67
     7
176
     0
 79
     5
176
     0
170
     0
176
     0
171
     0
176
     0
290
     0
176
     0
 93
        1
176
     0
 44
0.0
176
     0
173
     0
176
     0
  0
VISUALSTYLE
  5
39
102
{ACAD_REACTORS
330
2A
102
}
102
{ACAD_XDICTIONARY
360
10E
102
}
330
2A
100
AcDbVisualStyle
  2
Facepattern
 70
    15
177
     2
291
     1
 71
     2
176
     1
 72
     2
176
     1
 73
     0
176
     1
 90
        0
176
     1
 40
0.6
176
     1
 41
30.0
176
     1
 62
     5
 63
     7
421
 16777215
176
     1
 74
     1
176
     1
 91
        4
176
     1
 64
     7
176
     1
 65
   257
176
     1
 75
     1
176
     1
175
     1
176
     1
 42
1.0
176
     1
 92
        8
176
     1
 66
     7
176
     1
 43
1.0
176
     1
 76
     1
176
     1
 77
     6
176
     1
 78
     2
176
     1
 67
     7
176
     1
 79
     5
176
     1
170
     0
176
     1
171
     0
176
     1
290
     0
176
     1
 93
        1
176
     1
 44
0.0
176
     1
173
     0
176
     1
  0
VISUALSTYLE
  5
2B
102
{ACAD_REACTORS
330
2A
102
}
102
{ACAD_XDICTIONARY
360
F2
102
}
330
2A
100
AcDbVisualStyle
  2
Flat
 70
     0
177
     2
291
     1
 71
     2
176
     1
 72
     1
176
     1
 73
     1
176
     1
 90
        2
176
     1
 40
0.6
176
     1
 41
30.0
176
     1
 62
     5
 63
     7
421
 16777215
176
     1
 74
     0
176
     1
 91
        0
176
     1
 64
     7
176
     1
 65
   257
176
     1
 75
     1
176
     1
175
     1
176
     1
 42
1.0
176
     1
 92
        8
176
     1
 66
     7
176
     1
 43
1.0
176
     1
 76
     1
176
     1
 77
     6
176
     1
 78
     2
176
     1
 67
     7
176
     1
 79
     5
176
     1
170
     0
176
     1
171
     0
176
     1
290
     0
176
     1
 93
       13
176
     1
 44
0.0
176
     1
173
     0
176
     1
  0
VISUALSTYLE
  5
2C
102
{ACAD_REACTORS
330
2A
102
}
102
{ACAD_XDICTIONARY
360
F4
102
}
330
2A
100
AcDbVisualStyle
  2
FlatWithEdges
 70
     1
177
     2
291
     1
 71
     2
176
     1
 72
     1
176
     1
 73
     1
176
     1
 90
        2
176
     1
 40
0.6
176
     1
 41
30.0
176
     1
 62
     5
 63
     7
421
 16777215
176
     1
 74
     1
176
     1
 91
        0
176
     1
 64
     7
176
     1
 65
   257
176
     1
 75
     1
176
     1
175
     1
176
     1
 42
1.0
176
     1
 92
        0
176
     1
 66
   257
176
     1
 43
1.0
176
     1
 76
     1
176
     1
 77
     6
176
     1
 78
     2
176
     1
 67
     7
176
     1
 79
     5
176
     1
170
     0
176
     1
171
     0
176
     1
290
     0
176
     1
 93
       13
176
     1
 44
0.0
176
     1
173
     0
176
     1
  0
VISUALSTYLE
  5
2D
102
{ACAD_REACTORS
330
2A
102
}
102
{ACAD_XDICTIONARY
360
F6
102
}
330
2A
100
AcDbVisualStyle
  2
Gouraud
 70
     2
177
     2
291
     1
 71
     2
176
     1
 72
     2
176
     1
 73
     1
176
     1
 90
        2
176
     1
 40
0.6
176
     1
 41
30.0
176
     1
 62
     5
 63
     7
421
 16777215
176
     1
 74
     0
176
     1
 91
        0
176
     1
 64
     7
176
     1
 65
   257
176
     1
 75
     1
176
     1
175
     1
176
     1
 42
1.0
176
     1
 92
        0
176
     1
 66
     7
176
     1
 43
1.0
176
     1
 76
     1
176
     1
 77
     6
176
     1
 78
     2
176
     1
 67
     7
176
     1
 79
     5
176
     1
170
     0
176
     1
171
     0
176
     1
290
     0
176
     1
 93
       13
176
     1
 44
0.0
176
     1
173
     0
176
     1
  0
VISUALSTYLE
  5
2E
102
{ACAD_REACTORS
330
2A
102
}
102
{ACAD_XDICTIONARY
360
F8
102
}
330
2A
100
AcDbVisualStyle
  2
GouraudWithEdges
 70
     3
177
     2
291
     1
 71
     2
176
     1
 72
     2
176
     1
 73
     1
176
     1
 90
        2
176
     1
 40
0.6
176
     1
 41
30.0
176
     1
 62
     5
 63
     7
421
 16777215
176
     1
 74
     1
176
     1
 91
        0
176
     1
 64
     7
176
     1
 65
   257
176
     1
 75
     1
176
     1
175
     1
176
     1
 42
1.0
176
     1
 92
        0
176
     1
 66
   257
176
     1
 43
1.0
176
     1
 76
     1
176
     1
 77
     6
176
     1
 78
     2
176
     1
 67
     7
176
     1
 79
     5
176
     1
170
     0
176
     1
171
     0
176
     1
290
     0
176
     1
 93
       13
176
     1
 44
0.0
176
     1
173
     0
176
     1
  0
VISUALSTYLE
  5
31
102
{ACAD_REACTORS
330
2A
102
}
102
{ACAD_XDICTIONARY
360
FE
102
}
330
2A
100
AcDbVisualStyle
  2
Hidden
 70
     6
177
     2
291
     0
 71
     1
176
     1
 72
     2
176
     1
 73
     2
176
     1
 90
        0
176
     1
 40
0.6
176
     1
 41
30.0
176
     1
 62
     5
 63
     7
421
 16777215
176
     1
 74
     2
176
     1
 91
        2
176
     1
 64
     7
176
     1
 65
   257
176
     1
 75
     2
176
     1
175
     1
176
     1
 42
40.0
176
     1
 92
        0
176
     1
 66
   257
176
     1
 43
1.0
176
     1
 76
     1
176
     1
 77
     6
176
     1
 78
     2
176
     1
 67
     7
176
     1
 79
     3
176
     1
170
     0
176
     1
171
     0
176
     1
290
     0
176
     1
 93
        1
176
     1
 44
0.0
176
     1
173
     0
176
     1
  0
VISUALSTYLE
  5
3B
102
{ACAD_REACTORS
330
2A
102
}
102
{ACAD_XDICTIONARY
360
112
102
}
330
2A
100
AcDbVisualStyle
  2
JitterOff
 70
    20
177
     2
291
     1
 71
     2
176
     0
 72
     2
176
     0
 73
     0
176
     0
 90
        0
176
     0
 40
0.6
176
     0
 41
30.0
176
     0
 62
     5
 63
     7
421
 16777215
176
     0
 74
     1
176
     0
 91
        4
176
     0
 64
     7
176
     0
 65
   257
176
     0
 75
     1
176
     0
175
     1
176
     0
 42
1.0
176
     0
 92
       10
176
     2
 66
     7
176
     0
 43
1.0
176
     0
 76
     1
176
     0
 77
     6
176
     0
 78
     2
176
     0
 67
     7
176
     0
 79
     5
176
     0
170
     0
176
     0
171
     0
176
     0
290
     0
176
     0
 93
        1
176
     0
 44
0.0
176
     0
173
     0
176
     0
  0
VISUALSTYLE
  5
38
102
{ACAD_REACTORS
330
2A
102
}
102
{ACAD_XDICTIONARY
360
10C
102
}
330
2A
100
AcDbVisualStyle
  2
Linepattern
 70
    14
177
     2
291
     1
 71
     2
176
     1
 72
     2
176
     1
 73
     0
176
     1
 90
        0
176
     1
 40
0.6
176
     1
 41
30.0
176
     1
 62
     5
 63
     7
421
 16777215
176
     1
 74
     1
176
     1
 91
        4
176
     1
 64
     7
176
     1
 65
   257
176
     1
 75
     7
176
     1
175
     7
176
     1
 42
1.0
176
     1
 92
        8
176
     1
 66
     7
176
     1
 43
1.0
176
     1
 76
     1
176
     1
 77
     6
176
     1
 78
     2
176
     1
 67
     7
176
     1
 79
     5
176
     1
170
     0
176
     1
171
     0
176
     1
290
     0
176
     1
 93
        1
176
     1
 44
0.0
176
     1
173
     0
176
     1
  0
VISUALSTYLE
  5
3C
102
{ACAD_REACTORS
330
2A
102
}
102
{ACAD_XDICTIONARY
360
114
102
}
330
2A
100
AcDbVisualStyle
  2
OverhangOff
 70
    21
177
     2
291
     1
 71
     2
176
     0
 72
     2
176
     0
 73
     0
176
     0
 90
        0
176
     0
 40
0.6
176
     0
 41
30.0
176
     0
 62
     5
 63
     7
421
 16777215
176
     0
 74
     1
176
     0
 91
        4
176
     0
 64
     7
176
     0
 65
   257
176
     0
 75
     1
176
     0
175
     1
176
     0
 42
1.0
176
     0
 92
        9
176
     2
 66
     7
176
     0
 43
1.0
176
     0
 76
     1
176
     0
 77
     6
176
     0
 78
     2
176
     0
 67
     7
176
     0
 79
     5
176
     0
170
     0
176
     0
171
     0
176
     0
290
     0
176
     0
 93
        1
176
     0
 44
0.0
176
     0
173
     0
176
     0
  0
VISUALSTYLE
  5
33
102
{ACAD_REACTORS
330
2A
102
}
102
{ACAD_XDICTIONARY
360
102
102
}
330
2A
100
AcDbVisualStyle
  2
Realistic
 70
     8
177
     2
291
     0
 71
     2
176
     1
 72
     3
176
     1
 73
     0
176
     1
 90
        2
176
     1
 40
0.6
176
     1
 41
30.0
176
     1
 62
     5
 63
     7
421
 16777215
176
     1
 74
     0
176
     1
 91
        0
176
     1
 64
     7
176
     1
 65
   257
176
     1
 75
     1
176
     1
175
     1
176
     1
 42
1.0
176
     1
 92
        8
176
     1
 66
   257
176
     1
 43
1.0
176
     1
 76
     1
176
     1
 77
     6
176
     1
 78
     2
176
     1
 67
     7
176
     1
 79
     3
176
     1
170
     0
176
     1
171
     0
176
     1
290
     0
176
     1
 93
       13
176
     1
 44
0.0
176
     1
173
     0
176
     1
  0
VISUALSTYLE
  5
42
102
{ACAD_REACTORS
330
2A
102
}
102
{ACAD_XDICTIONARY
360
120
102
}
330
2A
100
AcDbVisualStyle
  2
Shaded
 70
    27
177
     2
291
     0
 71
     2
176
     1
 72
     2
176
     1
 73
     1
176
     1
 90
        2
176
     1
 40
0.6
176
     1
 41
30.0
176
     1
 62
     5
 63
     7
421
 16777215
176
     1
 74
     0
176
     1
 91
        4
176
     1
 64
     7
176
     1
 65
   257
176
     1
 75
     1
176
     1
175
     1
176
     1
 42
1.0
176
     1
 92
        8
176
     1
 66
   257
176
     1
 43
1.0
176
     1
 76
     1
176
     1
 77
     6
176
     1
 78
     2
176
     1
 67
     8
425
  7895160
176
     1
 79
     3
176
     1
170
     0
176
     1
171
     0
176
     1
290
     0
176
     1
 93
        5
176
     1
 44
0.0
176
     1
173
     0
176
     1
  0
VISUALSTYLE
  5
41
102
{ACAD_REACTORS
330
2A
102
}
102
{ACAD_XDICTIONARY
360
11E
102
}
330
2A
100
AcDbVisualStyle
  2
Shaded with edges
 70
    26
177
     2
291
     0
 71
     2
176
     1
 72
     2
176
     1
 73
     1
176
     1
 90
        2
176
     1
 40
0.6
176
     1
 41
30.0
176
     1
 62
     5
 63
     7
421
 16777215
176
     1
 74
     1
176
     1
 91
       10
176
     1
 64
     7
176
     1
 65
   257
176
     1
 75
     2
176
     1
175
     1
176
     1
 42
1.0
176
     1
 92
        8
176
     1
 66
   257
176
     1
 43
1.0
176
     1
 76
     1
176
     1
 77
     6
176
     1
 78
     2
176
     1
 67
     7
176
     1
 79
     3
176
     1
170
     0
176
     1
171
     0
176
     1
290
     0
176
     1
 93
        5
176
     1
 44
0.0
176
     1
173
     0
176
     1
  0
VISUALSTYLE
  5
3E
102
{ACAD_REACTORS
330
2A
102
}
102
{ACAD_XDICTIONARY
360
118
102
}
330
2A
100
AcDbVisualStyle
  2
Shades of Gray
 70
    23
177
     2
291
     0
 71
     2
176
     1
 72
     2
176
     1
 73
     3
176
     1
 90
        0
176
     1
 40
0.6
176
     1
 41
30.0
176
     1
 62
     5
 63
     7
421
 16777215
176
     1
 74
     2
176
     1
 91
        2
176
     1
 64
     7
176
     1
 65
     7
176
     1
 75
     1
176
     1
175
     1
176
     1
 42
40.0
176
     1
 92
        8
176
     1
 66
     7
176
     1
 43
1.0
176
     1
 76
     1
176
     1
 77
     6
176
     1
 78
     2
176
     1
 67
     7
176
     1
 79
     3
176
     1
170
     0
176
     1
171
     0
176
     1
290
     0
176
     1
 93
        1
176
     1
 44
0.0
176
     1
173
     0
176
     1
  0
VISUALSTYLE
  5
3F
102
{ACAD_REACTORS
330
2A
102
}
102
{ACAD_XDICTIONARY
360
11A
102
}
330
2A
100
AcDbVisualStyle
  2
Sketchy
 70
    24
177
     2
291
     0
 71
     1
176
     1
 72
     2
176
     1
 73
     2
176
     1
 90
        0
176
     1
 40
0.6
176
     1
 41
30.0
176
     1
 62
     5
 63
     7
421
 16777215
176
     1
 74
     2
176
     1
 91
        2
176
     1
 64
     7
176
     1
 65
     7
176
     1
 75
     1
176
     1
175
     1
176
     1
 42
40.0
176
     1
 92
       11
176
     1
 66
     7
176
     1
 43
1.0
176
     1
 76
     1
176
     1
 77
     6
176
     1
 78
     2
176
     1
 67
     7
176
     1
 79
     6
176
     1
170
     0
176
     1
171
     0
176
     1
290
     0
176
     1
 93
        1
176
     1
 44
0.0
176
     1
173
     0
176
     1
  0
VISUALSTYLE
  5
37
102
{ACAD_REACTORS
330
2A
102
}
102
{ACAD_XDICTIONARY
360
10A
102
}
330
2A
100
AcDbVisualStyle
  2
Thicken
 70
    13
177
     2
291
     1
 71
     2
176
     1
 72
     2
176
     1
 73
     0
176
     1
 90
        0
176
     1
 40
0.6
176
     1
 41
30.0
176
     1
 62
     5
 63
     7
421
 16777215
176
     1
 74
     1
176
     1
 91
        4
176
     1
 64
     7
176
     1
 65
   257
176
     1
 75
     1
176
     1
175
     1
176
     1
 42
1.0
176
     1
 92
       12
176
     1
 66
     7
176
     1
 43
1.0
176
     1
 76
     1
176
     1
 77
     6
176
     1
 78
     2
176
     1
 67
     7
176
     1
 79
     5
176
     1
170
     0
176
     1
171
     0
176
     1
290
     0
176
     1
 93
        1
176
     1
 44
0.0
176
     1
173
     0
176
     1
  0
VISUALSTYLE
  5
30
102
{ACAD_REACTORS
330
2A
102
}
102
{ACAD_XDICTIONARY
360
FC
102
}
330
2A
100
AcDbVisualStyle
  2
Wireframe
 70
     5
177
     2
291
     0
 71
     0
176
     1
 72
     2
176
     1
 73
     0
176
     1
 90
        0
176
     1
 40
0.6
176
     1
 41
30.0
176
     1
 62
     5
 63
     7
421
 16777215
176
     1
 74
     1
176
     1
 91
        4
176
     1
 64
     7
176
     1
 65
   257
176
     1
 75
     1
176
     1
175
     1
176
     1
 42
1.0
176
     1
 92
        0
176
     1
 66
   257
176
     1
 43
1.0
176
     1
 76
     1
176
     1
 77
     6
176
     1
 78
     2
176
     1
 67
     7
176
     1
 79
     3
176
     1
170
     0
176
     1
171
     0
176
     1
290
     0
176
     1
 93
        1
176
     1
 44
0.0
176
     1
173
     0
176
     1
  0
VISUALSTYLE
  5
40
102
{ACAD_REACTORS
330
2A
102
}
102
{ACAD_XDICTIONARY
360
11C
102
}
330
2A
100
AcDbVisualStyle
  2
X-Ray
 70
    25
177
     2
291
     0
 71
     2
176
     1
 72
     2
176
     1
 73
     1
176
     1
 90
        1
176
     1
 40
0.5
176
     1
 41
30.0
176
     1
 62
     5
 63
     7
421
 16777215
176
     1
 74
     1
176
     1
 91
        0
176
     1
 64
     7
176
     1
 65
   257
176
     1
 75
     1
176
     1
175
     1
176
     1
 42
1.0
176
     1
 92
        8
176
     1
 66
     7
176
     1
 43
1.0
176
     1
 76
     1
176
     1
 77
     6
176
     1
 78
     2
176
     1
 67
     7
176
     1
 79
     3
176
     1
170
     0
176
     1
171
     0
176
     1
290
     0
176
     1
 93
       13
176
     1
 44
0.0
176
     1
173
     0
176
     1
  0
DICTIONARYVAR
  5
F1
102
{ACAD_REACTORS
330
F0
102
}
330
F0
100
DictionaryVariables
280
     0
  1
1:1
  0
DICTIONARYVAR
  5
126
102
{ACAD_REACTORS
330
F0
102
}
330
F0
100
DictionaryVariables
280
     0
  1
Standard
  0
DICTIONARYVAR
  5
125
102
{ACAD_REACTORS
330
F0
102
}
330
F0
100
DictionaryVariables
280
     0
  1
Standard
  0
DICTIONARY
  5
122
330
6A
100
AcDbDictionary
280
     1
281
     1
  3
ACAD_ROUNDTRIP_2008_TABLESTYLE_CELLSTYLEMAP
360
123
  0
DICTIONARY
  5
FA
330
2F
100
AcDbDictionary
280
     1
281
     1
  3
ACAD_XREC_ROUNDTRIP
360
FB
  0
DICTIONARY
  5
100
330
32
100
AcDbDictionary
280
     1
281
     1
  3
ACAD_XREC_ROUNDTRIP
360
101
  0
DICTIONARY
  5
108
330
36
100
AcDbDictionary
280
     1
281
     1
  3
ACAD_XREC_ROUNDTRIP
360
109
  0
DICTIONARY
  5
110
330
3A
100
AcDbDictionary
280
     1
281
     1
  3
ACAD_XREC_ROUNDTRIP
360
111
  0
DICTIONARY
  5
104
330
34
100
AcDbDictionary
280
     1
281
     1
  3
ACAD_XREC_ROUNDTRIP
360
105
  0
DICTIONARY
  5
106
330
35
100
AcDbDictionary
280
     1
281
     1
  3
ACAD_XREC_ROUNDTRIP
360
107
  0
DICTIONARY
  5
116
330
3D
100
AcDbDictionary
280
     1
281
     1
  3
ACAD_XREC_ROUNDTRIP
360
117
  0
DICTIONARY
  5
10E
330
39
100
AcDbDictionary
280
     1
281
     1
  3
ACAD_XREC_ROUNDTRIP
360
10F
  0
DICTIONARY
  5
F2
330
2B
100
AcDbDictionary
280
     1
281
     1
  3
ACAD_XREC_ROUNDTRIP
360
F3
  0
DICTIONARY
  5
F4
330
2C
100
AcDbDictionary
280
     1
281
     1
  3
ACAD_XREC_ROUNDTRIP
360
F5
  0
DICTIONARY
  5
F6
330
2D
100
AcDbDictionary
280
     1
281
     1
  3
ACAD_XREC_ROUNDTRIP
360
F7
  0
DICTIONARY
  5
F8
330
2E
100
AcDbDictionary
280
     1
281
     1
  3
ACAD_XREC_ROUNDTRIP
360
F9
  0
DICTIONARY
  5
FE
330
31
100
AcDbDictionary
280
     1
281
     1
  3
ACAD_XREC_ROUNDTRIP
360
FF
  0
DICTIONARY
  5
112
330
3B
100
AcDbDictionary
280
     1
281
     1
  3
ACAD_XREC_ROUNDTRIP
360
113
  0
DICTIONARY
  5
10C
330
38
100
AcDbDictionary
280
     1
281
     1
  3
ACAD_XREC_ROUNDTRIP
360
10D
  0
DICTIONARY
  5
114
330
3C
100
AcDbDictionary
280
     1
281
     1
  3
ACAD_XREC_ROUNDTRIP
360
115
  0
DICTIONARY
  5
102
330
33
100
AcDbDictionary
280
     1
281
     1
  3
ACAD_XREC_ROUNDTRIP
360
103
  0
DICTIONARY
  5
120
330
42
100
AcDbDictionary
280
     1
281
     1
  3
ACAD_XREC_ROUNDTRIP
360
121
  0
DICTIONARY
  5
11E
330
41
100
AcDbDictionary
280
     1
281
     1
  3
ACAD_XREC_ROUNDTRIP
360
11F
  0
DICTIONARY
  5
118
330
3E
100
AcDbDictionary
280
     1
281
     1
  3
ACAD_XREC_ROUNDTRIP
360
119
  0
DICTIONARY
  5
11A
330
3F
100
AcDbDictionary
280
     1
281
     1
  3
ACAD_XREC_ROUNDTRIP
360
11B
  0
DICTIONARY
  5
10A
330
37
100
AcDbDictionary
280
     1
281
     1
  3
ACAD_XREC_ROUNDTRIP
360
10B
  0
DICTIONARY
  5
FC
330
30
100
AcDbDictionary
280
     1
281
     1
  3
ACAD_XREC_ROUNDTRIP
360
FD
  0
DICTIONARY
  5
11C
330
40
100
AcDbDictionary
280
     1
281
     1
  3
ACAD_XREC_ROUNDTRIP
360
11D
  0
CELLSTYLEMAP
  5
123
102
{ACAD_REACTORS
330
122
102
}
330
122
100
AcDbCellStyleMap
 90
        3
300
CELLSTYLE
  1
TABLEFORMAT_BEGIN
 90
        5
170
     1
 91
        0
 92
    32768
 62
   257
 93
        1
300
CONTENTFORMAT
  1
CONTENTFORMAT_BEGIN
 90
        0
 91
        0
 92
        4
 93
        0
300

 40
0.0
140
1.0
 94
        5
 62
     0
340
11
144
0.25
309
CONTENTFORMAT_END
171
     1
301
MARGIN
  1
CELLMARGIN_BEGIN
 40
0.06
 40
0.06
 40
0.06
 40
0.06
 40
0.06
 40
0.06
309
CELLMARGIN_END
 94
        6
 95
        1
302
GRIDFORMAT
  1
GRIDFORMAT_BEGIN
 90
        0
 91
        1
 62
     0
 92
       -2
340
14
 93
        0
 40
0.045
309
GRIDFORMAT_END
 95
        2
302
GRIDFORMAT
  1
GRIDFORMAT_BEGIN
 90
        0
 91
        1
 62
     0
 92
       -2
340
14
 93
        0
 40
0.045
309
GRIDFORMAT_END
 95
        4
302
GRIDFORMAT
  1
GRIDFORMAT_BEGIN
 90
        0
 91
        1
 62
     0
 92
       -2
340
14
 93
        0
 40
0.045
309
GRIDFORMAT_END
 95
        8
302
GRIDFORMAT
  1
GRIDFORMAT_BEGIN
 90
        0
 91
        1
 62
     0
 92
       -2
340
14
 93
        0
 40
0.045
309
GRIDFORMAT_END
 95
       16
302
GRIDFORMAT
  1
GRIDFORMAT_BEGIN
 90
        0
 91
        1
 62
     0
 92
       -2
340
14
 93
        0
 40
0.045
309
GRIDFORMAT_END
 95
       32
302
GRIDFORMAT
  1
GRIDFORMAT_BEGIN
 90
        0
 91
        1
 62
     0
 92
       -2
340
14
 93
        0
 40
0.045
309
GRIDFORMAT_END
309
TABLEFORMAT_END
  1
CELLSTYLE_BEGIN
 90
        1
 91
        1
300
_TITLE
309
CELLSTYLE_END
300
CELLSTYLE
  1
TABLEFORMAT_BEGIN
 90
        5
170
     1
 91
        0
 92
        0
 62
   257
 93
        1
300
CONTENTFORMAT
  1
CONTENTFORMAT_BEGIN
 90
        0
 91
        0
 92
        4
 93
        0
300

 40
0.0
140
1.0
 94
        5
 62
     0
340
11
144
0.18
309
CONTENTFORMAT_END
171
     1
301
MARGIN
  1
CELLMARGIN_BEGIN
 40
0.06
 40
0.06
 40
0.06
 40
0.06
 40
0.06
 40
0.06
309
CELLMARGIN_END
 94
        6
 95
        1
302
GRIDFORMAT
  1
GRIDFORMAT_BEGIN
 90
        0
 91
        1
 62
     0
 92
       -2
340
14
 93
        0
 40
0.045
309
GRIDFORMAT_END
 95
        2
302
GRIDFORMAT
  1
GRIDFORMAT_BEGIN
 90
        0
 91
        1
 62
     0
 92
       -2
340
14
 93
        0
 40
0.045
309
GRIDFORMAT_END
 95
        4
302
GRIDFORMAT
  1
GRIDFORMAT_BEGIN
 90
        0
 91
        1
 62
     0
 92
       -2
340
14
 93
        0
 40
0.045
309
GRIDFORMAT_END
 95
        8
302
GRIDFORMAT
  1
GRIDFORMAT_BEGIN
 90
        0
 91
        1
 62
     0
 92
       -2
340
14
 93
        0
 40
0.045
309
GRIDFORMAT_END
 95
       16
302
GRIDFORMAT
  1
GRIDFORMAT_BEGIN
 90
        0
 91
        1
 62
     0
 92
       -2
340
14
 93
        0
 40
0.045
309
GRIDFORMAT_END
 95
       32
302
GRIDFORMAT
  1
GRIDFORMAT_BEGIN
 90
        0
 91
        1
 62
     0
 92
       -2
340
14
 93
        0
 40
0.045
309
GRIDFORMAT_END
309
TABLEFORMAT_END
  1
CELLSTYLE_BEGIN
 90
        2
 91
        1
300
_HEADER
309
CELLSTYLE_END
300
CELLSTYLE
  1
TABLEFORMAT_BEGIN
 90
        5
170
     1
 91
        0
 92
        0
 62
   257
 93
        1
300
CONTENTFORMAT
  1
CONTENTFORMAT_BEGIN
 90
        0
 91
        0
 92
        4
 93
        0
300

 40
0.0
140
1.0
 94
        2
 62
     0
340
11
144
0.18
309
CONTENTFORMAT_END
171
     1
301
MARGIN
  1
CELLMARGIN_BEGIN
 40
0.06
 40
0.06
 40
0.06
 40
0.06
 40
0.06
 40
0.06
309
CELLMARGIN_END
 94
        6
 95
        1
302
GRIDFORMAT
  1
GRIDFORMAT_BEGIN
 90
        0
 91
        1
 62
     0
 92
       -2
340
14
 93
        0
 40
0.045
309
GRIDFORMAT_END
 95
        2
302
GRIDFORMAT
  1
GRIDFORMAT_BEGIN
 90
        0
 91
        1
 62
     0
 92
       -2
340
14
 93
        0
 40
0.045
309
GRIDFORMAT_END
 95
        4
302
GRIDFORMAT
  1
GRIDFORMAT_BEGIN
 90
        0
 91
        1
 62
     0
 92
       -2
340
14
 93
        0
 40
0.045
309
GRIDFORMAT_END
 95
        8
302
GRIDFORMAT
  1
GRIDFORMAT_BEGIN
 90
        0
 91
        1
 62
     0
 92
       -2
340
14
 93
        0
 40
0.045
309
GRIDFORMAT_END
 95
       16
302
GRIDFORMAT
  1
GRIDFORMAT_BEGIN
 90
        0
 91
        1
 62
     0
 92
       -2
340
14
 93
        0
 40
0.045
309
GRIDFORMAT_END
 95
       32
302
GRIDFORMAT
  1
GRIDFORMAT_BEGIN
 90
        0
 91
        1
 62
     0
 92
       -2
340
14
 93
        0
 40
0.045
309
GRIDFORMAT_END
309
TABLEFORMAT_END
  1
CELLSTYLE_BEGIN
 90
        3
 91
        2
300
_DATA
309
CELLSTYLE_END
  0
XRECORD
  5
FB
102
{ACAD_REACTORS
330
FA
102
}
330
FA
100
AcDbXrecord
280
     1
102
RTVSPost2010Prop28
280
     1
102
RTVSPost2010PropOp28
 70
     1
102
RTVSPost2010Prop29
280
     1
102
RTVSPost2010PropOp29
 70
     1
102
RTVSPost2010Prop30
280
     0
102
RTVSPost2010PropOp30
 70
     1
102
RTVSPost2010Prop31
280
     0
102
RTVSPost2010PropOp31
 70
     1
102
RTVSPost2010Prop32
280
     0
102
RTVSPost2010PropOp32
 70
     1
102
RTVSPost2010Prop33
280
     0
102
RTVSPost2010PropOp33
 70
     1
102
RTVSPost2010Prop34
280
     0
102
RTVSPost2010PropOp34
 70
     1
102
RTVSPost2010Prop35
280
     0
102
RTVSPost2010PropOp35
 70
     1
102
RTVSPost2010Prop36
280
     0
102
RTVSPost2010PropOp36
 70
     1
102
RTVSPost2010Prop37
 90
       50
102
RTVSPost2010PropOp37
 70
     1
102
RTVSPost2010Prop38
140
0.0
102
RTVSPost2010PropOp38
 70
     1
102
RTVSPost2010Prop39
140
1.0
102
RTVSPost2010PropOp39
 70
     1
102
RTVSPost2010Prop40
 90
        0
102
RTVSPost2010PropOp40
 70
     1
102
RTVSPost2010Prop41ColorIndex
 90
       18
102
RTVSPost2010Prop41ColorRGB
 90
        0
102
RTVSPost2010PropOp41
 70
     1
102
RTVSPost2010Prop42
 90
       50
102
RTVSPost2010PropOp42
 70
     1
102
RTVSPost2010Prop43
 90
        3
102
RTVSPost2010PropOp43
 70
     1
102
RTVSPost2010Prop44ColorIndex
 90
        5
102
RTVSPost2010Prop44ColorRGB
 90
      255
102
RTVSPost2010PropOp44
 70
     1
102
RTVSPost2010Prop45
280
     0
102
RTVSPost2010PropOp45
 70
     1
102
RTVSPost2010Prop46
 90
       50
102
RTVSPost2010PropOp46
 70
     1
102
RTVSPost2010Prop47
 90
       50
102
RTVSPost2010PropOp47
 70
     1
102
RTVSPost2010Prop48
 90
       50
102
RTVSPost2010PropOp48
 70
     1
102
RTVSPost2010Prop49
280
     0
102
RTVSPost2010PropOp49
 70
     1
102
RTVSPost2010Prop50
 90
       50
102
RTVSPost2010PropOp50
 70
     1
102
RTVSPost2010Prop51ColorIndex
 90
      256
102
RTVSPost2010Prop51ColorRGB
 90
-16777216
102
RTVSPost2010PropOp51
 70
     0
102
RTVSPost2010Prop52
140
1.0
102
RTVSPost2010PropOp52
 70
     0
102
RTVSPost2010Prop53
 90
        2
102
RTVSPost2010PropOp53
 70
     1
102
RTVSPost2010Prop54
  1
strokes_ogs.tif
102
RTVSPost2010PropOp54
 70
     1
102
RTVSPost2010Prop55
280
     0
102
RTVSPost2010PropOp55
 70
     1
102
RTVSPost2010Prop56
140
1.0
102
RTVSPost2010PropOp56
 70
     1
102
RTVSPost2010Prop57
140
1.0
102
RTVSPost2010PropOp57
 70
     1
  0
XRECORD
  5
101
102
{ACAD_REACTORS
330
100
102
}
330
100
100
AcDbXrecord
280
     1
102
RTVSPost2010Prop28
280
     0
102
RTVSPost2010PropOp28
 70
     1
102
RTVSPost2010Prop29
280
     1
102
RTVSPost2010PropOp29
 70
     1
102
RTVSPost2010Prop30
280
     1
102
RTVSPost2010PropOp30
 70
     1
102
RTVSPost2010Prop31
280
     0
102
RTVSPost2010PropOp31
 70
     1
102
RTVSPost2010Prop32
280
     0
102
RTVSPost2010PropOp32
 70
     1
102
RTVSPost2010Prop33
280
     0
102
RTVSPost2010PropOp33
 70
     1
102
RTVSPost2010Prop34
280
     0
102
RTVSPost2010PropOp34
 70
     1
102
RTVSPost2010Prop35
280
     0
102
RTVSPost2010PropOp35
 70
     1
102
RTVSPost2010Prop36
280
     0
102
RTVSPost2010PropOp36
 70
     1
102
RTVSPost2010Prop37
 90
       50
102
RTVSPost2010PropOp37
 70
     1
102
RTVSPost2010Prop38
140
0.0
102
RTVSPost2010PropOp38
 70
     1
102
RTVSPost2010Prop39
140
1.0
102
RTVSPost2010PropOp39
 70
     1
102
RTVSPost2010Prop40
 90
        0
102
RTVSPost2010PropOp40
 70
     1
102
RTVSPost2010Prop41ColorIndex
 90
       18
102
RTVSPost2010Prop41ColorRGB
 90
        0
102
RTVSPost2010PropOp41
 70
     1
102
RTVSPost2010Prop42
 90
       50
102
RTVSPost2010PropOp42
 70
     1
102
RTVSPost2010Prop43
 90
        3
102
RTVSPost2010PropOp43
 70
     1
102
RTVSPost2010Prop44ColorIndex
 90
        5
102
RTVSPost2010Prop44ColorRGB
 90
      255
102
RTVSPost2010PropOp44
 70
     1
102
RTVSPost2010Prop45
280
     0
102
RTVSPost2010PropOp45
 70
     1
102
RTVSPost2010Prop46
 90
       50
102
RTVSPost2010PropOp46
 70
     1
102
RTVSPost2010Prop47
 90
       50
102
RTVSPost2010PropOp47
 70
     1
102
RTVSPost2010Prop48
 90
       50
102
RTVSPost2010PropOp48
 70
     1
102
RTVSPost2010Prop49
280
     0
102
RTVSPost2010PropOp49
 70
     1
102
RTVSPost2010Prop50
 90
       50
102
RTVSPost2010PropOp50
 70
     1
102
RTVSPost2010Prop51ColorIndex
 90
      256
102
RTVSPost2010Prop51ColorRGB
 90
-16777216
102
RTVSPost2010PropOp51
 70
     0
102
RTVSPost2010Prop52
140
1.0
102
RTVSPost2010PropOp52
 70
     0
102
RTVSPost2010Prop53
 90
        2
102
RTVSPost2010PropOp53
 70
     1
102
RTVSPost2010Prop54
  1
strokes_ogs.tif
102
RTVSPost2010PropOp54
 70
     1
102
RTVSPost2010Prop55
280
     0
102
RTVSPost2010PropOp55
 70
     1
102
RTVSPost2010Prop56
140
1.0
102
RTVSPost2010PropOp56
 70
     1
102
RTVSPost2010Prop57
140
1.0
102
RTVSPost2010PropOp57
 70
     1
  0
XRECORD
  5
109
102
{ACAD_REACTORS
330
108
102
}
330
108
100
AcDbXrecord
280
     1
102
RTVSPost2010Prop28
280
     0
102
RTVSPost2010PropOp28
 70
     1
102
RTVSPost2010Prop29
280
     1
102
RTVSPost2010PropOp29
 70
     1
102
RTVSPost2010Prop30
280
     1
102
RTVSPost2010PropOp30
 70
     1
102
RTVSPost2010Prop31
280
     0
102
RTVSPost2010PropOp31
 70
     1
102
RTVSPost2010Prop32
280
     0
102
RTVSPost2010PropOp32
 70
     1
102
RTVSPost2010Prop33
280
     0
102
RTVSPost2010PropOp33
 70
     1
102
RTVSPost2010Prop34
280
     0
102
RTVSPost2010PropOp34
 70
     1
102
RTVSPost2010Prop35
280
     0
102
RTVSPost2010PropOp35
 70
     1
102
RTVSPost2010Prop36
280
     0
102
RTVSPost2010PropOp36
 70
     1
102
RTVSPost2010Prop37
 90
       50
102
RTVSPost2010PropOp37
 70
     1
102
RTVSPost2010Prop38
140
0.0
102
RTVSPost2010PropOp38
 70
     1
102
RTVSPost2010Prop39
140
1.0
102
RTVSPost2010PropOp39
 70
     1
102
RTVSPost2010Prop40
 90
        0
102
RTVSPost2010PropOp40
 70
     1
102
RTVSPost2010Prop41ColorIndex
 90
       18
102
RTVSPost2010Prop41ColorRGB
 90
        0
102
RTVSPost2010PropOp41
 70
     1
102
RTVSPost2010Prop42
 90
       50
102
RTVSPost2010PropOp42
 70
     1
102
RTVSPost2010Prop43
 90
        3
102
RTVSPost2010PropOp43
 70
     1
102
RTVSPost2010Prop44ColorIndex
 90
        5
102
RTVSPost2010Prop44ColorRGB
 90
      255
102
RTVSPost2010PropOp44
 70
     1
102
RTVSPost2010Prop45
280
     0
102
RTVSPost2010PropOp45
 70
     1
102
RTVSPost2010Prop46
 90
       50
102
RTVSPost2010PropOp46
 70
     1
102
RTVSPost2010Prop47
 90
       50
102
RTVSPost2010PropOp47
 70
     1
102
RTVSPost2010Prop48
 90
       50
102
RTVSPost2010PropOp48
 70
     1
102
RTVSPost2010Prop49
280
     0
102
RTVSPost2010PropOp49
 70
     1
102
RTVSPost2010Prop50
 90
       50
102
RTVSPost2010PropOp50
 70
     1
102
RTVSPost2010Prop51ColorIndex
 90
      256
102
RTVSPost2010Prop51ColorRGB
 90
-16777216
102
RTVSPost2010PropOp51
 70
     0
102
RTVSPost2010Prop52
140
1.0
102
RTVSPost2010PropOp52
 70
     0
102
RTVSPost2010Prop53
 90
        2
102
RTVSPost2010PropOp53
 70
     1
102
RTVSPost2010Prop54
  1
strokes_ogs.tif
102
RTVSPost2010PropOp54
 70
     1
102
RTVSPost2010Prop55
280
     0
102
RTVSPost2010PropOp55
 70
     1
102
RTVSPost2010Prop56
140
1.0
102
RTVSPost2010PropOp56
 70
     1
102
RTVSPost2010Prop57
140
1.0
102
RTVSPost2010PropOp57
 70
     1
  0
XRECORD
  5
111
102
{ACAD_REACTORS
330
110
102
}
330
110
100
AcDbXrecord
280
     1
102
RTVSPost2010Prop28
280
     0
102
RTVSPost2010PropOp28
 70
     1
102
RTVSPost2010Prop29
280
     1
102
RTVSPost2010PropOp29
 70
     1
102
RTVSPost2010Prop30
280
     1
102
RTVSPost2010PropOp30
 70
     1
102
RTVSPost2010Prop31
280
     0
102
RTVSPost2010PropOp31
 70
     1
102
RTVSPost2010Prop32
280
     0
102
RTVSPost2010PropOp32
 70
     1
102
RTVSPost2010Prop33
280
     0
102
RTVSPost2010PropOp33
 70
     1
102
RTVSPost2010Prop34
280
     0
102
RTVSPost2010PropOp34
 70
     1
102
RTVSPost2010Prop35
280
     0
102
RTVSPost2010PropOp35
 70
     1
102
RTVSPost2010Prop36
280
     0
102
RTVSPost2010PropOp36
 70
     1
102
RTVSPost2010Prop37
 90
       50
102
RTVSPost2010PropOp37
 70
     1
102
RTVSPost2010Prop38
140
0.0
102
RTVSPost2010PropOp38
 70
     1
102
RTVSPost2010Prop39
140
1.0
102
RTVSPost2010PropOp39
 70
     1
102
RTVSPost2010Prop40
 90
        0
102
RTVSPost2010PropOp40
 70
     1
102
RTVSPost2010Prop41ColorIndex
 90
       18
102
RTVSPost2010Prop41ColorRGB
 90
        0
102
RTVSPost2010PropOp41
 70
     1
102
RTVSPost2010Prop42
 90
       50
102
RTVSPost2010PropOp42
 70
     1
102
RTVSPost2010Prop43
 90
        3
102
RTVSPost2010PropOp43
 70
     1
102
RTVSPost2010Prop44ColorIndex
 90
        5
102
RTVSPost2010Prop44ColorRGB
 90
      255
102
RTVSPost2010PropOp44
 70
     1
102
RTVSPost2010Prop45
280
     0
102
RTVSPost2010PropOp45
 70
     1
102
RTVSPost2010Prop46
 90
       50
102
RTVSPost2010PropOp46
 70
     1
102
RTVSPost2010Prop47
 90
       50
102
RTVSPost2010PropOp47
 70
     1
102
RTVSPost2010Prop48
 90
       50
102
RTVSPost2010PropOp48
 70
     1
102
RTVSPost2010Prop49
280
     0
102
RTVSPost2010PropOp49
 70
     1
102
RTVSPost2010Prop50
 90
       50
102
RTVSPost2010PropOp50
 70
     1
102
RTVSPost2010Prop51ColorIndex
 90
      256
102
RTVSPost2010Prop51ColorRGB
 90
-16777216
102
RTVSPost2010PropOp51
 70
     0
102
RTVSPost2010Prop52
140
1.0
102
RTVSPost2010PropOp52
 70
     0
102
RTVSPost2010Prop53
 90
        2
102
RTVSPost2010PropOp53
 70
     1
102
RTVSPost2010Prop54
  1
strokes_ogs.tif
102
RTVSPost2010PropOp54
 70
     1
102
RTVSPost2010Prop55
280
     0
102
RTVSPost2010PropOp55
 70
     1
102
RTVSPost2010Prop56
140
1.0
102
RTVSPost2010PropOp56
 70
     1
102
RTVSPost2010Prop57
140
1.0
102
RTVSPost2010PropOp57
 70
     1
  0
XRECORD
  5
105
102
{ACAD_REACTORS
330
104
102
}
330
104
100
AcDbXrecord
280
     1
102
RTVSPost2010Prop28
280
     0
102
RTVSPost2010PropOp28
 70
     1
102
RTVSPost2010Prop29
280
     1
102
RTVSPost2010PropOp29
 70
     1
102
RTVSPost2010Prop30
280
     1
102
RTVSPost2010PropOp30
 70
     1
102
RTVSPost2010Prop31
280
     0
102
RTVSPost2010PropOp31
 70
     1
102
RTVSPost2010Prop32
280
     0
102
RTVSPost2010PropOp32
 70
     1
102
RTVSPost2010Prop33
280
     0
102
RTVSPost2010PropOp33
 70
     1
102
RTVSPost2010Prop34
280
     0
102
RTVSPost2010PropOp34
 70
     1
102
RTVSPost2010Prop35
280
     0
102
RTVSPost2010PropOp35
 70
     1
102
RTVSPost2010Prop36
280
     0
102
RTVSPost2010PropOp36
 70
     1
102
RTVSPost2010Prop37
 90
       50
102
RTVSPost2010PropOp37
 70
     1
102
RTVSPost2010Prop38
140
0.0
102
RTVSPost2010PropOp38
 70
     1
102
RTVSPost2010Prop39
140
1.0
102
RTVSPost2010PropOp39
 70
     1
102
RTVSPost2010Prop40
 90
        0
102
RTVSPost2010PropOp40
 70
     1
102
RTVSPost2010Prop41ColorIndex
 90
       18
102
RTVSPost2010Prop41ColorRGB
 90
        0
102
RTVSPost2010PropOp41
 70
     1
102
RTVSPost2010Prop42
 90
       50
102
RTVSPost2010PropOp42
 70
     1
102
RTVSPost2010Prop43
 90
        3
102
RTVSPost2010PropOp43
 70
     1
102
RTVSPost2010Prop44ColorIndex
 90
        5
102
RTVSPost2010Prop44ColorRGB
 90
      255
102
RTVSPost2010PropOp44
 70
     1
102
RTVSPost2010Prop45
280
     0
102
RTVSPost2010PropOp45
 70
     1
102
RTVSPost2010Prop46
 90
       50
102
RTVSPost2010PropOp46
 70
     1
102
RTVSPost2010Prop47
 90
       50
102
RTVSPost2010PropOp47
 70
     1
102
RTVSPost2010Prop48
 90
       50
102
RTVSPost2010PropOp48
 70
     1
102
RTVSPost2010Prop49
280
     0
102
RTVSPost2010PropOp49
 70
     1
102
RTVSPost2010Prop50
 90
       50
102
RTVSPost2010PropOp50
 70
     1
102
RTVSPost2010Prop51ColorIndex
 90
      256
102
RTVSPost2010Prop51ColorRGB
 90
-16777216
102
RTVSPost2010PropOp51
 70
     0
102
RTVSPost2010Prop52
140
1.0
102
RTVSPost2010PropOp52
 70
     0
102
RTVSPost2010Prop53
 90
        2
102
RTVSPost2010PropOp53
 70
     1
102
RTVSPost2010Prop54
  1
strokes_ogs.tif
102
RTVSPost2010PropOp54
 70
     1
102
RTVSPost2010Prop55
280
     0
102
RTVSPost2010PropOp55
 70
     1
102
RTVSPost2010Prop56
140
1.0
102
RTVSPost2010PropOp56
 70
     1
102
RTVSPost2010Prop57
140
1.0
102
RTVSPost2010PropOp57
 70
     1
  0
XRECORD
  5
107
102
{ACAD_REACTORS
330
106
102
}
330
106
100
AcDbXrecord
280
     1
102
RTVSPost2010Prop28
280
     0
102
RTVSPost2010PropOp28
 70
     1
102
RTVSPost2010Prop29
280
     1
102
RTVSPost2010PropOp29
 70
     1
102
RTVSPost2010Prop30
280
     1
102
RTVSPost2010PropOp30
 70
     1
102
RTVSPost2010Prop31
280
     0
102
RTVSPost2010PropOp31
 70
     1
102
RTVSPost2010Prop32
280
     0
102
RTVSPost2010PropOp32
 70
     1
102
RTVSPost2010Prop33
280
     0
102
RTVSPost2010PropOp33
 70
     1
102
RTVSPost2010Prop34
280
     0
102
RTVSPost2010PropOp34
 70
     1
102
RTVSPost2010Prop35
280
     0
102
RTVSPost2010PropOp35
 70
     1
102
RTVSPost2010Prop36
280
     0
102
RTVSPost2010PropOp36
 70
     1
102
RTVSPost2010Prop37
 90
       50
102
RTVSPost2010PropOp37
 70
     1
102
RTVSPost2010Prop38
140
0.0
102
RTVSPost2010PropOp38
 70
     1
102
RTVSPost2010Prop39
140
1.0
102
RTVSPost2010PropOp39
 70
     1
102
RTVSPost2010Prop40
 90
        0
102
RTVSPost2010PropOp40
 70
     1
102
RTVSPost2010Prop41ColorIndex
 90
       18
102
RTVSPost2010Prop41ColorRGB
 90
        0
102
RTVSPost2010PropOp41
 70
     1
102
RTVSPost2010Prop42
 90
       50
102
RTVSPost2010PropOp42
 70
     1
102
RTVSPost2010Prop43
 90
        3
102
RTVSPost2010PropOp43
 70
     1
102
RTVSPost2010Prop44ColorIndex
 90
        5
102
RTVSPost2010Prop44ColorRGB
 90
      255
102
RTVSPost2010PropOp44
 70
     1
102
RTVSPost2010Prop45
280
     0
102
RTVSPost2010PropOp45
 70
     1
102
RTVSPost2010Prop46
 90
       50
102
RTVSPost2010PropOp46
 70
     1
102
RTVSPost2010Prop47
 90
       50
102
RTVSPost2010PropOp47
 70
     1
102
RTVSPost2010Prop48
 90
       50
102
RTVSPost2010PropOp48
 70
     1
102
RTVSPost2010Prop49
280
     0
102
RTVSPost2010PropOp49
 70
     1
102
RTVSPost2010Prop50
 90
       50
102
RTVSPost2010PropOp50
 70
     1
102
RTVSPost2010Prop51ColorIndex
 90
      256
102
RTVSPost2010Prop51ColorRGB
 90
-16777216
102
RTVSPost2010PropOp51
 70
     0
102
RTVSPost2010Prop52
140
1.0
102
RTVSPost2010PropOp52
 70
     0
102
RTVSPost2010Prop53
 90
        2
102
RTVSPost2010PropOp53
 70
     1
102
RTVSPost2010Prop54
  1
strokes_ogs.tif
102
RTVSPost2010PropOp54
 70
     1
102
RTVSPost2010Prop55
280
     0
102
RTVSPost2010PropOp55
 70
     1
102
RTVSPost2010Prop56
140
1.0
102
RTVSPost2010PropOp56
 70
     1
102
RTVSPost2010Prop57
140
1.0
102
RTVSPost2010PropOp57
 70
     1
  0
XRECORD
  5
117
102
{ACAD_REACTORS
330
116
102
}
330
116
100
AcDbXrecord
280
     1
102
RTVSPost2010Prop28
280
     0
102
RTVSPost2010PropOp28
 70
     0
102
RTVSPost2010Prop29
280
     1
102
RTVSPost2010PropOp29
 70
     0
102
RTVSPost2010Prop30
280
     1
102
RTVSPost2010PropOp30
 70
     0
102
RTVSPost2010Prop31
280
     0
102
RTVSPost2010PropOp31
 70
     0
102
RTVSPost2010Prop32
280
     0
102
RTVSPost2010PropOp32
 70
     0
102
RTVSPost2010Prop33
280
     0
102
RTVSPost2010PropOp33
 70
     0
102
RTVSPost2010Prop34
280
     0
102
RTVSPost2010PropOp34
 70
     0
102
RTVSPost2010Prop35
280
     0
102
RTVSPost2010PropOp35
 70
     0
102
RTVSPost2010Prop36
280
     0
102
RTVSPost2010PropOp36
 70
     0
102
RTVSPost2010Prop37
 90
       50
102
RTVSPost2010PropOp37
 70
     0
102
RTVSPost2010Prop38
140
0.0
102
RTVSPost2010PropOp38
 70
     0
102
RTVSPost2010Prop39
140
1.0
102
RTVSPost2010PropOp39
 70
     0
102
RTVSPost2010Prop40
 90
        0
102
RTVSPost2010PropOp40
 70
     0
102
RTVSPost2010Prop41ColorIndex
 90
       18
102
RTVSPost2010Prop41ColorRGB
 90
        0
102
RTVSPost2010PropOp41
 70
     0
102
RTVSPost2010Prop42
 90
       50
102
RTVSPost2010PropOp42
 70
     0
102
RTVSPost2010Prop43
 90
        3
102
RTVSPost2010PropOp43
 70
     0
102
RTVSPost2010Prop44ColorIndex
 90
        5
102
RTVSPost2010Prop44ColorRGB
 90
      255
102
RTVSPost2010PropOp44
 70
     0
102
RTVSPost2010Prop45
280
     0
102
RTVSPost2010PropOp45
 70
     0
102
RTVSPost2010Prop46
 90
       50
102
RTVSPost2010PropOp46
 70
     0
102
RTVSPost2010Prop47
 90
       50
102
RTVSPost2010PropOp47
 70
     0
102
RTVSPost2010Prop48
 90
       50
102
RTVSPost2010PropOp48
 70
     0
102
RTVSPost2010Prop49
280
     0
102
RTVSPost2010PropOp49
 70
     0
102
RTVSPost2010Prop50
 90
       50
102
RTVSPost2010PropOp50
 70
     0
102
RTVSPost2010Prop51ColorIndex
 90
      256
102
RTVSPost2010Prop51ColorRGB
 90
-16777216
102
RTVSPost2010PropOp51
 70
     0
102
RTVSPost2010Prop52
140
1.0
102
RTVSPost2010PropOp52
 70
     0
102
RTVSPost2010Prop53
 90
        2
102
RTVSPost2010PropOp53
 70
     0
102
RTVSPost2010Prop54
  1
strokes_ogs.tif
102
RTVSPost2010PropOp54
 70
     0
102
RTVSPost2010Prop55
280
     0
102
RTVSPost2010PropOp55
 70
     0
102
RTVSPost2010Prop56
140
1.0
102
RTVSPost2010PropOp56
 70
     0
102
RTVSPost2010Prop57
140
1.0
102
RTVSPost2010PropOp57
 70
     0
  0
XRECORD
  5
10F
102
{ACAD_REACTORS
330
10E
102
}
330
10E
100
AcDbXrecord
280
     1
102
RTVSPost2010Prop28
280
     0
102
RTVSPost2010PropOp28
 70
     1
102
RTVSPost2010Prop29
280
     1
102
RTVSPost2010PropOp29
 70
     1
102
RTVSPost2010Prop30
280
     1
102
RTVSPost2010PropOp30
 70
     1
102
RTVSPost2010Prop31
280
     0
102
RTVSPost2010PropOp31
 70
     1
102
RTVSPost2010Prop32
280
     0
102
RTVSPost2010PropOp32
 70
     1
102
RTVSPost2010Prop33
280
     0
102
RTVSPost2010PropOp33
 70
     1
102
RTVSPost2010Prop34
280
     0
102
RTVSPost2010PropOp34
 70
     1
102
RTVSPost2010Prop35
280
     0
102
RTVSPost2010PropOp35
 70
     1
102
RTVSPost2010Prop36
280
     0
102
RTVSPost2010PropOp36
 70
     1
102
RTVSPost2010Prop37
 90
       50
102
RTVSPost2010PropOp37
 70
     1
102
RTVSPost2010Prop38
140
0.0
102
RTVSPost2010PropOp38
 70
     1
102
RTVSPost2010Prop39
140
1.0
102
RTVSPost2010PropOp39
 70
     1
102
RTVSPost2010Prop40
 90
        0
102
RTVSPost2010PropOp40
 70
     1
102
RTVSPost2010Prop41ColorIndex
 90
       18
102
RTVSPost2010Prop41ColorRGB
 90
        0
102
RTVSPost2010PropOp41
 70
     1
102
RTVSPost2010Prop42
 90
       50
102
RTVSPost2010PropOp42
 70
     1
102
RTVSPost2010Prop43
 90
        3
102
RTVSPost2010PropOp43
 70
     1
102
RTVSPost2010Prop44ColorIndex
 90
        5
102
RTVSPost2010Prop44ColorRGB
 90
      255
102
RTVSPost2010PropOp44
 70
     1
102
RTVSPost2010Prop45
280
     0
102
RTVSPost2010PropOp45
 70
     1
102
RTVSPost2010Prop46
 90
       50
102
RTVSPost2010PropOp46
 70
     1
102
RTVSPost2010Prop47
 90
       50
102
RTVSPost2010PropOp47
 70
     1
102
RTVSPost2010Prop48
 90
       50
102
RTVSPost2010PropOp48
 70
     1
102
RTVSPost2010Prop49
280
     0
102
RTVSPost2010PropOp49
 70
     1
102
RTVSPost2010Prop50
 90
       50
102
RTVSPost2010PropOp50
 70
     1
102
RTVSPost2010Prop51ColorIndex
 90
      256
102
RTVSPost2010Prop51ColorRGB
 90
-16777216
102
RTVSPost2010PropOp51
 70
     0
102
RTVSPost2010Prop52
140
1.0
102
RTVSPost2010PropOp52
 70
     0
102
RTVSPost2010Prop53
 90
        2
102
RTVSPost2010PropOp53
 70
     1
102
RTVSPost2010Prop54
  1
strokes_ogs.tif
102
RTVSPost2010PropOp54
 70
     1
102
RTVSPost2010Prop55
280
     0
102
RTVSPost2010PropOp55
 70
     1
102
RTVSPost2010Prop56
140
1.0
102
RTVSPost2010PropOp56
 70
     1
102
RTVSPost2010Prop57
140
1.0
102
RTVSPost2010PropOp57
 70
     1
  0
XRECORD
  5
F3
102
{ACAD_REACTORS
330
F2
102
}
330
F2
100
AcDbXrecord
280
     1
102
RTVSPost2010Prop28
280
     0
102
RTVSPost2010PropOp28
 70
     1
102
RTVSPost2010Prop29
280
     1
102
RTVSPost2010PropOp29
 70
     1
102
RTVSPost2010Prop30
280
     1
102
RTVSPost2010PropOp30
 70
     1
102
RTVSPost2010Prop31
280
     0
102
RTVSPost2010PropOp31
 70
     1
102
RTVSPost2010Prop32
280
     0
102
RTVSPost2010PropOp32
 70
     1
102
RTVSPost2010Prop33
280
     0
102
RTVSPost2010PropOp33
 70
     1
102
RTVSPost2010Prop34
280
     0
102
RTVSPost2010PropOp34
 70
     1
102
RTVSPost2010Prop35
280
     0
102
RTVSPost2010PropOp35
 70
     1
102
RTVSPost2010Prop36
280
     0
102
RTVSPost2010PropOp36
 70
     1
102
RTVSPost2010Prop37
 90
       50
102
RTVSPost2010PropOp37
 70
     1
102
RTVSPost2010Prop38
140
0.0
102
RTVSPost2010PropOp38
 70
     1
102
RTVSPost2010Prop39
140
1.0
102
RTVSPost2010PropOp39
 70
     1
102
RTVSPost2010Prop40
 90
        0
102
RTVSPost2010PropOp40
 70
     1
102
RTVSPost2010Prop41ColorIndex
 90
       18
102
RTVSPost2010Prop41ColorRGB
 90
        0
102
RTVSPost2010PropOp41
 70
     1
102
RTVSPost2010Prop42
 90
       50
102
RTVSPost2010PropOp42
 70
     1
102
RTVSPost2010Prop43
 90
        3
102
RTVSPost2010PropOp43
 70
     1
102
RTVSPost2010Prop44ColorIndex
 90
        5
102
RTVSPost2010Prop44ColorRGB
 90
      255
102
RTVSPost2010PropOp44
 70
     1
102
RTVSPost2010Prop45
280
     0
102
RTVSPost2010PropOp45
 70
     1
102
RTVSPost2010Prop46
 90
       50
102
RTVSPost2010PropOp46
 70
     1
102
RTVSPost2010Prop47
 90
       50
102
RTVSPost2010PropOp47
 70
     1
102
RTVSPost2010Prop48
 90
       50
102
RTVSPost2010PropOp48
 70
     1
102
RTVSPost2010Prop49
280
     0
102
RTVSPost2010PropOp49
 70
     1
102
RTVSPost2010Prop50
 90
       50
102
RTVSPost2010PropOp50
 70
     1
102
RTVSPost2010Prop51ColorIndex
 90
      256
102
RTVSPost2010Prop51ColorRGB
 90
-16777216
102
RTVSPost2010PropOp51
 70
     0
102
RTVSPost2010Prop52
140
1.0
102
RTVSPost2010PropOp52
 70
     0
102
RTVSPost2010Prop53
 90
        2
102
RTVSPost2010PropOp53
 70
     1
102
RTVSPost2010Prop54
  1
strokes_ogs.tif
102
RTVSPost2010PropOp54
 70
     1
102
RTVSPost2010Prop55
280
     0
102
RTVSPost2010PropOp55
 70
     1
102
RTVSPost2010Prop56
140
1.0
102
RTVSPost2010PropOp56
 70
     1
102
RTVSPost2010Prop57
140
1.0
102
RTVSPost2010PropOp57
 70
     1
  0
XRECORD
  5
F5
102
{ACAD_REACTORS
330
F4
102
}
330
F4
100
AcDbXrecord
280
     1
102
RTVSPost2010Prop28
280
     0
102
RTVSPost2010PropOp28
 70
     1
102
RTVSPost2010Prop29
280
     1
102
RTVSPost2010PropOp29
 70
     1
102
RTVSPost2010Prop30
280
     1
102
RTVSPost2010PropOp30
 70
     1
102
RTVSPost2010Prop31
280
     0
102
RTVSPost2010PropOp31
 70
     1
102
RTVSPost2010Prop32
280
     0
102
RTVSPost2010PropOp32
 70
     1
102
RTVSPost2010Prop33
280
     0
102
RTVSPost2010PropOp33
 70
     1
102
RTVSPost2010Prop34
280
     0
102
RTVSPost2010PropOp34
 70
     1
102
RTVSPost2010Prop35
280
     0
102
RTVSPost2010PropOp35
 70
     1
102
RTVSPost2010Prop36
280
     0
102
RTVSPost2010PropOp36
 70
     1
102
RTVSPost2010Prop37
 90
       50
102
RTVSPost2010PropOp37
 70
     1
102
RTVSPost2010Prop38
140
0.0
102
RTVSPost2010PropOp38
 70
     1
102
RTVSPost2010Prop39
140
1.0
102
RTVSPost2010PropOp39
 70
     1
102
RTVSPost2010Prop40
 90
        0
102
RTVSPost2010PropOp40
 70
     1
102
RTVSPost2010Prop41ColorIndex
 90
       18
102
RTVSPost2010Prop41ColorRGB
 90
        0
102
RTVSPost2010PropOp41
 70
     1
102
RTVSPost2010Prop42
 90
       50
102
RTVSPost2010PropOp42
 70
     1
102
RTVSPost2010Prop43
 90
        3
102
RTVSPost2010PropOp43
 70
     1
102
RTVSPost2010Prop44ColorIndex
 90
        5
102
RTVSPost2010Prop44ColorRGB
 90
      255
102
RTVSPost2010PropOp44
 70
     1
102
RTVSPost2010Prop45
280
     0
102
RTVSPost2010PropOp45
 70
     1
102
RTVSPost2010Prop46
 90
       50
102
RTVSPost2010PropOp46
 70
     1
102
RTVSPost2010Prop47
 90
       50
102
RTVSPost2010PropOp47
 70
     1
102
RTVSPost2010Prop48
 90
       50
102
RTVSPost2010PropOp48
 70
     1
102
RTVSPost2010Prop49
280
     0
102
RTVSPost2010PropOp49
 70
     1
102
RTVSPost2010Prop50
 90
       50
102
RTVSPost2010PropOp50
 70
     1
102
RTVSPost2010Prop51ColorIndex
 90
      256
102
RTVSPost2010Prop51ColorRGB
 90
-16777216
102
RTVSPost2010PropOp51
 70
     0
102
RTVSPost2010Prop52
140
1.0
102
RTVSPost2010PropOp52
 70
     0
102
RTVSPost2010Prop53
 90
        2
102
RTVSPost2010PropOp53
 70
     1
102
RTVSPost2010Prop54
  1
strokes_ogs.tif
102
RTVSPost2010PropOp54
 70
     1
102
RTVSPost2010Prop55
280
     0
102
RTVSPost2010PropOp55
 70
     1
102
RTVSPost2010Prop56
140
1.0
102
RTVSPost2010PropOp56
 70
     1
102
RTVSPost2010Prop57
140
1.0
102
RTVSPost2010PropOp57
 70
     1
  0
XRECORD
  5
F7
102
{ACAD_REACTORS
330
F6
102
}
330
F6
100
AcDbXrecord
280
     1
102
RTVSPost2010Prop28
280
     0
102
RTVSPost2010PropOp28
 70
     1
102
RTVSPost2010Prop29
280
     1
102
RTVSPost2010PropOp29
 70
     1
102
RTVSPost2010Prop30
280
     1
102
RTVSPost2010PropOp30
 70
     1
102
RTVSPost2010Prop31
280
     0
102
RTVSPost2010PropOp31
 70
     1
102
RTVSPost2010Prop32
280
     0
102
RTVSPost2010PropOp32
 70
     1
102
RTVSPost2010Prop33
280
     0
102
RTVSPost2010PropOp33
 70
     1
102
RTVSPost2010Prop34
280
     0
102
RTVSPost2010PropOp34
 70
     1
102
RTVSPost2010Prop35
280
     0
102
RTVSPost2010PropOp35
 70
     1
102
RTVSPost2010Prop36
280
     0
102
RTVSPost2010PropOp36
 70
     1
102
RTVSPost2010Prop37
 90
       50
102
RTVSPost2010PropOp37
 70
     1
102
RTVSPost2010Prop38
140
0.0
102
RTVSPost2010PropOp38
 70
     1
102
RTVSPost2010Prop39
140
1.0
102
RTVSPost2010PropOp39
 70
     1
102
RTVSPost2010Prop40
 90
        0
102
RTVSPost2010PropOp40
 70
     1
102
RTVSPost2010Prop41ColorIndex
 90
       18
102
RTVSPost2010Prop41ColorRGB
 90
        0
102
RTVSPost2010PropOp41
 70
     1
102
RTVSPost2010Prop42
 90
       50
102
RTVSPost2010PropOp42
 70
     1
102
RTVSPost2010Prop43
 90
        3
102
RTVSPost2010PropOp43
 70
     1
102
RTVSPost2010Prop44ColorIndex
 90
        5
102
RTVSPost2010Prop44ColorRGB
 90
      255
102
RTVSPost2010PropOp44
 70
     1
102
RTVSPost2010Prop45
280
     0
102
RTVSPost2010PropOp45
 70
     1
102
RTVSPost2010Prop46
 90
       50
102
RTVSPost2010PropOp46
 70
     1
102
RTVSPost2010Prop47
 90
       50
102
RTVSPost2010PropOp47
 70
     1
102
RTVSPost2010Prop48
 90
       50
102
RTVSPost2010PropOp48
 70
     1
102
RTVSPost2010Prop49
280
     0
102
RTVSPost2010PropOp49
 70
     1
102
RTVSPost2010Prop50
 90
       50
102
RTVSPost2010PropOp50
 70
     1
102
RTVSPost2010Prop51ColorIndex
 90
      256
102
RTVSPost2010Prop51ColorRGB
 90
-16777216
102
RTVSPost2010PropOp51
 70
     0
102
RTVSPost2010Prop52
140
1.0
102
RTVSPost2010PropOp52
 70
     0
102
RTVSPost2010Prop53
 90
        2
102
RTVSPost2010PropOp53
 70
     1
102
RTVSPost2010Prop54
  1
strokes_ogs.tif
102
RTVSPost2010PropOp54
 70
     1
102
RTVSPost2010Prop55
280
     0
102
RTVSPost2010PropOp55
 70
     1
102
RTVSPost2010Prop56
140
1.0
102
RTVSPost2010PropOp56
 70
     1
102
RTVSPost2010Prop57
140
1.0
102
RTVSPost2010PropOp57
 70
     1
  0
XRECORD
  5
F9
102
{ACAD_REACTORS
330
F8
102
}
330
F8
100
AcDbXrecord
280
     1
102
RTVSPost2010Prop28
280
     0
102
RTVSPost2010PropOp28
 70
     1
102
RTVSPost2010Prop29
280
     1
102
RTVSPost2010PropOp29
 70
     1
102
RTVSPost2010Prop30
280
     1
102
RTVSPost2010PropOp30
 70
     1
102
RTVSPost2010Prop31
280
     0
102
RTVSPost2010PropOp31
 70
     1
102
RTVSPost2010Prop32
280
     0
102
RTVSPost2010PropOp32
 70
     1
102
RTVSPost2010Prop33
280
     0
102
RTVSPost2010PropOp33
 70
     1
102
RTVSPost2010Prop34
280
     0
102
RTVSPost2010PropOp34
 70
     1
102
RTVSPost2010Prop35
280
     0
102
RTVSPost2010PropOp35
 70
     1
102
RTVSPost2010Prop36
280
     0
102
RTVSPost2010PropOp36
 70
     1
102
RTVSPost2010Prop37
 90
       50
102
RTVSPost2010PropOp37
 70
     1
102
RTVSPost2010Prop38
140
0.0
102
RTVSPost2010PropOp38
 70
     1
102
RTVSPost2010Prop39
140
1.0
102
RTVSPost2010PropOp39
 70
     1
102
RTVSPost2010Prop40
 90
        0
102
RTVSPost2010PropOp40
 70
     1
102
RTVSPost2010Prop41ColorIndex
 90
       18
102
RTVSPost2010Prop41ColorRGB
 90
        0
102
RTVSPost2010PropOp41
 70
     1
102
RTVSPost2010Prop42
 90
       50
102
RTVSPost2010PropOp42
 70
     1
102
RTVSPost2010Prop43
 90
        3
102
RTVSPost2010PropOp43
 70
     1
102
RTVSPost2010Prop44ColorIndex
 90
        5
102
RTVSPost2010Prop44ColorRGB
 90
      255
102
RTVSPost2010PropOp44
 70
     1
102
RTVSPost2010Prop45
280
     0
102
RTVSPost2010PropOp45
 70
     1
102
RTVSPost2010Prop46
 90
       50
102
RTVSPost2010PropOp46
 70
     1
102
RTVSPost2010Prop47
 90
       50
102
RTVSPost2010PropOp47
 70
     1
102
RTVSPost2010Prop48
 90
       50
102
RTVSPost2010PropOp48
 70
     1
102
RTVSPost2010Prop49
280
     0
102
RTVSPost2010PropOp49
 70
     1
102
RTVSPost2010Prop50
 90
       50
102
RTVSPost2010PropOp50
 70
     1
102
RTVSPost2010Prop51ColorIndex
 90
      256
102
RTVSPost2010Prop51ColorRGB
 90
-16777216
102
RTVSPost2010PropOp51
 70
     0
102
RTVSPost2010Prop52
140
1.0
102
RTVSPost2010PropOp52
 70
     0
102
RTVSPost2010Prop53
 90
        2
102
RTVSPost2010PropOp53
 70
     1
102
RTVSPost2010Prop54
  1
strokes_ogs.tif
102
RTVSPost2010PropOp54
 70
     1
102
RTVSPost2010Prop55
280
     0
102
RTVSPost2010PropOp55
 70
     1
102
RTVSPost2010Prop56
140
1.0
102
RTVSPost2010PropOp56
 70
     1
102
RTVSPost2010Prop57
140
1.0
102
RTVSPost2010PropOp57
 70
     1
  0
XRECORD
  5
FF
102
{ACAD_REACTORS
330
FE
102
}
330
FE
100
AcDbXrecord
280
     1
102
RTVSPost2010Prop28
280
     0
102
RTVSPost2010PropOp28
 70
     1
102
RTVSPost2010Prop29
280
     1
102
RTVSPost2010PropOp29
 70
     1
102
RTVSPost2010Prop30
280
     1
102
RTVSPost2010PropOp30
 70
     1
102
RTVSPost2010Prop31
280
     0
102
RTVSPost2010PropOp31
 70
     1
102
RTVSPost2010Prop32
280
     0
102
RTVSPost2010PropOp32
 70
     1
102
RTVSPost2010Prop33
280
     0
102
RTVSPost2010PropOp33
 70
     1
102
RTVSPost2010Prop34
280
     0
102
RTVSPost2010PropOp34
 70
     1
102
RTVSPost2010Prop35
280
     0
102
RTVSPost2010PropOp35
 70
     1
102
RTVSPost2010Prop36
280
     0
102
RTVSPost2010PropOp36
 70
     1
102
RTVSPost2010Prop37
 90
       50
102
RTVSPost2010PropOp37
 70
     1
102
RTVSPost2010Prop38
140
0.0
102
RTVSPost2010PropOp38
 70
     1
102
RTVSPost2010Prop39
140
1.0
102
RTVSPost2010PropOp39
 70
     1
102
RTVSPost2010Prop40
 90
        0
102
RTVSPost2010PropOp40
 70
     1
102
RTVSPost2010Prop41ColorIndex
 90
       18
102
RTVSPost2010Prop41ColorRGB
 90
        0
102
RTVSPost2010PropOp41
 70
     1
102
RTVSPost2010Prop42
 90
       50
102
RTVSPost2010PropOp42
 70
     1
102
RTVSPost2010Prop43
 90
        3
102
RTVSPost2010PropOp43
 70
     1
102
RTVSPost2010Prop44ColorIndex
 90
        5
102
RTVSPost2010Prop44ColorRGB
 90
      255
102
RTVSPost2010PropOp44
 70
     1
102
RTVSPost2010Prop45
280
     0
102
RTVSPost2010PropOp45
 70
     1
102
RTVSPost2010Prop46
 90
       50
102
RTVSPost2010PropOp46
 70
     1
102
RTVSPost2010Prop47
 90
       50
102
RTVSPost2010PropOp47
 70
     1
102
RTVSPost2010Prop48
 90
       50
102
RTVSPost2010PropOp48
 70
     1
102
RTVSPost2010Prop49
280
     0
102
RTVSPost2010PropOp49
 70
     1
102
RTVSPost2010Prop50
 90
       50
102
RTVSPost2010PropOp50
 70
     1
102
RTVSPost2010Prop51ColorIndex
 90
      256
102
RTVSPost2010Prop51ColorRGB
 90
-16777216
102
RTVSPost2010PropOp51
 70
     0
102
RTVSPost2010Prop52
140
1.0
102
RTVSPost2010PropOp52
 70
     0
102
RTVSPost2010Prop53
 90
        2
102
RTVSPost2010PropOp53
 70
     1
102
RTVSPost2010Prop54
  1
strokes_ogs.tif
102
RTVSPost2010PropOp54
 70
     1
102
RTVSPost2010Prop55
280
     0
102
RTVSPost2010PropOp55
 70
     1
102
RTVSPost2010Prop56
140
1.0
102
RTVSPost2010PropOp56
 70
     1
102
RTVSPost2010Prop57
140
1.0
102
RTVSPost2010PropOp57
 70
     1
  0
XRECORD
  5
113
102
{ACAD_REACTORS
330
112
102
}
330
112
100
AcDbXrecord
280
     1
102
RTVSPost2010Prop28
280
     0
102
RTVSPost2010PropOp28
 70
     0
102
RTVSPost2010Prop29
280
     1
102
RTVSPost2010PropOp29
 70
     0
102
RTVSPost2010Prop30
280
     1
102
RTVSPost2010PropOp30
 70
     0
102
RTVSPost2010Prop31
280
     0
102
RTVSPost2010PropOp31
 70
     0
102
RTVSPost2010Prop32
280
     0
102
RTVSPost2010PropOp32
 70
     0
102
RTVSPost2010Prop33
280
     0
102
RTVSPost2010PropOp33
 70
     0
102
RTVSPost2010Prop34
280
     0
102
RTVSPost2010PropOp34
 70
     0
102
RTVSPost2010Prop35
280
     0
102
RTVSPost2010PropOp35
 70
     0
102
RTVSPost2010Prop36
280
     0
102
RTVSPost2010PropOp36
 70
     0
102
RTVSPost2010Prop37
 90
       50
102
RTVSPost2010PropOp37
 70
     0
102
RTVSPost2010Prop38
140
0.0
102
RTVSPost2010PropOp38
 70
     0
102
RTVSPost2010Prop39
140
1.0
102
RTVSPost2010PropOp39
 70
     0
102
RTVSPost2010Prop40
 90
        0
102
RTVSPost2010PropOp40
 70
     0
102
RTVSPost2010Prop41ColorIndex
 90
       18
102
RTVSPost2010Prop41ColorRGB
 90
        0
102
RTVSPost2010PropOp41
 70
     0
102
RTVSPost2010Prop42
 90
       50
102
RTVSPost2010PropOp42
 70
     0
102
RTVSPost2010Prop43
 90
        3
102
RTVSPost2010PropOp43
 70
     0
102
RTVSPost2010Prop44ColorIndex
 90
        5
102
RTVSPost2010Prop44ColorRGB
 90
      255
102
RTVSPost2010PropOp44
 70
     0
102
RTVSPost2010Prop45
280
     0
102
RTVSPost2010PropOp45
 70
     0
102
RTVSPost2010Prop46
 90
       50
102
RTVSPost2010PropOp46
 70
     0
102
RTVSPost2010Prop47
 90
       50
102
RTVSPost2010PropOp47
 70
     0
102
RTVSPost2010Prop48
 90
       50
102
RTVSPost2010PropOp48
 70
     0
102
RTVSPost2010Prop49
280
     0
102
RTVSPost2010PropOp49
 70
     0
102
RTVSPost2010Prop50
 90
       50
102
RTVSPost2010PropOp50
 70
     0
102
RTVSPost2010Prop51ColorIndex
 90
      256
102
RTVSPost2010Prop51ColorRGB
 90
-16777216
102
RTVSPost2010PropOp51
 70
     0
102
RTVSPost2010Prop52
140
1.0
102
RTVSPost2010PropOp52
 70
     0
102
RTVSPost2010Prop53
 90
        2
102
RTVSPost2010PropOp53
 70
     0
102
RTVSPost2010Prop54
  1
strokes_ogs.tif
102
RTVSPost2010PropOp54
 70
     0
102
RTVSPost2010Prop55
280
     0
102
RTVSPost2010PropOp55
 70
     0
102
RTVSPost2010Prop56
140
1.0
102
RTVSPost2010PropOp56
 70
     0
102
RTVSPost2010Prop57
140
1.0
102
RTVSPost2010PropOp57
 70
     0
  0
XRECORD
  5
10D
102
{ACAD_REACTORS
330
10C
102
}
330
10C
100
AcDbXrecord
280
     1
102
RTVSPost2010Prop28
280
     0
102
RTVSPost2010PropOp28
 70
     1
102
RTVSPost2010Prop29
280
     1
102
RTVSPost2010PropOp29
 70
     1
102
RTVSPost2010Prop30
280
     1
102
RTVSPost2010PropOp30
 70
     1
102
RTVSPost2010Prop31
280
     0
102
RTVSPost2010PropOp31
 70
     1
102
RTVSPost2010Prop32
280
     0
102
RTVSPost2010PropOp32
 70
     1
102
RTVSPost2010Prop33
280
     0
102
RTVSPost2010PropOp33
 70
     1
102
RTVSPost2010Prop34
280
     0
102
RTVSPost2010PropOp34
 70
     1
102
RTVSPost2010Prop35
280
     0
102
RTVSPost2010PropOp35
 70
     1
102
RTVSPost2010Prop36
280
     0
102
RTVSPost2010PropOp36
 70
     1
102
RTVSPost2010Prop37
 90
       50
102
RTVSPost2010PropOp37
 70
     1
102
RTVSPost2010Prop38
140
0.0
102
RTVSPost2010PropOp38
 70
     1
102
RTVSPost2010Prop39
140
1.0
102
RTVSPost2010PropOp39
 70
     1
102
RTVSPost2010Prop40
 90
        0
102
RTVSPost2010PropOp40
 70
     1
102
RTVSPost2010Prop41ColorIndex
 90
       18
102
RTVSPost2010Prop41ColorRGB
 90
        0
102
RTVSPost2010PropOp41
 70
     1
102
RTVSPost2010Prop42
 90
       50
102
RTVSPost2010PropOp42
 70
     1
102
RTVSPost2010Prop43
 90
        3
102
RTVSPost2010PropOp43
 70
     1
102
RTVSPost2010Prop44ColorIndex
 90
        5
102
RTVSPost2010Prop44ColorRGB
 90
      255
102
RTVSPost2010PropOp44
 70
     1
102
RTVSPost2010Prop45
280
     0
102
RTVSPost2010PropOp45
 70
     1
102
RTVSPost2010Prop46
 90
       50
102
RTVSPost2010PropOp46
 70
     1
102
RTVSPost2010Prop47
 90
       50
102
RTVSPost2010PropOp47
 70
     1
102
RTVSPost2010Prop48
 90
       50
102
RTVSPost2010PropOp48
 70
     1
102
RTVSPost2010Prop49
280
     0
102
RTVSPost2010PropOp49
 70
     1
102
RTVSPost2010Prop50
 90
       50
102
RTVSPost2010PropOp50
 70
     1
102
RTVSPost2010Prop51ColorIndex
 90
      256
102
RTVSPost2010Prop51ColorRGB
 90
-16777216
102
RTVSPost2010PropOp51
 70
     0
102
RTVSPost2010Prop52
140
1.0
102
RTVSPost2010PropOp52
 70
     0
102
RTVSPost2010Prop53
 90
        2
102
RTVSPost2010PropOp53
 70
     1
102
RTVSPost2010Prop54
  1
strokes_ogs.tif
102
RTVSPost2010PropOp54
 70
     1
102
RTVSPost2010Prop55
280
     0
102
RTVSPost2010PropOp55
 70
     1
102
RTVSPost2010Prop56
140
1.0
102
RTVSPost2010PropOp56
 70
     1
102
RTVSPost2010Prop57
140
1.0
102
RTVSPost2010PropOp57
 70
     1
  0
XRECORD
  5
115
102
{ACAD_REACTORS
330
114
102
}
330
114
100
AcDbXrecord
280
     1
102
RTVSPost2010Prop28
280
     0
102
RTVSPost2010PropOp28
 70
     0
102
RTVSPost2010Prop29
280
     1
102
RTVSPost2010PropOp29
 70
     0
102
RTVSPost2010Prop30
280
     1
102
RTVSPost2010PropOp30
 70
     0
102
RTVSPost2010Prop31
280
     0
102
RTVSPost2010PropOp31
 70
     0
102
RTVSPost2010Prop32
280
     0
102
RTVSPost2010PropOp32
 70
     0
102
RTVSPost2010Prop33
280
     0
102
RTVSPost2010PropOp33
 70
     0
102
RTVSPost2010Prop34
280
     0
102
RTVSPost2010PropOp34
 70
     0
102
RTVSPost2010Prop35
280
     0
102
RTVSPost2010PropOp35
 70
     0
102
RTVSPost2010Prop36
280
     0
102
RTVSPost2010PropOp36
 70
     0
102
RTVSPost2010Prop37
 90
       50
102
RTVSPost2010PropOp37
 70
     0
102
RTVSPost2010Prop38
140
0.0
102
RTVSPost2010PropOp38
 70
     0
102
RTVSPost2010Prop39
140
1.0
102
RTVSPost2010PropOp39
 70
     0
102
RTVSPost2010Prop40
 90
        0
102
RTVSPost2010PropOp40
 70
     0
102
RTVSPost2010Prop41ColorIndex
 90
       18
102
RTVSPost2010Prop41ColorRGB
 90
        0
102
RTVSPost2010PropOp41
 70
     0
102
RTVSPost2010Prop42
 90
       50
102
RTVSPost2010PropOp42
 70
     0
102
RTVSPost2010Prop43
 90
        3
102
RTVSPost2010PropOp43
 70
     0
102
RTVSPost2010Prop44ColorIndex
 90
        5
102
RTVSPost2010Prop44ColorRGB
 90
      255
102
RTVSPost2010PropOp44
 70
     0
102
RTVSPost2010Prop45
280
     0
102
RTVSPost2010PropOp45
 70
     0
102
RTVSPost2010Prop46
 90
       50
102
RTVSPost2010PropOp46
 70
     0
102
RTVSPost2010Prop47
 90
       50
102
RTVSPost2010PropOp47
 70
     0
102
RTVSPost2010Prop48
 90
       50
102
RTVSPost2010PropOp48
 70
     0
102
RTVSPost2010Prop49
280
     0
102
RTVSPost2010PropOp49
 70
     0
102
RTVSPost2010Prop50
 90
       50
102
RTVSPost2010PropOp50
 70
     0
102
RTVSPost2010Prop51ColorIndex
 90
      256
102
RTVSPost2010Prop51ColorRGB
 90
-16777216
102
RTVSPost2010PropOp51
 70
     0
102
RTVSPost2010Prop52
140
1.0
102
RTVSPost2010PropOp52
 70
     0
102
RTVSPost2010Prop53
 90
        2
102
RTVSPost2010PropOp53
 70
     0
102
RTVSPost2010Prop54
  1
strokes_ogs.tif
102
RTVSPost2010PropOp54
 70
     0
102
RTVSPost2010Prop55
280
     0
102
RTVSPost2010PropOp55
 70
     0
102
RTVSPost2010Prop56
140
1.0
102
RTVSPost2010PropOp56
 70
     0
102
RTVSPost2010Prop57
140
1.0
102
RTVSPost2010PropOp57
 70
     0
  0
XRECORD
  5
103
102
{ACAD_REACTORS
330
102
102
}
330
102
100
AcDbXrecord
280
     1
102
RTVSPost2010Prop28
280
     0
102
RTVSPost2010PropOp28
 70
     1
102
RTVSPost2010Prop29
280
     1
102
RTVSPost2010PropOp29
 70
     1
102
RTVSPost2010Prop30
280
     1
102
RTVSPost2010PropOp30
 70
     1
102
RTVSPost2010Prop31
280
     0
102
RTVSPost2010PropOp31
 70
     1
102
RTVSPost2010Prop32
280
     0
102
RTVSPost2010PropOp32
 70
     1
102
RTVSPost2010Prop33
280
     0
102
RTVSPost2010PropOp33
 70
     1
102
RTVSPost2010Prop34
280
     0
102
RTVSPost2010PropOp34
 70
     1
102
RTVSPost2010Prop35
280
     0
102
RTVSPost2010PropOp35
 70
     1
102
RTVSPost2010Prop36
280
     0
102
RTVSPost2010PropOp36
 70
     1
102
RTVSPost2010Prop37
 90
       50
102
RTVSPost2010PropOp37
 70
     1
102
RTVSPost2010Prop38
140
0.0
102
RTVSPost2010PropOp38
 70
     1
102
RTVSPost2010Prop39
140
1.0
102
RTVSPost2010PropOp39
 70
     1
102
RTVSPost2010Prop40
 90
        0
102
RTVSPost2010PropOp40
 70
     1
102
RTVSPost2010Prop41ColorIndex
 90
       18
102
RTVSPost2010Prop41ColorRGB
 90
        0
102
RTVSPost2010PropOp41
 70
     1
102
RTVSPost2010Prop42
 90
       50
102
RTVSPost2010PropOp42
 70
     1
102
RTVSPost2010Prop43
 90
        3
102
RTVSPost2010PropOp43
 70
     1
102
RTVSPost2010Prop44ColorIndex
 90
        5
102
RTVSPost2010Prop44ColorRGB
 90
      255
102
RTVSPost2010PropOp44
 70
     1
102
RTVSPost2010Prop45
280
     0
102
RTVSPost2010PropOp45
 70
     1
102
RTVSPost2010Prop46
 90
       50
102
RTVSPost2010PropOp46
 70
     1
102
RTVSPost2010Prop47
 90
       50
102
RTVSPost2010PropOp47
 70
     1
102
RTVSPost2010Prop48
 90
       50
102
RTVSPost2010PropOp48
 70
     1
102
RTVSPost2010Prop49
280
     0
102
RTVSPost2010PropOp49
 70
     1
102
RTVSPost2010Prop50
 90
       50
102
RTVSPost2010PropOp50
 70
     1
102
RTVSPost2010Prop51ColorIndex
 90
      256
102
RTVSPost2010Prop51ColorRGB
 90
-16777216
102
RTVSPost2010PropOp51
 70
     0
102
RTVSPost2010Prop52
140
1.0
102
RTVSPost2010PropOp52
 70
     0
102
RTVSPost2010Prop53
 90
        2
102
RTVSPost2010PropOp53
 70
     1
102
RTVSPost2010Prop54
  1
strokes_ogs.tif
102
RTVSPost2010PropOp54
 70
     1
102
RTVSPost2010Prop55
280
     0
102
RTVSPost2010PropOp55
 70
     1
102
RTVSPost2010Prop56
140
1.0
102
RTVSPost2010PropOp56
 70
     1
102
RTVSPost2010Prop57
140
1.0
102
RTVSPost2010PropOp57
 70
     1
  0
XRECORD
  5
121
102
{ACAD_REACTORS
330
120
102
}
330
120
100
AcDbXrecord
280
     1
102
RTVSPost2010Prop28
280
     0
102
RTVSPost2010PropOp28
 70
     1
102
RTVSPost2010Prop29
280
     1
102
RTVSPost2010PropOp29
 70
     1
102
RTVSPost2010Prop30
280
     1
102
RTVSPost2010PropOp30
 70
     1
102
RTVSPost2010Prop31
280
     0
102
RTVSPost2010PropOp31
 70
     1
102
RTVSPost2010Prop32
280
     0
102
RTVSPost2010PropOp32
 70
     1
102
RTVSPost2010Prop33
280
     0
102
RTVSPost2010PropOp33
 70
     1
102
RTVSPost2010Prop34
280
     0
102
RTVSPost2010PropOp34
 70
     1
102
RTVSPost2010Prop35
280
     0
102
RTVSPost2010PropOp35
 70
     1
102
RTVSPost2010Prop36
280
     0
102
RTVSPost2010PropOp36
 70
     1
102
RTVSPost2010Prop37
 90
       50
102
RTVSPost2010PropOp37
 70
     1
102
RTVSPost2010Prop38
140
0.0
102
RTVSPost2010PropOp38
 70
     1
102
RTVSPost2010Prop39
140
1.0
102
RTVSPost2010PropOp39
 70
     1
102
RTVSPost2010Prop40
 90
        0
102
RTVSPost2010PropOp40
 70
     1
102
RTVSPost2010Prop41ColorIndex
 90
       18
102
RTVSPost2010Prop41ColorRGB
 90
        0
102
RTVSPost2010PropOp41
 70
     1
102
RTVSPost2010Prop42
 90
       50
102
RTVSPost2010PropOp42
 70
     1
102
RTVSPost2010Prop43
 90
        3
102
RTVSPost2010PropOp43
 70
     1
102
RTVSPost2010Prop44ColorIndex
 90
        5
102
RTVSPost2010Prop44ColorRGB
 90
      255
102
RTVSPost2010PropOp44
 70
     1
102
RTVSPost2010Prop45
280
     0
102
RTVSPost2010PropOp45
 70
     1
102
RTVSPost2010Prop46
 90
       50
102
RTVSPost2010PropOp46
 70
     1
102
RTVSPost2010Prop47
 90
       50
102
RTVSPost2010PropOp47
 70
     1
102
RTVSPost2010Prop48
 90
       50
102
RTVSPost2010PropOp48
 70
     1
102
RTVSPost2010Prop49
280
     0
102
RTVSPost2010PropOp49
 70
     1
102
RTVSPost2010Prop50
 90
       50
102
RTVSPost2010PropOp50
 70
     1
102
RTVSPost2010Prop51ColorIndex
 90
      256
102
RTVSPost2010Prop51ColorRGB
 90
-16777216
102
RTVSPost2010PropOp51
 70
     0
102
RTVSPost2010Prop52
140
1.0
102
RTVSPost2010PropOp52
 70
     0
102
RTVSPost2010Prop53
 90
        2
102
RTVSPost2010PropOp53
 70
     1
102
RTVSPost2010Prop54
  1
strokes_ogs.tif
102
RTVSPost2010PropOp54
 70
     1
102
RTVSPost2010Prop55
280
     0
102
RTVSPost2010PropOp55
 70
     1
102
RTVSPost2010Prop56
140
1.0
102
RTVSPost2010PropOp56
 70
     1
102
RTVSPost2010Prop57
140
1.0
102
RTVSPost2010PropOp57
 70
     1
  0
XRECORD
  5
11F
102
{ACAD_REACTORS
330
11E
102
}
330
11E
100
AcDbXrecord
280
     1
102
RTVSPost2010Prop28
280
     0
102
RTVSPost2010PropOp28
 70
     1
102
RTVSPost2010Prop29
280
     1
102
RTVSPost2010PropOp29
 70
     1
102
RTVSPost2010Prop30
280
     1
102
RTVSPost2010PropOp30
 70
     1
102
RTVSPost2010Prop31
280
     0
102
RTVSPost2010PropOp31
 70
     1
102
RTVSPost2010Prop32
280
     0
102
RTVSPost2010PropOp32
 70
     1
102
RTVSPost2010Prop33
280
     0
102
RTVSPost2010PropOp33
 70
     1
102
RTVSPost2010Prop34
280
     0
102
RTVSPost2010PropOp34
 70
     1
102
RTVSPost2010Prop35
280
     0
102
RTVSPost2010PropOp35
 70
     1
102
RTVSPost2010Prop36
280
     0
102
RTVSPost2010PropOp36
 70
     1
102
RTVSPost2010Prop37
 90
       50
102
RTVSPost2010PropOp37
 70
     1
102
RTVSPost2010Prop38
140
0.0
102
RTVSPost2010PropOp38
 70
     1
102
RTVSPost2010Prop39
140
1.0
102
RTVSPost2010PropOp39
 70
     1
102
RTVSPost2010Prop40
 90
        0
102
RTVSPost2010PropOp40
 70
     1
102
RTVSPost2010Prop41ColorIndex
 90
       18
102
RTVSPost2010Prop41ColorRGB
 90
        0
102
RTVSPost2010PropOp41
 70
     1
102
RTVSPost2010Prop42
 90
       50
102
RTVSPost2010PropOp42
 70
     1
102
RTVSPost2010Prop43
 90
        3
102
RTVSPost2010PropOp43
 70
     1
102
RTVSPost2010Prop44ColorIndex
 90
        5
102
RTVSPost2010Prop44ColorRGB
 90
      255
102
RTVSPost2010PropOp44
 70
     1
102
RTVSPost2010Prop45
280
     0
102
RTVSPost2010PropOp45
 70
     1
102
RTVSPost2010Prop46
 90
       50
102
RTVSPost2010PropOp46
 70
     1
102
RTVSPost2010Prop47
 90
       50
102
RTVSPost2010PropOp47
 70
     1
102
RTVSPost2010Prop48
 90
       50
102
RTVSPost2010PropOp48
 70
     1
102
RTVSPost2010Prop49
280
     0
102
RTVSPost2010PropOp49
 70
     1
102
RTVSPost2010Prop50
 90
       50
102
RTVSPost2010PropOp50
 70
     1
102
RTVSPost2010Prop51ColorIndex
 90
      256
102
RTVSPost2010Prop51ColorRGB
 90
-16777216
102
RTVSPost2010PropOp51
 70
     0
102
RTVSPost2010Prop52
140
1.0
102
RTVSPost2010PropOp52
 70
     0
102
RTVSPost2010Prop53
 90
        2
102
RTVSPost2010PropOp53
 70
     1
102
RTVSPost2010Prop54
  1
strokes_ogs.tif
102
RTVSPost2010PropOp54
 70
     1
102
RTVSPost2010Prop55
280
     0
102
RTVSPost2010PropOp55
 70
     1
102
RTVSPost2010Prop56
140
1.0
102
RTVSPost2010PropOp56
 70
     1
102
RTVSPost2010Prop57
140
1.0
102
RTVSPost2010PropOp57
 70
     1
  0
XRECORD
  5
119
102
{ACAD_REACTORS
330
118
102
}
330
118
100
AcDbXrecord
280
     1
102
RTVSPost2010Prop28
280
     0
102
RTVSPost2010PropOp28
 70
     1
102
RTVSPost2010Prop29
280
     1
102
RTVSPost2010PropOp29
 70
     1
102
RTVSPost2010Prop30
280
     1
102
RTVSPost2010PropOp30
 70
     1
102
RTVSPost2010Prop31
280
     0
102
RTVSPost2010PropOp31
 70
     1
102
RTVSPost2010Prop32
280
     0
102
RTVSPost2010PropOp32
 70
     1
102
RTVSPost2010Prop33
280
     0
102
RTVSPost2010PropOp33
 70
     1
102
RTVSPost2010Prop34
280
     0
102
RTVSPost2010PropOp34
 70
     1
102
RTVSPost2010Prop35
280
     0
102
RTVSPost2010PropOp35
 70
     1
102
RTVSPost2010Prop36
280
     0
102
RTVSPost2010PropOp36
 70
     1
102
RTVSPost2010Prop37
 90
       50
102
RTVSPost2010PropOp37
 70
     1
102
RTVSPost2010Prop38
140
0.0
102
RTVSPost2010PropOp38
 70
     1
102
RTVSPost2010Prop39
140
1.0
102
RTVSPost2010PropOp39
 70
     1
102
RTVSPost2010Prop40
 90
        0
102
RTVSPost2010PropOp40
 70
     1
102
RTVSPost2010Prop41ColorIndex
 90
       18
102
RTVSPost2010Prop41ColorRGB
 90
        0
102
RTVSPost2010PropOp41
 70
     1
102
RTVSPost2010Prop42
 90
       50
102
RTVSPost2010PropOp42
 70
     1
102
RTVSPost2010Prop43
 90
        3
102
RTVSPost2010PropOp43
 70
     1
102
RTVSPost2010Prop44ColorIndex
 90
        5
102
RTVSPost2010Prop44ColorRGB
 90
      255
102
RTVSPost2010PropOp44
 70
     1
102
RTVSPost2010Prop45
280
     0
102
RTVSPost2010PropOp45
 70
     1
102
RTVSPost2010Prop46
 90
       50
102
RTVSPost2010PropOp46
 70
     1
102
RTVSPost2010Prop47
 90
       50
102
RTVSPost2010PropOp47
 70
     1
102
RTVSPost2010Prop48
 90
       50
102
RTVSPost2010PropOp48
 70
     1
102
RTVSPost2010Prop49
280
     0
102
RTVSPost2010PropOp49
 70
     1
102
RTVSPost2010Prop50
 90
       50
102
RTVSPost2010PropOp50
 70
     1
102
RTVSPost2010Prop51ColorIndex
 90
      256
102
RTVSPost2010Prop51ColorRGB
 90
-16777216
102
RTVSPost2010PropOp51
 70
     0
102
RTVSPost2010Prop52
140
1.0
102
RTVSPost2010PropOp52
 70
     0
102
RTVSPost2010Prop53
 90
        2
102
RTVSPost2010PropOp53
 70
     1
102
RTVSPost2010Prop54
  1
strokes_ogs.tif
102
RTVSPost2010PropOp54
 70
     1
102
RTVSPost2010Prop55
280
     0
102
RTVSPost2010PropOp55
 70
     1
102
RTVSPost2010Prop56
140
1.0
102
RTVSPost2010PropOp56
 70
     1
102
RTVSPost2010Prop57
140
1.0
102
RTVSPost2010PropOp57
 70
     1
  0
XRECORD
  5
11B
102
{ACAD_REACTORS
330
11A
102
}
330
11A
100
AcDbXrecord
280
     1
102
RTVSPost2010Prop28
280
     0
102
RTVSPost2010PropOp28
 70
     1
102
RTVSPost2010Prop29
280
     1
102
RTVSPost2010PropOp29
 70
     1
102
RTVSPost2010Prop30
280
     1
102
RTVSPost2010PropOp30
 70
     1
102
RTVSPost2010Prop31
280
     0
102
RTVSPost2010PropOp31
 70
     1
102
RTVSPost2010Prop32
280
     0
102
RTVSPost2010PropOp32
 70
     1
102
RTVSPost2010Prop33
280
     0
102
RTVSPost2010PropOp33
 70
     1
102
RTVSPost2010Prop34
280
     0
102
RTVSPost2010PropOp34
 70
     1
102
RTVSPost2010Prop35
280
     0
102
RTVSPost2010PropOp35
 70
     1
102
RTVSPost2010Prop36
280
     0
102
RTVSPost2010PropOp36
 70
     1
102
RTVSPost2010Prop37
 90
       50
102
RTVSPost2010PropOp37
 70
     1
102
RTVSPost2010Prop38
140
0.0
102
RTVSPost2010PropOp38
 70
     1
102
RTVSPost2010Prop39
140
1.0
102
RTVSPost2010PropOp39
 70
     1
102
RTVSPost2010Prop40
 90
        0
102
RTVSPost2010PropOp40
 70
     1
102
RTVSPost2010Prop41ColorIndex
 90
       18
102
RTVSPost2010Prop41ColorRGB
 90
        0
102
RTVSPost2010PropOp41
 70
     1
102
RTVSPost2010Prop42
 90
       50
102
RTVSPost2010PropOp42
 70
     1
102
RTVSPost2010Prop43
 90
        3
102
RTVSPost2010PropOp43
 70
     1
102
RTVSPost2010Prop44ColorIndex
 90
        5
102
RTVSPost2010Prop44ColorRGB
 90
      255
102
RTVSPost2010PropOp44
 70
     1
102
RTVSPost2010Prop45
280
     0
102
RTVSPost2010PropOp45
 70
     1
102
RTVSPost2010Prop46
 90
       50
102
RTVSPost2010PropOp46
 70
     1
102
RTVSPost2010Prop47
 90
       50
102
RTVSPost2010PropOp47
 70
     1
102
RTVSPost2010Prop48
 90
       50
102
RTVSPost2010PropOp48
 70
     1
102
RTVSPost2010Prop49
280
     0
102
RTVSPost2010PropOp49
 70
     1
102
RTVSPost2010Prop50
 90
       50
102
RTVSPost2010PropOp50
 70
     1
102
RTVSPost2010Prop51ColorIndex
 90
      256
102
RTVSPost2010Prop51ColorRGB
 90
-16777216
102
RTVSPost2010PropOp51
 70
     0
102
RTVSPost2010Prop52
140
1.0
102
RTVSPost2010PropOp52
 70
     0
102
RTVSPost2010Prop53
 90
        2
102
RTVSPost2010PropOp53
 70
     1
102
RTVSPost2010Prop54
  1
strokes_ogs.tif
102
RTVSPost2010PropOp54
 70
     1
102
RTVSPost2010Prop55
280
     0
102
RTVSPost2010PropOp55
 70
     1
102
RTVSPost2010Prop56
140
1.0
102
RTVSPost2010PropOp56
 70
     1
102
RTVSPost2010Prop57
140
1.0
102
RTVSPost2010PropOp57
 70
     1
  0
XRECORD
  5
10B
102
{ACAD_REACTORS
330
10A
102
}
330
10A
100
AcDbXrecord
280
     1
102
RTVSPost2010Prop28
280
     0
102
RTVSPost2010PropOp28
 70
     1
102
RTVSPost2010Prop29
280
     1
102
RTVSPost2010PropOp29
 70
     1
102
RTVSPost2010Prop30
280
     1
102
RTVSPost2010PropOp30
 70
     1
102
RTVSPost2010Prop31
280
     0
102
RTVSPost2010PropOp31
 70
     1
102
RTVSPost2010Prop32
280
     0
102
RTVSPost2010PropOp32
 70
     1
102
RTVSPost2010Prop33
280
     0
102
RTVSPost2010PropOp33
 70
     1
102
RTVSPost2010Prop34
280
     0
102
RTVSPost2010PropOp34
 70
     1
102
RTVSPost2010Prop35
280
     0
102
RTVSPost2010PropOp35
 70
     1
102
RTVSPost2010Prop36
280
     0
102
RTVSPost2010PropOp36
 70
     1
102
RTVSPost2010Prop37
 90
       50
102
RTVSPost2010PropOp37
 70
     1
102
RTVSPost2010Prop38
140
0.0
102
RTVSPost2010PropOp38
 70
     1
102
RTVSPost2010Prop39
140
1.0
102
RTVSPost2010PropOp39
 70
     1
102
RTVSPost2010Prop40
 90
        0
102
RTVSPost2010PropOp40
 70
     1
102
RTVSPost2010Prop41ColorIndex
 90
       18
102
RTVSPost2010Prop41ColorRGB
 90
        0
102
RTVSPost2010PropOp41
 70
     1
102
RTVSPost2010Prop42
 90
       50
102
RTVSPost2010PropOp42
 70
     1
102
RTVSPost2010Prop43
 90
        3
102
RTVSPost2010PropOp43
 70
     1
102
RTVSPost2010Prop44ColorIndex
 90
        5
102
RTVSPost2010Prop44ColorRGB
 90
      255
102
RTVSPost2010PropOp44
 70
     1
102
RTVSPost2010Prop45
280
     0
102
RTVSPost2010PropOp45
 70
     1
102
RTVSPost2010Prop46
 90
       50
102
RTVSPost2010PropOp46
 70
     1
102
RTVSPost2010Prop47
 90
       50
102
RTVSPost2010PropOp47
 70
     1
102
RTVSPost2010Prop48
 90
       50
102
RTVSPost2010PropOp48
 70
     1
102
RTVSPost2010Prop49
280
     0
102
RTVSPost2010PropOp49
 70
     1
102
RTVSPost2010Prop50
 90
       50
102
RTVSPost2010PropOp50
 70
     1
102
RTVSPost2010Prop51ColorIndex
 90
      256
102
RTVSPost2010Prop51ColorRGB
 90
-16777216
102
RTVSPost2010PropOp51
 70
     0
102
RTVSPost2010Prop52
140
1.0
102
RTVSPost2010PropOp52
 70
     0
102
RTVSPost2010Prop53
 90
        2
102
RTVSPost2010PropOp53
 70
     1
102
RTVSPost2010Prop54
  1
strokes_ogs.tif
102
RTVSPost2010PropOp54
 70
     1
102
RTVSPost2010Prop55
280
     0
102
RTVSPost2010PropOp55
 70
     1
102
RTVSPost2010Prop56
140
1.0
102
RTVSPost2010PropOp56
 70
     1
102
RTVSPost2010Prop57
140
1.0
102
RTVSPost2010PropOp57
 70
     1
  0
XRECORD
  5
FD
102
{ACAD_REACTORS
330
FC
102
}
330
FC
100
AcDbXrecord
280
     1
102
RTVSPost2010Prop28
280
     0
102
RTVSPost2010PropOp28
 70
     1
102
RTVSPost2010Prop29
280
     1
102
RTVSPost2010PropOp29
 70
     1
102
RTVSPost2010Prop30
280
     1
102
RTVSPost2010PropOp30
 70
     1
102
RTVSPost2010Prop31
280
     0
102
RTVSPost2010PropOp31
 70
     1
102
RTVSPost2010Prop32
280
     0
102
RTVSPost2010PropOp32
 70
     1
102
RTVSPost2010Prop33
280
     0
102
RTVSPost2010PropOp33
 70
     1
102
RTVSPost2010Prop34
280
     0
102
RTVSPost2010PropOp34
 70
     1
102
RTVSPost2010Prop35
280
     0
102
RTVSPost2010PropOp35
 70
     1
102
RTVSPost2010Prop36
280
     0
102
RTVSPost2010PropOp36
 70
     1
102
RTVSPost2010Prop37
 90
       50
102
RTVSPost2010PropOp37
 70
     1
102
RTVSPost2010Prop38
140
0.0
102
RTVSPost2010PropOp38
 70
     1
102
RTVSPost2010Prop39
140
1.0
102
RTVSPost2010PropOp39
 70
     1
102
RTVSPost2010Prop40
 90
        0
102
RTVSPost2010PropOp40
 70
     1
102
RTVSPost2010Prop41ColorIndex
 90
       18
102
RTVSPost2010Prop41ColorRGB
 90
        0
102
RTVSPost2010PropOp41
 70
     1
102
RTVSPost2010Prop42
 90
       50
102
RTVSPost2010PropOp42
 70
     1
102
RTVSPost2010Prop43
 90
        3
102
RTVSPost2010PropOp43
 70
     1
102
RTVSPost2010Prop44ColorIndex
 90
        5
102
RTVSPost2010Prop44ColorRGB
 90
      255
102
RTVSPost2010PropOp44
 70
     1
102
RTVSPost2010Prop45
280
     0
102
RTVSPost2010PropOp45
 70
     1
102
RTVSPost2010Prop46
 90
       50
102
RTVSPost2010PropOp46
 70
     1
102
RTVSPost2010Prop47
 90
       50
102
RTVSPost2010PropOp47
 70
     1
102
RTVSPost2010Prop48
 90
       50
102
RTVSPost2010PropOp48
 70
     1
102
RTVSPost2010Prop49
280
     0
102
RTVSPost2010PropOp49
 70
     1
102
RTVSPost2010Prop50
 90
       50
102
RTVSPost2010PropOp50
 70
     1
102
RTVSPost2010Prop51ColorIndex
 90
      256
102
RTVSPost2010Prop51ColorRGB
 90
-16777216
102
RTVSPost2010PropOp51
 70
     0
102
RTVSPost2010Prop52
140
1.0
102
RTVSPost2010PropOp52
 70
     0
102
RTVSPost2010Prop53
 90
        2
102
RTVSPost2010PropOp53
 70
     1
102
RTVSPost2010Prop54
  1
strokes_ogs.tif
102
RTVSPost2010PropOp54
 70
     1
102
RTVSPost2010Prop55
280
     0
102
RTVSPost2010PropOp55
 70
     1
102
RTVSPost2010Prop56
140
1.0
102
RTVSPost2010PropOp56
 70
     1
102
RTVSPost2010Prop57
140
1.0
102
RTVSPost2010PropOp57
 70
     1
  0
XRECORD
  5
11D
102
{ACAD_REACTORS
330
11C
102
}
330
11C
100
AcDbXrecord
280
     1
102
RTVSPost2010Prop28
280
     0
102
RTVSPost2010PropOp28
 70
     1
102
RTVSPost2010Prop29
280
     1
102
RTVSPost2010PropOp29
 70
     1
102
RTVSPost2010Prop30
280
     1
102
RTVSPost2010PropOp30
 70
     1
102
RTVSPost2010Prop31
280
     0
102
RTVSPost2010PropOp31
 70
     1
102
RTVSPost2010Prop32
280
     0
102
RTVSPost2010PropOp32
 70
     1
102
RTVSPost2010Prop33
280
     0
102
RTVSPost2010PropOp33
 70
     1
102
RTVSPost2010Prop34
280
     0
102
RTVSPost2010PropOp34
 70
     1
102
RTVSPost2010Prop35
280
     0
102
RTVSPost2010PropOp35
 70
     1
102
RTVSPost2010Prop36
280
     0
102
RTVSPost2010PropOp36
 70
     1
102
RTVSPost2010Prop37
 90
       50
102
RTVSPost2010PropOp37
 70
     1
102
RTVSPost2010Prop38
140
0.0
102
RTVSPost2010PropOp38
 70
     1
102
RTVSPost2010Prop39
140
1.0
102
RTVSPost2010PropOp39
 70
     1
102
RTVSPost2010Prop40
 90
        0
102
RTVSPost2010PropOp40
 70
     1
102
RTVSPost2010Prop41ColorIndex
 90
       18
102
RTVSPost2010Prop41ColorRGB
 90
        0
102
RTVSPost2010PropOp41
 70
     1
102
RTVSPost2010Prop42
 90
       50
102
RTVSPost2010PropOp42
 70
     1
102
RTVSPost2010Prop43
 90
        3
102
RTVSPost2010PropOp43
 70
     1
102
RTVSPost2010Prop44ColorIndex
 90
        5
102
RTVSPost2010Prop44ColorRGB
 90
      255
102
RTVSPost2010PropOp44
 70
     1
102
RTVSPost2010Prop45
280
     0
102
RTVSPost2010PropOp45
 70
     1
102
RTVSPost2010Prop46
 90
       50
102
RTVSPost2010PropOp46
 70
     1
102
RTVSPost2010Prop47
 90
       50
102
RTVSPost2010PropOp47
 70
     1
102
RTVSPost2010Prop48
 90
       50
102
RTVSPost2010PropOp48
 70
     1
102
RTVSPost2010Prop49
280
     0
102
RTVSPost2010PropOp49
 70
     1
102
RTVSPost2010Prop50
 90
       50
102
RTVSPost2010PropOp50
 70
     1
102
RTVSPost2010Prop51ColorIndex
 90
      256
102
RTVSPost2010Prop51ColorRGB
 90
-16777216
102
RTVSPost2010PropOp51
 70
     0
102
RTVSPost2010Prop52
140
1.0
102
RTVSPost2010PropOp52
 70
     0
102
RTVSPost2010Prop53
 90
        2
102
RTVSPost2010PropOp53
 70
     1
102
RTVSPost2010Prop54
  1
strokes_ogs.tif
102
RTVSPost2010PropOp54
 70
     1
102
RTVSPost2010Prop55
280
     0
102
RTVSPost2010PropOp55
 70
     1
102
RTVSPost2010Prop56
140
1.0
102
RTVSPost2010PropOp56
 70
     1
102
RTVSPost2010Prop57
140
1.0
102
RTVSPost2010PropOp57
 70
     1
  0
ENDSEC
  0
EOF