0
SECTION
  2
HEADER
  9
$ACADVER
  1
AC1024
  9
$ACADMAINTVER
 70
     6
  9
$DWGCODEPAGE
  3
ANSI_1252
  9
$LASTSAVEDBY
  1
BirnerR
  9
$INSBASE
 10
0.0
 20
0.0
 30
0.0
  9
$EXTMIN
 10
9.469645
 20
-0.608434
 30
9.469645
  9
$EXTMAX
 10
10.519645
 20
0.876566
 30
10.519645
  9
$LIMMIN
 10
9.469645
 20
-0.608434
  9
$LIMMAX
 10
10.519645
 20
0.876566
  9
$ORTHOMODE
 70
     0
  9
$REGENMODE
 70
     1
  9
$FILLMODE
 70
     1
  9
$QTEXTMODE
 70
     0
  9
$MIRRTEXT
 70
     1
  9
$LTSCALE
 40
1.0
  9
$ATTMODE
 70
     1
  9
$TEXTSIZE
 40
0.2
  9
$TRACEWID
 40
0.05
  9
$TEXTSTYLE
  7
Standard
  9
$CLAYER
  8
0
  9
$CELTYPE
  6
ByLayer
  9
$CECOLOR
 62
   256
  9
$CELTSCALE
 40
1.0
  9
$DISPSILH
 70
     0
  9
$DIMSCALE
 40
1.0
  9
$DIMASZ
 40
0.18
  9
$DIMEXO
 40
0.0625
  9
$DIMDLI
 40
0.38
  9
$DIMRND
 40
0.0
  9
$DIMDLE
 40
0.0
  9
$DIMEXE
 40
0.18
  9
$DIMTP
 40
0.0
  9
$DIMTM
 40
0.0
  9
$DIMTXT
 40
0.18
  9
$DIMCEN
 40
0.09
  9
$DIMTSZ
 40
0.0
  9
$DIMTOL
 70
     0
  9
$DIMLIM
 70
     0
  9
$DIMTIH
 70
     1
  9
$DIMTOH
 70
     1
  9
$DIMSE1
 70
     0
  9
$DIMSE2
 70
     0
  9
$DIMTAD
 70
     0
  9
$DIMZIN
 70
     0
  9
$DIMBLK
  1

  9
$DIMASO
 70
     1
  9
$DIMSHO
 70
     1
  9
$DIMPOST
  1

  9
$DIMAPOST
  1

  9
$DIMALT
 70
     0
  9
$DIMALTD
 70
     2
  9
$DIMALTF
 40
25.4
  9
$DIMLFAC
 40
1.0
  9
$DIMTOFL
 70
     0
  9
$DIMTVP
 40
0.0
  9
$DIMTIX
 70
     0
  9
$DIMSOXD
 70
     0
  9
$DIMSAH
 70
     0
  9
$DIMBLK1
  1

  9
$DIMBLK2
  1

  9
$DIMSTYLE
  2
Standard
  9
$DIMCLRD
 70
     0
  9
$DIMCLRE
 70
     0
  9
$DIMCLRT
 70
     0
  9
$DIMTFAC
 40
1.0
  9
$DIMGAP
 40
0.09
  9
$DIMJUST
 70
     0
  9
$DIMSD1
 70
     0
  9
$DIMSD2
 70
     0
  9
$DIMTOLJ
 70
     1
  9
$DIMTZIN
 70
     0
  9
$DIMALTZ
 70
     0
  9
$DIMALTTZ
 70
     0
  9
$DIMUPT
 70
     0
  9
$DIMDEC
 70
     4
  9
$DIMTDEC
 70
     4
  9
$DIMALTU
 70
     2
  9
$DIMALTTD
 70
     2
  9
$DIMTXSTY
  7
Standard
  9
$DIMAUNIT
 70
     0
  9
$DIMADEC
 70
     0
  9
$DIMALTRND
 40
0.0
  9
$DIMAZIN
 70
     0
  9
$DIMDSEP
 70
    46
  9
$DIMATFIT
 70
     3
  9
$DIMFRAC
 70
     0
  9
$DIMLDRBLK
  1

  9
$DIMLUNIT
 70
     2
  9
$DIMLWD
 70
    -2
  9
$DIMLWE
 70
    -2
  9
$DIMTMOVE
 70
     0
  9
$DIMFXL
 40
1.0
  9
$DIMFXLON
 70
     0
  9
$DIMJOGANG
 40
0.785398
  9
$DIMTFILL
 70
     0
  9
$DIMTFILLCLR
 70
     0
  9
$DIMARCSYM
 70
     0
  9
$DIMLTYPE
  6

  9
$DIMLTEX1
  6

  9
$DIMLTEX2
  6

  9
$DIMTXTDIRECTION
 70
     0
  9
$LUNITS
 70
     2
  9
$LUPREC
 70
     4
  9
$SKETCHINC
 40
0.1
  9
$FILLETRAD
 40
0.5
  9
$AUNITS
 70
     0
  9
$AUPREC
 70
     0
  9
$MENU
  1
.
  9
$ELEVATION
 40
0.0
  9
$PELEVATION
 40
0.0
  9
$THICKNESS
 40
0.0
  9
$LIMCHECK
 70
     0
  9
$CHAMFERA
 40
0.0
  9
$CHAMFERB
 40
0.0
  9
$CHAMFERC
 40
0.0
  9
$CHAMFERD
 40
0.0
  9
$SKPOLY
 70
     0
  9
$TDCREATE
 40
2459144.489071655
  9
$TDUCREATE
 40
2459144.405738322
  9
$TDUPDATE
 40
2459144.48908088
  9
$TDUUPDATE
 40
2459144.405747546
  9
$TDINDWG
 40
0.0000000116
  9
$TDUSRTIMER
 40
0.0000000116
  9
$USRTIMER
 70
     1
  9
$ANGBASE
 50
0.0
  9
$ANGDIR
 70
     0
  9
$PDMODE
 70
    65
  9
$PDSIZE
 40
0.0
  9
$PLINEWID
 40
0.0
  9
$SPLFRAME
 70
     0
  9
$SPLINETYPE
 70
     6
  9
$SPLINESEGS
 70
     8
  9
$HANDSEED
  5
1B3
  9
$SURFTAB1
 70
     6
  9
$SURFTAB2
 70
     6
  9
$SURFTYPE
 70
     6
  9
$SURFU
 70
     6
  9
$SURFV
 70
     6
  9
$UCSBASE
  2

  9
$UCSNAME
  2

  9
$UCSORG
 10
0.0
 20
0.0
 30
0.0
  9
$UCSXDIR
 10
1.0
 20
0.0
 30
0.0
  9
$UCSYDIR
 10
0.0
 20
1.0
 30
0.0
  9
$UCSORTHOREF
  2

  9
$UCSORTHOVIEW
 70
     0
  9
$UCSORGTOP
 10
0.0
 20
0.0
 30
0.0
  9
$UCSORGBOTTOM
 10
0.0
 20
0.0
 30
0.0
  9
$UCSORGLEFT
 10
0.0
 20
0.0
 30
0.0
  9
$UCSORGRIGHT
 10
0.0
 20
0.0
 30
0.0
  9
$UCSORGFRONT
 10
0.0
 20
0.0
 30
0.0
  9
$UCSORGBACK
 10
0.0
 20
0.0
 30
0.0
  9
$PUCSBASE
  2

  9
$PUCSNAME
  2

  9
$PUCSORG
 10
0.0
 20
0.0
 30
0.0
  9
$PUCSXDIR
 10
1.0
 20
0.0
 30
0.0
  9
$PUCSYDIR
 10
0.0
 20
1.0
 30
0.0
  9
$PUCSORTHOREF
  2

  9
$PUCSORTHOVIEW
 70
     0
  9
$PUCSORGTOP
 10
0.0
 20
0.0
 30
0.0
  9
$PUCSORGBOTTOM
 10
0.0
 20
0.0
 30
0.0
  9
$PUCSORGLEFT
 10
0.0
 20
0.0
 30
0.0
  9
$PUCSORGRIGHT
 10
0.0
 20
0.0
 30
0.0
  9
$PUCSORGFRONT
 10
0.0
 20
0.0
 30
0.0
  9
$PUCSORGBACK
 10
0.0
 20
0.0
 30
0.0
  9
$USERI1
 70
     0
  9
$USERI2
 70
     0
  9
$USERI3
 70
     0
  9
$USERI4
 70
     0
  9
$USERI5
 70
     0
  9
$USERR1
 40
0.0
  9
$USERR2
 40
0.0
  9
$USERR3
 40
0.0
  9
$USERR4
 40
0.0
  9
$USERR5
 40
0.0
  9
$WORLDVIEW
 70
     1
  9
$SHADEDGE
 70
     3
  9
$SHADEDIF
 70
    70
  9
$TILEMODE
 70
     0
  9
$MAXACTVP
 70
    64
  9
$PINSBASE
 10
0.0
 20
0.0
 30
0.0
  9
$PLIMCHECK
 70
     0
  9
$PEXTMIN
 10
-0.0001
 20
-0.0001
 30
0.0
  9
$PEXTMAX
 10
0.2101
 20
0.2971
 30
0.0
  9
$PLIMMIN
 10
-0.0001
 20
-0.0001
  9
$PLIMMAX
 10
0.2101
 20
0.2971
  9
$UNITMODE
 70
     0
  9
$VISRETAIN
 70
     1
  9
$PLINEGEN
 70
     0
  9
$PSLTSCALE
 70
     0
  9
$TREEDEPTH
 70
  3020
  9
$CMLSTYLE
  2
Standard
  9
$CMLJUST
 70
     0
  9
$CMLSCALE
 40
1.0
  9
$PROXYGRAPHICS
 70
     1
  9
$MEASUREMENT
 70
     1
  9
$CELWEIGHT
370
    -1
  9
$ENDCAPS
280
     0
  9
$JOINSTYLE
280
     0
  9
$LWDISPLAY
290
     0
  9
$INSUNITS
 70
     6
  9
$HYPERLINKBASE
  1

  9
$STYLESHEET
  1

  9
$XEDIT
290
     1
  9
$CEPSNTYPE
380
     0
  9
$PSTYLEMODE
290
     1
  9
$FINGERPRINTGUID
  2
{1ef00fdb-d430-450d-8ced-06dc44a51a78}
  9
$VERSIONGUID
  2
{FAEB1C32-E019-11D5-929B-00C0DF256EC4}
  9
$EXTNAMES
290
     1
  9
$PSVPSCALE
 40
0.0
  9
$OLESTARTUP
290
     0
  9
$SORTENTS
280
   127
  9
$INDEXCTL
280
     0
  9
$HIDETEXT
280
     1
  9
$XCLIPFRAME
280
     2
  9
$HALOGAP
280
     0
  9
$OBSCOLOR
 70
   257
  9
$OBSLTYPE
280
     0
  9
$INTERSECTIONDISPLAY
280
     0
  9
$INTERSECTIONCOLOR
 70
   257
  9
$DIMASSOC
280
     2
  9
$PROJECTNAME
  1

  9
$CAMERADISPLAY
290
     0
  9
$LENSLENGTH
 40
50.0
  9
$CAMERAHEIGHT
 40
0.0
  9
$STEPSPERSEC
 40
2.0
  9
$STEPSIZE
 40
6.0
  9
$3DDWFPREC
 40
2.0
  9
$PSOLWIDTH
 40
0.25
  9
$PSOLHEIGHT
 40
4.0
  9
$LOFTANG1
 40
1.570796
  9
$LOFTANG2
 40
1.570796
  9
$LOFTMAG1
 40
0.0
  9
$LOFTMAG2
 40
0.0
  9
$LOFTPARAM
 70
     7
  9
$LOFTNORMALS
280
     1
  9
$LATITUDE
 40
37.795
  9
$LONGITUDE
 40
-122.394
  9
$NORTHDIRECTION
 40
0.0
  9
$TIMEZONE
 70
 -8000
  9
$LIGHTGLYPHDISPLAY
280
     1
  9
$TILEMODELIGHTSYNCH
280
     1
  9
$CMATERIAL
347
44
  9
$SOLIDHIST
280
     0
  9
$SHOWHIST
280
     1
  9
$DWFFRAME
280
     2
  9
$DGNFRAME
280
     2
  9
$REALWORLDSCALE
290
     1
  9
$INTERFERECOLOR
 62
   256
  9
$CSHADOW
280
     0
  9
$SHADOWPLANELOCATION
 40
0.0
  0
ENDSEC
  0
SECTION
  2
CLASSES
  0
CLASS
  1
ACDBDICTIONARYWDFLT
  2
AcDbDictionaryWithDefault
  3
ObjectDBX Classes
 90
        0
 91
        3
280
     0
281
     0
  0
CLASS
  1
VISUALSTYLE
  2
AcDbVisualStyle
  3
ObjectDBX Classes
 90
     4095
 91
        3
280
     0
281
     0
  0
CLASS
  1
MATERIAL
  2
AcDbMaterial
  3
ObjectDBX Classes
 90
     1153
 91
        3
280
     0
281
     0
  0
CLASS
  1
SCALE
  2
AcDbScale
  3
ObjectDBX Classes
 90
     1153
 91
        3
280
     0
281
     0
  0
CLASS
  1
TABLESTYLE
  2
AcDbTableStyle
  3
ObjectDBX Classes
 90
     4095
 91
        3
280
     0
281
     0
  0
CLASS
  1
MLEADERSTYLE
  2
AcDbMLeaderStyle
  3
ACDB_MLEADERSTYLE_CLASS
 90
     4095
 91
        3
280
     0
281
     0
  0
CLASS
  1
SUN
  2
AcDbSun
  3
SCENEOE
 90
     1153
 91
        3
280
     0
281
     0
  0
CLASS
  1
SORTENTSTABLE
  2
AcDbSortentsTable
  3
ObjectDBX Classes
 90
        0
 91
        3
280
     0
281
     0
  0
CLASS
  1
DICTIONARYVAR
  2
AcDbDictionaryVar
  3
ObjectDBX Classes
 90
        0
 91
        3
280
     0
281
     0
  0
CLASS
  1
CELLSTYLEMAP
  2
AcDbCellStyleMap
  3
ObjectDBX Classes
 90
     1152
 91
        3
280
     0
281
     0
  0
ENDSEC
  0
SECTION
  2
TABLES
  0
TABLE
  2
VPORT
  5
8
330
0
100
AcDbSymbolTable
 70
     1
  0
VPORT
  5
29
330
8
100
AcDbSymbolTableRecord
100
AcDbViewportTableRecord
  2
*Active
 70
     0
 10
0.0
 20
0.0
 11
1.0
 21
1.0
 12
9.994645
 22
0.134066
 13
0.0
 23
0.0
 14
0.5
 24
0.5
 15
0.5
 25
0.5
 16
0.0
 26
0.0
 36
1.0
 17
0.0
 27
0.0
 37
0.0
 40
1.782
 41
0.848485
 42
50.0
 43
0.0
 44
0.0
 50
0.0
 51
0.0
 71
     0
 72
   100
 73
     1
 74
     3
 75
     0
 76
     0
 77
     0
 78
     0
281
     0
 65
     1
110
0.0
120
0.0
130
0.0
111
1.0
121
0.0
131
0.0
112
0.0
122
1.0
132
0.0
 79
     0
146
0.0
348
2F
 60
     3
 61
     5
292
     1
282
     1
141
0.0
142
0.0
 63
   250
361
6D
  0
ENDTAB
  0
TABLE
  2
LTYPE
  5
5
330
0
100
AcDbSymbolTable
 70
     4
  0
LTYPE
  5
14
330
5
100
AcDbSymbolTableRecord
100
AcDbLinetypeTableRecord
  2
ByBlock
 70
     0
  3

 72
    65
 73
     0
 40
0.0
  0
LTYPE
  5
15
330
5
100
AcDbSymbolTableRecord
100
AcDbLinetypeTableRecord
  2
ByLayer
 70
     0
  3

 72
    65
 73
     0
 40
0.0
  0
LTYPE
  5
16
330
5
100
AcDbSymbolTableRecord
100
AcDbLinetypeTableRecord
  2
Continuous
 70
     0
  3
Solid line
 72
    65
 73
     0
 40
0.0
  0
LTYPE
  5
74
330
5
100
AcDbSymbolTableRecord
100
AcDbLinetypeTableRecord
  2
AUSGEZOGEN
 70
     0
  3
durchgezogene Linie
 72
    65
 73
     0
 40
0.0
  0
LTYPE
  5
7A
330
5
100
AcDbSymbolTableRecord
100
AcDbLinetypeTableRecord
  2
STRICHPUNKT2_S5
 70
     0
  3
Lang eng gestrichelt bzw. punktiert
 72
    65
 73
     4
 40
0.05
 49
0.035
 74
     0
 49
-0.005
 74
     0
 49
0.005
 74
     0
 49
-0.005
 74
     0
  0
LTYPE
  5
7B
330
5
100
AcDbSymbolTableRecord
100
AcDbLinetypeTableRecord
  2
VERDECKT2_S2
 70
     0
  3
Kurzgestrichelt
 72
    65
 73
     2
 40
0.015
 49
0.01
 74
     0
 49
-0.005
 74
     0
  0
ENDTAB
  0
TABLE
  2
LAYER
  5
2
330
0
100
AcDbSymbolTable
 70
     4
  0
LAYER
  5
10
330
2
100
AcDbSymbolTableRecord
100
AcDbLayerTableRecord
  2
0
 70
     0
 62
     7
  6
Continuous
370
    -3
390
F
347
46
  0
LAYER
  5
76
330
2
100
AcDbSymbolTableRecord
100
AcDbLayerTableRecord
  2
PLAN_809
 70
     0
 62
     7
  6
AUSGEZOGEN
370
    -3
390
F
347
46
1001
AcCmTransparency
1071
 33554687
1001
AcAecLayerStandard
1000

1000
Dokument-Layer
  0
LAYER
  5
78
330
2
100
AcDbSymbolTableRecord
100
AcDbLayerTableRecord
  2
TB_809
 70
     0
 62
     7
  6
AUSGEZOGEN
370
    -3
390
F
347
46
1001
AcCmTransparency
1071
 33554687
1001
AcAecLayerStandard
1000

1000
Dokument-Layer
  0
LAYER
  5
7C
330
2
100
AcDbSymbolTableRecord
100
AcDbLayerTableRecord
  2
XR$1$TB_809_1
 70
     0
 62
     7
  6
AUSGEZOGEN
370
    -3
390
F
347
46
1001
AcCmTransparency
1071
 33554687
1001
AcAecLayerStandard
1000

1000
Dokument-Layer
  0
ENDTAB
  0
TABLE
  2
STYLE
  5
3
330
0
100
AcDbSymbolTable
 70
     2
  0
STYLE
  5
11
330
3
100
AcDbSymbolTableRecord
100
AcDbTextStyleTableRecord
  2
Standard
 70
     0
 40
0.0
 41
1.0
 50
0.0
 71
     0
 42
0.2
  3
txt
  4

  0
STYLE
  5
79
330
3
100
AcDbSymbolTableRecord
100
AcDbTextStyleTableRecord
  2
ARIAL
 70
     0
 40
0.0
 41
1.0
 50
0.0
 71
     0
 42
0.2
  3
ARIAL.TTF
  4

1001
ACAD
1000
Arial
1071
       34
  0
ENDTAB
  0
TABLE
  2
VIEW
  5
6
330
0
100
AcDbSymbolTable
 70
     0
  0
ENDTAB
  0
TABLE
  2
UCS
  5
7
330
0
100
AcDbSymbolTable
 70
     0
  0
ENDTAB
  0
TABLE
  2
APPID
  5
9
330
0
100
AcDbSymbolTable
 70
     4
  0
APPID
  5
12
330
9
100
AcDbSymbolTableRecord
100
AcDbRegAppTableRecord
  2
ACAD
 70
     0
  0
APPID
  5
75
330
9
100
AcDbSymbolTableRecord
100
AcDbRegAppTableRecord
  2
AcCmTransparency
 70
     0
  0
APPID
  5
77
330
9
100
AcDbSymbolTableRecord
100
AcDbRegAppTableRecord
  2
AcAecLayerStandard
 70
     0
  0
APPID
  5
7D
330
9
100
AcDbSymbolTableRecord
100
AcDbRegAppTableRecord
  2
NEM_ODX
 70
     0
  0
ENDTAB
  0
TABLE
  2
DIMSTYLE
  5
A
330
0
100
AcDbSymbolTable
 70
     1
100
AcDbDimStyleTable
  0
DIMSTYLE
105
27
330
A
100
AcDbSymbolTableRecord
100
AcDbDimStyleTableRecord
  2
Standard
 70
     0
178
     0
340
11
  0
ENDTAB
  0
TABLE
  2
BLOCK_RECORD
  5
1
330
0
100
AcDbSymbolTable
 70
     0
  0
BLOCK_RECORD
  5
1F
102
{ACAD_XDICTIONARY
360
176
102
}
330
1
100
AcDbSymbolTableRecord
100
AcDbBlockTableRecord
  2
*Model_Space
340
22
 70
     0
280
     1
281
     0
  0
BLOCK_RECORD
  5
6E
330
1
100
AcDbSymbolTableRecord
100
AcDbBlockTableRecord
  2
*Paper_Space
340
6F
 70
     0
280
     1
281
     0
  0
ENDTAB
  0
ENDSEC
  0
SECTION
  2
BLOCKS
  0
BLOCK
  5
20
330
1F
100
AcDbEntity
  8
0
100
AcDbBlockBegin
  2
*Model_Space
 70
     0
 10
0.0
 20
0.0
 30
0.0
  3
*Model_Space
  1

  0
ENDBLK
  5
21
330
1F
100
AcDbEntity
  8
0
100
AcDbBlockEnd
  0
BLOCK
  5
70
330
6E
100
AcDbEntity
 67
     1
  8
0
100
AcDbBlockBegin
  2
*Paper_Space
 70
     0
 10
0.0
 20
0.0
 30
0.0
  3
*Paper_Space
  1

  0
ENDBLK
  5
71
330
6E
100
AcDbEntity
 67
     1
  8
0
100
AcDbBlockEnd
  0
ENDSEC
  0
SECTION
  2
ENTITIES
  0
HATCH
  5
7E
330
1F
100
AcDbEntity
  8
XR$1$TB_809_1
  6
STRICHPUNKT2_S5
 62
     7
440
 33554687
370
    -3
100
AcDbHatch
 10
0.0
 20
0.0
 30
0.0
210
0.0
220
0.0
230
1.0
  2
SCHRAFFUR_3
 70
     0
 71
     0
 91
        1
 92
        0
 93
        4
 72
     1
 10
10.26338179804405
 20
-0.1347936798138299
 11
10.26338179804405
 21
0.504103627547081
 72
     1
 10
10.26338179804405
 20
0.504103627547081
 11
9.96338179804405
 21
0.504103627547081
 72
     1
 10
9.96338179804405
 20
0.504103627547081
 11
9.96338179804405
 21
-0.1347936798138299
 72
     1
 10
9.96338179804405
 20
-0.1347936798138299
 11
10.26338179804405
 21
-0.1347936798138299
 97
        0
 75
     0
 76
     2
 52
315.0
 41
0.005
 77
     0
 78
     2
 53
44.99999999999999
 43
0.0
 44
0.0
 45
-0.0353553390593274
 46
0.0353553390593274
 79
     0
 53
44.99999999999999
 43
-0.0176776695296637
 44
0.0176776695296637
 45
-0.0353553390593274
 46
0.0353553390593274
 79
     0
 98
        0
1001
ACAD
1010
0.0
1020
0.0
1030
0.0
1001
NEM_ODX
1002
{
1000
BZM_DEPEND
1070
     1
1000
BZM_SCALE
1040
5.0
1000
SCHRAFFUR_3
1002
}
  0
LWPOLYLINE
  5
7F
330
1F
100
AcDbEntity
  8
XR$1$TB_809_1
  6
AUSGEZOGEN
 62
     7
440
 33554687
370
    -3
100
AcDbPolyline
 90
        2
 70
     1
 43
0.0
 10
9.841382
 20
0.11109
 10
9.841382
 20
0.11109
  0
HATCH
  5
80
330
1F
100
AcDbEntity
  8
XR$1$TB_809_1
  6
STRICHPUNKT2_S5
 62
     9
440
 33554687
370
    -3
100
AcDbHatch
 10
0.0
 20
0.0
 30
0.0
210
0.0
220
0.0
230
1.0
  2
SOLID
 70
     1
 71
     0
 91
        1
 92
        3
 72
     0
 73
     1
 93
        4
 10
9.91838179804405
 20
-0.1347936798138299
 10
9.91838179804405
 20
0.0690783644480701
 10
9.910381798044051
 20
0.0690783644480701
 10
9.910381798044051
 20
-0.1347936798138299
 97
        0
 75
     0
 76
     1
 98
        0
  0
HATCH
  5
81
330
1F
100
AcDbEntity
  8
XR$1$TB_809_1
  6
AUSGEZOGEN
 62
    18
420
        0
440
 33554687
370
    35
100
AcDbHatch
 10
0.0
 20
0.0
 30
0.0
210
0.0
220
0.0
230
1.0
  2
SOLID
 70
     1
 71
     0
 91
       18
 92
        3
 72
     0
 73
     1
 93
       27
 10
9.588901354686735
 20
-0.4704325920984329
 10
9.592895098147677
 20
-0.4704325920984329
 10
9.59347222453823
 20
-0.470405195717621
 10
9.594003209655838
 20
-0.4703226460964859
 10
9.594498146903952
 20
-0.4701943156810989
 10
9.594946942879117
 20
-0.4700111925040789
 10
9.595358970027403
 20
-0.46979130050018
 10
9.595725216381433
 20
-0.469516615734659
 10
9.596357496012308
 20
-0.4688663121690439
 10
9.596604784397023
 20
-0.4684906933689409
 10
9.596824676400908
 20
-0.468078666220659
 10
9.59716352637413
 20
-0.467180713791632
 10
9.597355661518518
 20
-0.4661825482854119
 10
9.597419826726211
 20
-0.4651108451254419
 10
9.597355661518518
 20
-0.463965604311702
 10
9.59716352637413
 20
-0.46293066997861
 10
9.597007799577932
 20
-0.4624634895900049
 10
9.596824676400908
 20
-0.462024066060903
 10
9.596604784397023
 20
-0.4616206904012969
 10
9.596357496012308
 20
-0.46125444404727
 10
9.595725216381433
 20
-0.4606315368624589
 10
9.595358970027403
 20
-0.4603842484777519
 10
9.594946942879117
 20
-0.4601737289199289
 10
9.594498146903952
 20
-0.4600086296776489
 10
9.594003209655838
 20
-0.459889671708327
 10
9.592895098147677
 20
-0.4597887376737499
 10
9.588901354686735
 20
-0.4597887376737499
 97
        0
 92
        3
 72
     0
 73
     1
 93
       12
 10
9.600607539825328
 20
-0.4704325920984329
 10
9.60832935394904
 20
-0.4704325920984329
 10
9.60832935394904
 20
-0.4691042281076799
 10
9.602210588581599
 20
-0.4691042281076799
 10
9.602210588581599
 20
-0.465641830243046
 10
9.607257650789066
 20
-0.465641830243046
 10
9.607257650789066
 20
-0.4643138267309889
 10
9.602210588581599
 20
-0.4643138267309889
 10
9.602210588581599
 20
-0.4611171016645089
 10
9.608063681150888
 20
-0.4611171016645089
 10
9.608063681150888
 20
-0.4597887376737499
 10
9.600607539825328
 20
-0.4597887376737499
 97
        0
 92
        3
 72
     0
 73
     1
 93
       38
 10
9.617901144735054
 20
-0.4597887376737499
 10
9.617901144735054
 20
-0.4667045214356509
 10
9.617864375908168
 20
-0.467354825001267
 10
9.617754790384923
 20
-0.467904555011012
 10
9.617552922315772
 20
-0.468371735399619
 10
9.617269225582866
 20
-0.4687379817536559
 10
9.616902618750144
 20
-0.4690126665191779
 10
9.616444810807604
 20
-0.46921417410963
 10
9.615895080797866
 20
-0.4693334925576499
 10
9.615244777232245
 20
-0.4693699009058319
 10
9.614594473666621
 20
-0.4693334925576499
 10
9.614044743656883
 20
-0.46921417410963
 10
9.613586935714338
 20
-0.4690126665191779
 10
9.613211316914244
 20
-0.4687379817536559
 10
9.612936632148715
 20
-0.468371735399619
 10
9.612735124558261
 20
-0.467904555011012
 10
9.612625178556314
 20
-0.467354825001267
 10
9.61257939776206
 20
-0.4667045214356509
 10
9.61257939776206
 20
-0.4597887376737499
 10
9.611251033771314
 20
-0.4597887376737499
 10
9.611251033771314
 20
-0.4669701942337969
 10
9.611324571425081
 20
-0.467822005389876
 10
9.611535090982903
 20
-0.4685638705440039
 10
9.611883313402181
 20
-0.4692051621422539
 10
9.612350493790789
 20
-0.469736507738561
 10
9.612927259702646
 20
-0.4701485348868399
 10
9.613614332095153
 20
-0.47045097651187
 10
9.614383954108796
 20
-0.4706340996888899
 10
9.615244777232245
 20
-0.470698264896585
 10
9.616105960834393
 20
-0.4706340996888899
 10
9.616875222369327
 20
-0.47045097651187
 10
9.617562294761836
 20
-0.4701485348868399
 10
9.618139421152387
 20
-0.469736507738561
 10
9.618606601541
 20
-0.4692051621422539
 10
9.618945451514222
 20
-0.4685638705440039
 10
9.61916534351811
 20
-0.467822005389876
 10
9.619238520693177
 20
-0.4669701942337969
 10
9.619238520693177
 20
-0.4597887376737499
 97
        0
 92
        3
 72
     0
 73
     1
 93
        8
 10
9.621894888195987
 20
-0.4597887376737499
 10
9.621894888195987
 20
-0.4611171016645089
 10
9.62509161326247
 20
-0.4611171016645089
 10
9.62509161326247
 20
-0.4704325920984329
 10
9.626419616774525
 20
-0.4704325920984329
 10
9.626419616774525
 20
-0.4611171016645089
 10
9.629607329873638
 20
-0.4611171016645089
 10
9.629607329873638
 20
-0.4597887376737499
 97
        0
 92
        3
 72
     0
 73
     1
 93
       96
 10
9.63261191979573
 20
-0.4633520695729579
 10
9.632822439353554
 20
-0.4638740427231959
 10
9.6331522773594
 20
-0.464286430350179
 10
9.633573676953763
 20
-0.464625280323394
 10
9.63407726569055
 20
-0.4648909531215389
 10
9.634645380113737
 20
-0.4650924607120009
 10
9.635863437623849
 20
-0.4654129262717789
 10
9.637081855612644
 20
-0.465687971515988
 10
9.637649609557132
 20
-0.465843337833506
 10
9.638153558772625
 20
-0.4660448454239609
 10
9.638574597888278
 20
-0.4662924942873609
 10
9.638904435894124
 20
-0.466612959847139
 10
9.639115315930649
 20
-0.4670069630606839
 10
9.639188493105717
 20
-0.467501539830103
 10
9.639133339865388
 20
-0.4679687202187079
 10
9.638959589134448
 20
-0.4683533509861779
 10
9.638693916336289
 20
-0.4686831889920239
 10
9.638355066363081
 20
-0.4689394893441049
 10
9.637952051182165
 20
-0.4691319849671919
 10
9.637502894728307
 20
-0.4692599549038849
 10
9.637026702372324
 20
-0.469342504525016
 10
9.63653212560291
 20
-0.4693699009058319
 10
9.635863437623849
 20
-0.4693334925576499
 10
9.635277299265915
 20
-0.46921417410963
 10
9.634773350050429
 20
-0.4690126665191779
 10
9.634333926521329
 20
-0.4687379817536559
 10
9.633976692134672
 20
-0.468371735399619
 10
9.633683262477014
 20
-0.467904555011012
 10
9.633472742919185
 20
-0.467354825001267
 10
9.63333540053642
 20
-0.4667045214356509
 10
9.632007036545671
 20
-0.4669701942337969
 10
9.632098958612872
 20
-0.4678951825649469
 10
9.632217916582201
 20
-0.4683075701919219
 10
9.6323736433784
 20
-0.4686738165459569
 10
9.632575150968853
 20
-0.4690126665191779
 10
9.63280405494012
 20
-0.4693241201115789
 10
9.633372169363305
 20
-0.4698370812944409
 10
9.634040496863676
 20
-0.4702217120619069
 10
9.634810118877315
 20
-0.4704873848600589
 10
9.635643545619951
 20
-0.4706431116562629
 10
9.63653212560291
 20
-0.470698264896585
 10
9.637310759583913
 20
-0.4706431116562629
 10
9.638052624738052
 20
-0.4704967573061269
 10
9.638730324684486
 20
-0.4702310845079799
 10
9.639325835488478
 20
-0.469864477675253
 10
9.639820412257894
 20
-0.469388285319273
 10
9.640196031057997
 20
-0.468792774515279
 10
9.640333373440765
 20
-0.468444912574686
 10
9.640434307475328
 20
-0.468078666220659
 10
9.640516496617776
 20
-0.467235867031949
 10
9.640443319442712
 20
-0.466512025812567
 10
9.640232799884881
 20
-0.465916875487266
 10
9.639902961879034
 20
-0.4654403226525859
 10
9.639481562284672
 20
-0.4650650643311849
 10
9.638977613069194
 20
-0.464771995152221
 10
9.63841887109208
 20
-0.4645427307022649
 10
9.63719180161459
 20
-0.4642128926964119
 10
9.63597338362579
 20
-0.4639475803769579
 10
9.635414641648683
 20
-0.463791853580758
 10
9.634910692433193
 20
-0.463608369925044
 10
9.634480280871466
 20
-0.4633704539863999
 10
9.634150442865627
 20
-0.463068012361372
 10
9.63393992330779
 20
-0.4626743696265289
 10
9.633866746132728
 20
-0.462179432378414
 10
9.63393091134042
 20
-0.4618221979917549
 10
9.634095650103987
 20
-0.461529128812791
 10
9.634342938488702
 20
-0.4612912128741489
 10
9.63466340404848
 20
-0.4611171016645089
 10
9.63503902284858
 20
-0.4609981436951809
 10
9.635442038029487
 20
-0.460915594074049
 10
9.636266452804758
 20
-0.4608514288663549
 10
9.63683456722794
 20
-0.4608788252471669
 10
9.637347167932106
 20
-0.460961374868302
 10
9.63780533635334
 20
-0.4611080896971279
 10
9.638189967120802
 20
-0.4613186092549649
 10
9.638501420713212
 20
-0.4616116784339279
 10
9.638730324684486
 20
-0.4619779247879569
 10
9.638877039513307
 20
-0.4624360932091919
 10
9.638922820307565
 20
-0.4629858232189299
 10
9.640516496617776
 20
-0.4629858232189299
 10
9.640269208233061
 20
-0.4621430240302249
 10
9.639930358259848
 20
-0.461428555256908
 10
9.639499946698114
 20
-0.460833044452916
 10
9.638986985515258
 20
-0.4603568520969339
 10
9.638400847157333
 20
-0.459990245264208
 10
9.637750543591709
 20
-0.459724932944754
 10
9.637036074818395
 20
-0.4595782181159299
 10
9.636266452804758
 20
-0.4595234253543
 10
9.635570368444885
 20
-0.4595692061485489
 10
9.634892668498443
 20
-0.459724932944754
 10
9.634269761313634
 20
-0.459972221329467
 10
9.63370164689045
 20
-0.460320083270054
 10
9.633225454534477
 20
-0.4607688792452219
 10
9.632859208180438
 20
-0.4613186092549649
 10
9.632620931763107
 20
-0.461968912820591
 10
9.632538382141968
 20
-0.462720150420783
 97
        0
 92
        3
 72
     0
 73
     1
 93
       78
 10
9.644840078084556
 20
-0.46424064955592
 10
9.645023201261568
 20
-0.463434619194098
 10
9.645334654853974
 20
-0.4627107779747099
 10
9.645774438861764
 20
-0.462087870789902
 10
9.646333180838884
 20
-0.4615658976396729
 10
9.647019892752688
 20
-0.461181266872204
 10
9.647835295560585
 20
-0.4609429904548609
 10
9.648769656337794
 20
-0.4608514288663549
 10
9.649273245074582
 20
-0.460888197693238
 10
9.649786206257449
 20
-0.4610071556625599
 10
9.650290155472936
 20
-0.46119027883957
 10
9.650766347828908
 20
-0.46145595163773
 10
9.651187747423268
 20
-0.46178578964357
 10
9.651535969842557
 20
-0.462197816791856
 10
9.65180128216201
 20
-0.4626833815939019
 10
9.651957008958217
 20
-0.4632511355383929
 10
9.65329438491633
 20
-0.4629858232189299
 10
9.653028712118182
 20
-0.4621430240302249
 10
9.652662465764152
 20
-0.461428555256908
 10
9.65218627340817
 20
-0.460833044452916
 10
9.651627531431055
 20
-0.4603568520969339
 10
9.65099525180018
 20
-0.459990245264208
 10
9.650299167440302
 20
-0.459724932944754
 10
9.6495482903188
 20
-0.4595782181159299
 10
9.648769656337794
 20
-0.4595234253543
 10
9.648137376706924
 20
-0.459550821735106
 10
9.647542226381622
 20
-0.4596330108775479
 10
9.646992496371878
 20
-0.4597613412929339
 10
9.64647953518901
 20
-0.4599444644699539
 10
9.646003342833042
 20
-0.4601737289199289
 10
9.64556355882523
 20
-0.460448413685447
 10
9.645169916090396
 20
-0.4607688792452219
 10
9.644812681703744
 20
-0.4611171016645089
 10
9.64449185566527
 20
-0.461511104878048
 10
9.644217170899745
 20
-0.4619415164397679
 10
9.643988266928474
 20
-0.462399324382313
 10
9.643795771305392
 20
-0.46289390115173
 10
9.64353009850725
 20
-0.4639565923443359
 10
9.643447909364804
 20
-0.4651108451254419
 10
9.64353009850725
 20
-0.4662647374278519
 10
9.643795771305392
 20
-0.4673274286204609
 10
9.643988266928474
 20
-0.467822005389876
 10
9.644217170899745
 20
-0.468280173811108
 10
9.64449185566527
 20
-0.4687105853728399
 10
9.644812681703744
 20
-0.4691042281076799
 10
9.645169916090396
 20
-0.4694524505269589
 10
9.64556355882523
 20
-0.4697729160867489
 10
9.646003342833042
 20
-0.4700479613309589
 10
9.64647953518901
 20
-0.470276865302231
 10
9.646992496371878
 20
-0.4704599884792469
 10
9.647542226381622
 20
-0.470588318894633
 10
9.648137376706924
 20
-0.4706708685157689
 10
9.648769656337794
 20
-0.470698264896585
 10
9.649566314253546
 20
-0.4706247272428259
 10
9.650335936267187
 20
-0.470405195717621
 10
9.651077801421318
 20
-0.470056973298338
 10
9.651764873813816
 20
-0.469571408496294
 10
9.652369396585183
 20
-0.4689578737575459
 10
9.652882357768048
 20
-0.468225020570783
 10
9.653285372948961
 20
-0.4673915938281509
 10
9.65356005771448
 20
-0.466438848637498
 10
9.651957008958217
 20
-0.466438848637498
 10
9.651810654608074
 20
-0.4670985246491899
 10
9.65157237819074
 20
-0.4676846630071149
 10
9.651251912630963
 20
-0.4681882517439109
 10
9.650867281863496
 20
-0.4686006393708839
 10
9.650409113442253
 20
-0.4689304773767389
 10
9.64990552470546
 20
-0.469168393315383
 10
9.649355794695722
 20
-0.4693151081442
 10
9.648769656337794
 20
-0.4693699009058319
 10
9.647835295560585
 20
-0.46928771176339
 10
9.647019892752688
 20
-0.469040423378679
 10
9.646333180838884
 20
-0.468655432132516
 10
9.645774438861764
 20
-0.468133458982283
 10
9.645334654853974
 20
-0.4675105517974689
 10
9.645023201261568
 20
-0.466787071056782
 10
9.644840078084556
 20
-0.4659810406949629
 10
9.64477591287686
 20
-0.4651108451254419
 97
        0
 92
        3
 72
     0
 73
     1
 93
       12
 10
9.656747770813599
 20
-0.4704325920984329
 10
9.658075774325658
 20
-0.4704325920984329
 10
9.658075774325658
 20
-0.465641830243046
 10
9.663663194096797
 20
-0.465641830243046
 10
9.663663194096797
 20
-0.4704325920984329
 10
9.665266242853075
 20
-0.4704325920984329
 10
9.665266242853075
 20
-0.4597887376737499
 10
9.663663194096797
 20
-0.4597887376737499
 10
9.663663194096797
 20
-0.4643138267309889
 10
9.658075774325658
 20
-0.4643138267309889
 10
9.658075774325658
 20
-0.4597887376737499
 10
9.656747770813599
 20
-0.4597887376737499
 97
        0
 92
        3
 72
     0
 73
     1
 93
       12
 10
9.668719628750337
 20
-0.4704325920984329
 10
9.676175409597207
 20
-0.4704325920984329
 10
9.676175409597207
 20
-0.4691042281076799
 10
9.670057004708447
 20
-0.4691042281076799
 10
9.670057004708447
 20
-0.465641830243046
 10
9.675369379235377
 20
-0.465641830243046
 10
9.675369379235377
 20
-0.4643138267309889
 10
9.670057004708447
 20
-0.4643138267309889
 10
9.670057004708447
 20
-0.4611171016645089
 10
9.676175409597207
 20
-0.4611171016645089
 10
9.676175409597207
 20
-0.4597887376737499
 10
9.668719628750337
 20
-0.4597887376737499
 97
        0
 92
        3
 72
     0
 73
     1
 93
       90
 10
9.591429391774163
 20
-0.47799867942595
 10
9.591127310627817
 20
-0.4777052497682939
 10
9.59105377297406
 20
-0.4775405110047189
 10
9.59103574903931
 20
-0.477348015381636
 10
9.591081529833566
 20
-0.4770733306161079
 10
9.591209499770267
 20
-0.4768444266448399
 10
9.591392983425969
 20
-0.4766613034678279
 10
9.591630899364613
 20
-0.4765145886389919
 10
9.592153232993544
 20
-0.476340477429359
 10
9.592629425349518
 20
-0.4762856846677199
 10
9.593417071297903
 20
-0.476377246256226
 10
9.59380170206538
 20
-0.4764962042255599
 10
9.594158936452041
 20
-0.476651931021755
 10
9.59480022805028
 20
-0.4770733306161079
 10
9.595285792852327
 20
-0.4776136881797819
 10
9.597419826726211
 20
-0.4762856846677199
 10
9.596906865543355
 20
-0.4758094923117469
 10
9.596375880425748
 20
-0.475388092717392
 10
9.595826150416007
 20
-0.475030858330741
 10
9.595258396471523
 20
-0.47471940473833
 10
9.594671897634893
 20
-0.474481128320994
 10
9.594085759276972
 20
-0.474298005143978
 10
9.59349024847298
 20
-0.4741970711093989
 10
9.592895098147677
 20
-0.4741606627612159
 10
9.592024902578164
 20
-0.4742064435554739
 10
9.591218872216334
 20
-0.4743621703516779
 10
9.59049503099695
 20
-0.4746184707037579
 10
9.589872123812132
 20
-0.4749850775364819
 10
9.589350150661911
 20
-0.4754702818598339
 10
9.588965519894439
 20
-0.476065792663833
 10
9.588828177511678
 20
-0.476404642637045
 10
9.588718231509723
 20
-0.4767802614371439
 10
9.588635681888599
 20
-0.4776136881797819
 10
9.588690835128913
 20
-0.4781908145703449
 10
9.588846561925115
 20
-0.478713148199265
 10
9.58909385030983
 20
-0.479179968109179
 10
9.589432700283032
 20
-0.4795923557361559
 10
9.589854099877394
 20
-0.4799402176767479
 10
9.590357688614182
 20
-0.4802152629209639
 10
9.590943826972115
 20
-0.4804257824787989
 10
9.591585118570357
 20
-0.4805631248615579
 10
9.593719512922936
 20
-0.4810029088693469
 10
9.594186693311542
 20
-0.481112854871298
 10
9.594507158871322
 20
-0.481286966080939
 10
9.594699654494406
 20
-0.481524882019586
 10
9.594754447256033
 20
-0.4818731044388689
 10
9.594708666461775
 20
-0.4821571616504579
 10
9.594580336046395
 20
-0.4824134620025409
 10
9.594378828455927
 20
-0.4826423659738059
 10
9.594122528103846
 20
-0.482834861596898
 10
9.593838470892257
 20
-0.4829905883931019
 10
9.59351800533248
 20
-0.4831095463624139
 10
9.592895098147677
 20
-0.48320110795093
 10
9.59198813375127
 20
-0.4831095463624139
 10
9.591594491016433
 20
-0.4829905883931019
 10
9.591227884183704
 20
-0.482834861596898
 10
9.59057758061809
 20
-0.4824134620025409
 10
9.58996404587934
 20
-0.4818731044388689
 10
9.587838663494137
 20
-0.4829357956314699
 10
9.588425162330758
 20
-0.4834851651625149
 10
9.589002288721305
 20
-0.483943333583747
 10
9.589561030698427
 20
-0.484309579937784
 10
9.59013779661028
 20
-0.4846026491167519
 10
9.59071492300084
 20
-0.4848135291532719
 10
9.591319445772209
 20
-0.484959883503404
 10
9.591951725403087
 20
-0.485042433124537
 10
9.592629425349518
 20
-0.4850698295053529
 10
9.59337129050366
 20
-0.4850330606784729
 10
9.594158936452041
 20
-0.4849324871225899
 10
9.594964966813855
 20
-0.484730979532132
 10
9.595725216381433
 20
-0.4844011415262899
 10
9.596073438800719
 20
-0.4841812495223909
 10
9.596393904360495
 20
-0.48392494917031
 10
9.596677961572084
 20
-0.4836225075452779
 10
9.596934622402863
 20
-0.4832652731586249
 10
9.597136129993316
 20
-0.4828716304237759
 10
9.597291856789514
 20
-0.4824134620025409
 10
9.597383418378032
 20
-0.481909873265749
 10
9.597419826726211
 20
-0.4813417588425679
 10
9.597383418378032
 20
-0.4809113472808429
 10
9.59728248434345
 20
-0.480526716513366
 10
9.597126757547242
 20
-0.480196878507522
 10
9.596925249956792
 20
-0.479903809328566
 10
9.596668949604704
 20
-0.4796471484977839
 10
9.596384892393122
 20
-0.479427616972583
 10
9.595707192446687
 20
-0.4790793945532959
 10
9.594946942879117
 20
-0.4788411181359579
 10
9.594140912517283
 20
-0.478667006926312
 10
9.592629425349518
 20
-0.4784107065742309
 10
9.59193334098965
 20
-0.4782275833972189
 97
        0
 92
        3
 72
     0
 73
     1
 93
        8
 10
9.603804264891805
 20
-0.476551357465876
 10
9.606460632394613
 20
-0.476551357465876
 10
9.606460632394613
 20
-0.4744263355593639
 10
9.59848251791882
 20
-0.4744263355593639
 10
9.59848251791882
 20
-0.476551357465876
 10
9.601138885421621
 20
-0.476551357465876
 10
9.601138885421621
 20
-0.4847951447398289
 10
9.603804264891805
 20
-0.4847951447398289
 97
        0
 92
        3
 72
     0
 73
     1
 93
       12
 10
9.60832935394904
 20
-0.4847951447398289
 10
9.616307468424843
 20
-0.4847951447398289
 10
9.616307468424843
 20
-0.4829357956314699
 10
9.610720048653704
 20
-0.4829357956314699
 10
9.610720048653704
 20
-0.4805451009268069
 10
9.615510450030394
 20
-0.4805451009268069
 10
9.615510450030394
 20
-0.4784107065742309
 10
9.610720048653704
 20
-0.4784107065742309
 10
9.610720048653704
 20
-0.476551357465876
 10
9.615776122828546
 20
-0.476551357465876
 10
9.615776122828546
 20
-0.4744263355593639
 10
9.60832935394904
 20
-0.4744263355593639
 97
        0
 92
        3
 72
     0
 73
     1
 93
        4
 10
9.618166817533202
 20
-0.4847951447398289
 10
9.620832197003383
 20
-0.4847951447398289
 10
9.620832197003383
 20
-0.4744263355593639
 10
9.618166817533202
 20
-0.4744263355593639
 97
        0
 92
        3
 72
     0
 73
     1
 93
       10
 10
9.625622958858774
 20
-0.4847951447398289
 10
9.625622958858774
 20
-0.4784107065742309
 10
9.629341657075486
 20
-0.4847951447398289
 10
9.632007036545671
 20
-0.4847951447398289
 10
9.632007036545671
 20
-0.4744263355593639
 10
9.629607329873638
 20
-0.4744263355593639
 10
9.629607329873638
 20
-0.4810760860444219
 10
9.625888631656926
 20
-0.4744263355593639
 10
9.623222891708046
 20
-0.4744263355593639
 10
9.623222891708046
 20
-0.4847951447398289
 97
        0
 92
        3
 72
     0
 73
     1
 93
       10
 10
9.642916563768503
 20
-0.476551357465876
 10
9.642916563768503
 20
-0.4744263355593639
 10
9.634397731250335
 20
-0.4744263355593639
 10
9.634397731250335
 20
-0.476551357465876
 10
9.639719838702014
 20
-0.476551357465876
 10
9.634132418930873
 20
-0.4829357956314699
 10
9.634132418930873
 20
-0.4847951447398289
 10
9.642916563768503
 20
-0.4847951447398289
 10
9.642916563768503
 20
-0.4829357956314699
 10
9.63732914399735
 20
-0.4829357956314699
 97
        0
 92
        3
 72
     0
 73
     1
 93
       12
 10
9.645041585675008
 20
-0.4847951447398289
 10
9.653028712118182
 20
-0.4847951447398289
 10
9.653028712118182
 20
-0.4829357956314699
 10
9.647706965145197
 20
-0.4829357956314699
 10
9.647706965145197
 20
-0.4805451009268069
 10
9.652222681756356
 20
-0.4805451009268069
 10
9.652222681756356
 20
-0.4784107065742309
 10
9.647706965145197
 20
-0.4784107065742309
 10
9.647706965145197
 20
-0.476551357465876
 10
9.65275402735266
 20
-0.476551357465876
 10
9.65275402735266
 20
-0.4744263355593639
 10
9.645041585675008
 20
-0.4744263355593639
 97
        0
 92
        3
 72
     0
 73
     1
 93
       42
 10
9.657544789208051
 20
-0.4744263355593639
 10
9.654888421705245
 20
-0.4744263355593639
 10
9.654888421705245
 20
-0.4813417588425679
 10
9.654915818086048
 20
-0.4818183116772389
 10
9.65499836770718
 20
-0.4822671076524069
 10
9.65512633764388
 20
-0.4826701228333219
 10
9.655291436886145
 20
-0.483045381154726
 10
9.655758617274751
 20
-0.4836866727529729
 10
9.65635376760006
 20
-0.4841996339358309
 10
9.657040839992566
 20
-0.484584264703302
 10
9.657801089560133
 20
-0.484859309947525
 10
9.658607119921951
 20
-0.4850150367437209
 10
9.659413150283777
 20
-0.4850698295053529
 10
9.660127619057086
 20
-0.4850150367437209
 10
9.660860472243854
 20
-0.484859309947525
 10
9.66157494101717
 20
-0.484584264703302
 10
9.662234256550157
 20
-0.4841996339358309
 10
9.662811382940724
 20
-0.4836866727529729
 10
9.663260178915884
 20
-0.483045381154726
 10
9.66343429012553
 20
-0.4826701228333219
 10
9.66356262054091
 20
-0.4822671076524069
 10
9.66363579771599
 20
-0.4818183116772389
 10
9.663663194096797
 20
-0.4813417588425679
 10
9.663663194096797
 20
-0.4744263355593639
 10
9.661272499392133
 20
-0.4744263355593639
 10
9.661272499392133
 20
-0.4810760860444219
 10
9.661245103011323
 20
-0.4814700892579559
 10
9.661171925836253
 20
-0.4818547200254319
 10
9.661034583453493
 20
-0.482211954412083
 10
9.660842087830414
 20
-0.4825417924179269
 10
9.660585787478325
 20
-0.4828074652160789
 10
9.660264961439854
 20
-0.4830179847739119
 10
9.659871318705013
 20
-0.4831553271566689
 10
9.659413150283777
 20
-0.48320110795093
 10
9.65894596989517
 20
-0.4831553271566689
 10
9.658561339127704
 20
-0.4830179847739119
 10
9.65824087356792
 20
-0.4828074652160789
 10
9.657984212737144
 20
-0.4825417924179269
 10
9.657782705146692
 20
-0.482211954412083
 10
9.657654374731298
 20
-0.4818547200254319
 10
9.657572185588855
 20
-0.4814700892579559
 10
9.657544789208051
 20
-0.4810760860444219
 97
        0
 92
        3
 72
     0
 73
     1
 93
       75
 10
9.66587076562444
 20
-0.4808929628674009
 10
9.666090657628338
 20
-0.4819188852331199
 10
9.666264768837976
 20
-0.482395077589102
 10
9.666466276428434
 20
-0.482834861596898
 10
9.666713564813149
 20
-0.4832378767778059
 10
9.666997622024734
 20
-0.483604123131837
 10
9.667666310003803
 20
-0.4842270303166439
 10
9.668059952738645
 20
-0.484474318701353
 10
9.668490364300371
 20
-0.4846851987378789
 10
9.668957544688968
 20
-0.4848499375014539
 10
9.669461493904462
 20
-0.4849692559494739
 10
9.670587989826057
 20
-0.4850698295053529
 10
9.67153172304934
 20
-0.4850150367437209
 10
9.672346765378533
 20
-0.484831553088011
 10
9.672703999765202
 20
-0.4846851987378789
 10
9.673015453357603
 20
-0.4845020755608579
 10
9.673290138123129
 20
-0.484272811110902
 10
9.673510030127028
 20
-0.4839981263453769
 10
9.673510030127028
 20
-0.4847951447398289
 10
9.675644424479596
 20
-0.4847951447398289
 10
9.675644424479596
 20
-0.4792077249686839
 10
9.671119335422365
 20
-0.4792077249686839
 10
9.671119335422365
 20
-0.4810760860444219
 10
9.67324435732887
 20
-0.4810760860444219
 10
9.673189564567245
 20
-0.4815342544656529
 10
9.673024465324977
 20
-0.4819278972004929
 10
9.672786549386325
 20
-0.4822487232389639
 10
9.672484107761306
 20
-0.482505023591052
 10
9.672145257788085
 20
-0.4826975192141279
 10
9.671788023401433
 20
-0.482834861596898
 10
9.671119335422365
 20
-0.4829357956314699
 10
9.670469031856738
 20
-0.482880642391148
 10
9.669919301846996
 20
-0.4826975192141279
 10
9.669452481937093
 20
-0.4824134620025409
 10
9.669085875104367
 20
-0.4820378432024459
 10
9.668811190338841
 20
-0.4815706628138349
 10
9.668609682748379
 20
-0.4810303052501649
 10
9.668490364300371
 20
-0.4804167705114189
 10
9.668453955952181
 20
-0.479748082532363
 10
9.668508748713808
 20
-0.478905283343654
 10
9.66864609109657
 20
-0.4781908145703449
 10
9.668875355546545
 20
-0.4775956642450389
 10
9.669186809138937
 20
-0.47711911141036
 10
9.66957143990641
 20
-0.4767528650563339
 10
9.670029247848946
 20
-0.476487192258182
 10
9.670542209031803
 20
-0.4763314654619799
 10
9.671119335422365
 20
-0.4762856846677199
 10
9.671861200576492
 20
-0.476377246256226
 10
9.672200411028411
 20
-0.4764962042255599
 10
9.672511504142117
 20
-0.476651931021755
 10
9.673061234151854
 20
-0.4770733306161079
 10
9.673510030127028
 20
-0.4776136881797819
 10
9.675644424479596
 20
-0.4768170302640279
 10
9.675213652439183
 20
-0.4761667266984049
 10
9.674737460083197
 20
-0.4756169966886599
 10
9.674215486932965
 20
-0.4751588282674289
 10
9.673647372509778
 20
-0.4747925819133989
 10
9.673024465324977
 20
-0.4745085247018129
 10
9.672346765378533
 20
-0.4743070171113529
 10
9.671623284637858
 20
-0.4741970711093989
 10
9.670853662624216
 20
-0.4741606627612159
 10
9.67022174347203
 20
-0.4741880591420319
 10
9.669644617081474
 20
-0.474270608763172
 10
9.669104259517804
 20
-0.474398578699859
 10
9.668600310302315
 20
-0.4745820623555639
 10
9.668142502359773
 20
-0.4748109663268419
 10
9.667730114732796
 20
-0.4750856510923599
 10
9.6673548564114
 20
-0.4753971046847719
 10
9.667025018405559
 20
-0.4757543390714229
 10
9.666731949226586
 20
-0.4761483422849629
 10
9.66648466084187
 20
-0.4765697418793129
 10
9.66627378080535
 20
-0.4770365617892309
 10
9.666099669595708
 20
-0.477522126591276
 10
9.66587076562444
 20
-0.478584817783877
 10
9.665797588449372
 20
-0.479748082532363
 97
        0
 92
       18
 72
     0
 73
     1
 93
       19
 10
9.592629425349518
 20
-0.4611171016645089
 10
9.593462852092157
 20
-0.46119027883957
 10
9.594177320865478
 20
-0.461410170843471
 10
9.594772831669477
 20
-0.4617490208166879
 10
9.595258396471523
 20
-0.4622162012052969
 10
9.595624642825555
 20
-0.4627933275958449
 10
9.595880943177628
 20
-0.4634803999883549
 10
9.596036669973834
 20
-0.4642496615232909
 10
9.596082450768092
 20
-0.4651108451254419
 10
9.596036669973834
 20
-0.4659716682488859
 10
9.595880943177628
 20
-0.4667412902625359
 10
9.595624642825555
 20
-0.4674280021763439
 10
9.595258396471523
 20
-0.4680051285668919
 10
9.594772831669477
 20
-0.4684723089554979
 10
9.594177320865478
 20
-0.4688111589287179
 10
9.593462852092157
 20
-0.4690310509326109
 10
9.592629425349518
 20
-0.4691042281076799
 10
9.590229358198801
 20
-0.4691042281076799
 10
9.590229358198801
 20
-0.4611171016645089
 97
        0
 75
     0
 76
     1
 98
        0
  0
HATCH
  5
82
330
1F
100
AcDbEntity
  8
XR$1$TB_809_1
  6
AUSGEZOGEN
 62
    18
420
        0
440
 33554687
370
    35
100
AcDbHatch
 10
0.0
 20
0.0
 30
0.0
210
0.0
220
0.0
230
1.0
  2
SOLID
 70
     1
 71
     0
 91
       20
 92
        3
 72
     0
 73
     1
 93
        8
 10
9.721937819437644
 20
-0.4600544104719079
 10
9.712090983407412
 20
-0.4847951447398289
 10
9.714481678112069
 20
-0.4847951447398289
 10
9.717412730380406
 20
-0.477348015381636
 10
9.728322257603235
 20
-0.477348015381636
 10
9.730978625106044
 20
-0.4847951447398289
 10
9.73364400457623
 20
-0.4847951447398289
 10
9.724062841344148
 20
-0.4600544104719079
 97
        0
 92
        3
 72
     0
 73
     1
 93
      116
 10
9.736566044877193
 20
-0.4725576140049369
 10
9.736602453225377
 20
-0.4716048688142869
 10
9.736694014813885
 20
-0.4706431116562629
 10
9.736849741610083
 20
-0.4696723425308579
 10
9.737079006060045
 20
-0.468719597340206
 10
9.73737207523901
 20
-0.4677946090090619
 10
9.737729309625669
 20
-0.466887644612663
 10
9.738159721187396
 20
-0.4660268214892089
 10
9.73866367040289
 20
-0.4652114186813189
 10
9.73924043631474
 20
-0.464460541559825
 10
9.73988172791299
 20
-0.4637734691673189
 10
9.7405961966863
 20
-0.4631595739498839
 10
9.741393215080763
 20
-0.462646612767024
 10
9.742263410650281
 20
-0.462225573651365
 10
9.743215795362241
 20
-0.4619141200589589
 10
9.744241717727958
 20
-0.4617216244358759
 10
9.745350189714816
 20
-0.4616484472608069
 10
9.746669181259495
 20
-0.4617306364032489
 10
9.74785083042142
 20
-0.4619599008532159
 10
9.748391187985098
 20
-0.462133651584157
 10
9.748894776721892
 20
-0.4623535435880579
 10
9.74936195711049
 20
-0.4626102044188329
 10
9.749801741118288
 20
-0.4629122855651689
 10
9.750589387066677
 20
-0.4636541507192989
 10
9.751258075045728
 20
-0.4645701270830699
 10
9.75181681702285
 20
-0.4656785990699239
 10
9.752265612998013
 20
-0.4669701942337969
 10
9.75465630770267
 20
-0.465641830243046
 10
9.753914442548547
 20
-0.464231277109852
 10
9.753053619425089
 20
-0.463003847153678
 10
9.752091862267065
 20
-0.461950528407141
 10
9.75156051667076
 20
-0.4614927204646039
 10
9.751001774693643
 20
-0.461089705283687
 10
9.75041563633573
 20
-0.4607230984509649
 10
9.749792729150908
 20
-0.4604116448585689
 10
9.74913305313922
 20
-0.460136960093037
 10
9.748445980746718
 20
-0.459917068089143
 10
9.746971262405834
 20
-0.459623998910181
 10
9.745350189714816
 20
-0.4595234253543
 10
9.74394864854899
 20
-0.4595966025293669
 10
9.742657053385123
 20
-0.4598071220871929
 10
9.741448007842385
 20
-0.4601553445064789
 10
9.740348908301604
 20
-0.4606225248950859
 10
9.73934137034932
 20
-0.461208663253017
 10
9.738425393985544
 20
-0.4618957356455169
 10
9.737600979210285
 20
-0.4626743696265289
 10
9.736868126023525
 20
-0.4635445651960459
 10
9.73622683442527
 20
-0.4644969499080059
 10
9.73567746489423
 20
-0.4655138603063559
 10
9.735210284505621
 20
-0.466585563466329
 10
9.734834665705527
 20
-0.467721431833993
 10
9.73454159652657
 20
-0.4688846965824769
 10
9.734340088936104
 20
-0.4700937421252189
 10
9.734211758520724
 20
-0.471321172081395
 10
9.73417535017253
 20
-0.4725576140049369
 10
9.734211758520724
 20
-0.473894989963064
 10
9.734340088936104
 20
-0.475186585126931
 10
9.73454159652657
 20
-0.4764320390178609
 10
9.734825653738145
 20
-0.4776320725932229
 10
9.735191900092177
 20
-0.4787679409608929
 10
9.735650068513417
 20
-0.4798396441208689
 10
9.736181053631014
 20
-0.4808471820731439
 10
9.736803960815832
 20
-0.4817721704042949
 10
9.737500045175707
 20
-0.4826149695930029
 10
9.73828805160278
 20
-0.483366207193197
 10
9.739167259139675
 20
-0.4840165107588209
 10
9.740120004330326
 20
-0.4845752527359279
 10
9.741163950630792
 20
-0.485005664297659
 10
9.742299818998465
 20
-0.4853355023034989
 10
9.7435088645412
 20
-0.4855279979265839
 10
9.74481884411852
 20
-0.485601175101651
 10
9.745917943659304
 20
-0.4855370098939559
 10
9.747026415646156
 20
-0.4853445142708759
 10
9.748107130773503
 20
-0.4850240487110959
 10
9.749142425585287
 20
-0.484566240768566
 10
9.750094810297247
 20
-0.4839707299645659
 10
9.7509559938994
 20
-0.4832378767778059
 10
9.751688847086156
 20
-0.4823676812082949
 10
9.751990928232495
 20
-0.4818731044388689
 10
9.752265612998013
 20
-0.4813417588425679
 10
9.752265612998013
 20
-0.4847951447398289
 10
9.754390634904528
 20
-0.4847951447398289
 10
9.754390634904528
 20
-0.4720262684086399
 10
9.743215795362241
 20
-0.4720262684086399
 10
9.743215795362241
 20
-0.4741606627612159
 10
9.752265612998013
 20
-0.4741606627612159
 10
9.752265612998013
 20
-0.475488666273271
 10
9.752165039442135
 20
-0.476826042231401
 10
9.751853585849727
 20
-0.4781908145703449
 10
9.751606297465017
 20
-0.4788685145167739
 10
9.751313228286056
 20
-0.479528190528464
 10
9.7509559938994
 20
-0.480169482126711
 10
9.750534594305046
 20
-0.480774004898077
 10
9.75005840194906
 20
-0.4813417588425679
 10
9.749508671939326
 20
-0.4818547200254319
 10
9.748904149167952
 20
-0.482312888446663
 10
9.748226449221521
 20
-0.482706531181505
 10
9.747484223588694
 20
-0.483027357219976
 10
9.746659808813428
 20
-0.4832652731586249
 10
9.745780601276536
 20
-0.483420999954821
 10
9.74481884411852
 20
-0.483466780749076
 10
9.743756152925915
 20
-0.4834026155413839
 10
9.742785383800515
 20
-0.4832104803969929
 10
9.741878419404104
 20
-0.482899026804588
 10
9.741054365107543
 20
-0.4824776272102399
 10
9.740312139474725
 20
-0.4819556540600019
 10
9.739634439528276
 20
-0.4813511312886319
 10
9.739029916756918
 20
-0.4806640588961339
 10
9.738498571160617
 20
-0.4799128212959379
 10
9.738031390772008
 20
-0.4790977789667369
 10
9.737637748037162
 20
-0.478236595364589
 10
9.737298537585245
 20
-0.4773299914468819
 10
9.73703322526579
 20
-0.4763956306696699
 10
9.736831717675345
 20
-0.4754428854790269
 10
9.736685002846512
 20
-0.474481128320994
 10
9.736593441257996
 20
-0.4735193711629679
 97
        0
 92
        3
 72
     0
 73
     1
 93
       37
 10
9.757853032769155
 20
-0.4847951447398289
 10
9.760243727473819
 20
-0.4847951447398289
 10
9.760243727473819
 20
-0.473894989963064
 10
9.765831507723655
 20
-0.473894989963064
 10
9.773818634166823
 20
-0.4847951447398289
 10
9.776740674467794
 20
-0.4847951447398289
 10
9.76876255999199
 20
-0.473894989963064
 10
9.770365608748259
 20
-0.4736934823726089
 10
9.771107473902394
 20
-0.4735193711629679
 10
9.771794185816201
 20
-0.4732994791590709
 10
9.772435477414449
 20
-0.4730247943935459
 10
9.773021615772384
 20
-0.4727043288337689
 10
9.773562333814748
 20
-0.472337722001045
 10
9.774047538138094
 20
-0.471925694852761
 10
9.774487322145887
 20
-0.471467526431528
 10
9.77486294094599
 20
-0.4709639376947339
 10
9.775192778951839
 20
-0.47041420768499
 10
9.775458091271291
 20
-0.469809684913623
 10
9.775668971307812
 20
-0.469168393315383
 10
9.775824698104014
 20
-0.4684816814015659
 10
9.77591625969252
 20
-0.467748828214809
 10
9.77594365607333
 20
-0.4669701942337969
 10
9.77584308251745
 20
-0.4656785990699239
 10
9.775531628925052
 20
-0.464432784700311
 10
9.775293352507717
 20
-0.463837634375005
 10
9.77500929529612
 20
-0.4632605079844569
 10
9.774652060909466
 20
-0.462720150420783
 10
9.774249045728556
 20
-0.4622162012052969
 10
9.773781865339952
 20
-0.4617490208166879
 10
9.773259892189712
 20
-0.4613369936684019
 10
9.772664381385718
 20
-0.460961374868302
 10
9.772014077820096
 20
-0.4606499212759019
 10
9.771299609046778
 20
-0.460393620923816
 10
9.770520975065772
 20
-0.4602101372681069
 10
9.769678536355764
 20
-0.4600911792987889
 10
9.76876255999199
 20
-0.4600544104719079
 10
9.757853032769155
 20
-0.4600544104719079
 97
        0
 92
        3
 72
     0
 73
     1
 93
       64
 10
9.777702431625817
 20
-0.475030858330741
 10
9.777912951183641
 20
-0.476230531427403
 10
9.77819700839524
 20
-0.477403168621956
 10
9.778572627195329
 20
-0.4785296645435529
 10
9.77903043513787
 20
-0.4796107401495989
 10
9.77957115318024
 20
-0.480627290069254
 10
9.780203072332418
 20
-0.4815706628138349
 10
9.780917541105737
 20
-0.4824408583833529
 10
9.781723571467563
 20
-0.483228864810434
 10
9.782621163417891
 20
-0.483915576724242
 10
9.783601304989363
 20
-0.4844927031147959
 10
9.784682020116717
 20
-0.484959883503404
 10
9.785845284865191
 20
-0.485308105922685
 10
9.787100471680874
 20
-0.4855279979265839
 10
9.788437126681613
 20
-0.485601175101651
 10
9.789747106258922
 20
-0.4855279979265839
 10
9.790965524247724
 20
-0.485308105922685
 10
9.79209202016933
 20
-0.484959883503404
 10
9.793136326948487
 20
-0.4844927031147959
 10
9.794088711660454
 20
-0.483915576724242
 10
9.794968279676032
 20
-0.483228864810434
 10
9.795755925624421
 20
-0.4824408583833529
 10
9.796452009984296
 20
-0.4815706628138349
 10
9.797074917169095
 20
-0.480627290069254
 10
9.797606262765406
 20
-0.4796107401495989
 10
9.798064070707944
 20
-0.4785296645435529
 10
9.79843067754067
 20
-0.477403168621956
 10
9.798714374273565
 20
-0.476230531427403
 10
9.798925254310085
 20
-0.475030858330741
 10
9.799044212279405
 20
-0.473803428374565
 10
9.799080981106286
 20
-0.4725576140049369
 10
9.799044212279405
 20
-0.471321172081395
 10
9.798925254310085
 20
-0.4700937421252189
 10
9.798714374273565
 20
-0.4688846965824769
 10
9.79843067754067
 20
-0.467721431833993
 10
9.798064070707944
 20
-0.466585563466329
 10
9.797606262765406
 20
-0.4655138603063559
 10
9.797074917169095
 20
-0.4644969499080059
 10
9.796452009984296
 20
-0.4635445651960459
 10
9.795755925624421
 20
-0.4626743696265289
 10
9.794968279676032
 20
-0.4618957356455169
 10
9.794088711660454
 20
-0.461208663253017
 10
9.793136326948487
 20
-0.4606225248950859
 10
9.79209202016933
 20
-0.4601553445064789
 10
9.790965524247724
 20
-0.4598071220871929
 10
9.789747106258922
 20
-0.4595966025293669
 10
9.788437126681613
 20
-0.4595234253543
 10
9.787100471680874
 20
-0.4595966025293669
 10
9.785845284865191
 20
-0.4598071220871929
 10
9.784682020116717
 20
-0.4601553445064789
 10
9.783601304989363
 20
-0.4606225248950859
 10
9.782621163417891
 20
-0.461208663253017
 10
9.781723571467563
 20
-0.4618957356455169
 10
9.780917541105737
 20
-0.4626743696265289
 10
9.780203072332418
 20
-0.4635445651960459
 10
9.77957115318024
 20
-0.4644969499080059
 10
9.77903043513787
 20
-0.4655138603063559
 10
9.778572627195329
 20
-0.466585563466329
 10
9.77819700839524
 20
-0.467721431833993
 10
9.777912951183641
 20
-0.4688846965824769
 10
9.777702431625817
 20
-0.4700937421252189
 10
9.777583473656493
 20
-0.471321172081395
 10
9.777546704829609
 20
-0.4725576140049369
 10
9.777583473656493
 20
-0.473803428374565
 97
        0
 92
        3
 72
     0
 73
     1
 93
       57
 10
9.812921200118755
 20
-0.4847951447398289
 10
9.813928738071034
 20
-0.484758375912948
 10
9.814863098848248
 20
-0.4846578023570679
 10
9.815733294417768
 20
-0.484483691147422
 10
9.816521300844856
 20
-0.484245414730084
 10
9.817244781585535
 20
-0.4839523455511219
 10
9.817904097118536
 20
-0.483604123131837
 10
9.81849059595515
 20
-0.4832104803969929
 10
9.819003557138018
 20
-0.4827706963892029
 10
9.819461365080555
 20
-0.4822851315871549
 10
9.81984599584803
 20
-0.4817721704042949
 10
9.820175833853872
 20
-0.4812228008732449
 10
9.820441506652028
 20
-0.4806456744826949
 10
9.820643014242476
 20
-0.480050163678697
 10
9.820789729071304
 20
-0.479427616972583
 10
9.82087191821374
 20
-0.4787953373417089
 10
9.820899314594564
 20
-0.478145033776086
 10
9.820826137419491
 20
-0.4768902074390929
 10
9.820597233448222
 20
-0.4757269426906129
 10
9.820414110271214
 20
-0.4751772126808659
 10
9.820203230234679
 20
-0.4746642514980059
 10
9.81993755743653
 20
-0.47417904717466
 10
9.819635476290198
 20
-0.4737208787534249
 10
9.819287253870916
 20
-0.4733088516051399
 10
9.818902623103444
 20
-0.472923860358976
 10
9.818462839095647
 20
-0.4725759984183819
 10
9.817986646739667
 20
-0.472273556793348
 10
9.81745530114336
 20
-0.4720078839952029
 10
9.816878174752809
 20
-0.471797364437366
 10
9.816255628046699
 20
-0.471623253227733
 10
9.815577567621563
 20
-0.4714949228123359
 10
9.816695051575794
 20
-0.4712386224602549
 10
9.817180616377838
 20
-0.4710554992832379
 10
9.817629412353007
 20
-0.4708446192467119
 10
9.818417058301387
 20
-0.470341030509927
 10
9.819039965486201
 20
-0.4696997389116739
 10
9.81951651832087
 20
-0.4689394893441049
 10
9.81969964149789
 20
-0.4685090777823779
 10
9.81984599584803
 20
-0.46805090936115
 10
9.820038491471115
 20
-0.4670433714088659
 10
9.820102656678806
 20
-0.4659075030411959
 10
9.820056875884552
 20
-0.465275583889016
 10
9.81987375270754
 20
-0.464432784700311
 10
9.81971802591133
 20
-0.463965604311702
 10
9.81949813390743
 20
-0.46347102754228
 10
9.81922308866322
 20
-0.4629764507728659
 10
9.81887522672262
 20
-0.4624818740034419
 10
9.8184448151609
 20
-0.4620056816474639
 10
9.81793185397804
 20
-0.461556885672296
 10
9.817327331206679
 20
-0.4611444980453189
 10
9.816621874400727
 20
-0.460787263658661
 10
9.815806832071535
 20
-0.460485182512322
 10
9.814881483261692
 20
-0.4602559180623569
 10
9.813837176482528
 20
-0.4601095637122299
 10
9.81265552732061
 20
-0.4600544104719079
 10
9.802012033374623
 20
-0.4600544104719079
 10
9.802012033374623
 20
-0.4847951447398289
 97
        0
 92
        3
 72
     0
 73
     1
 93
       56
 10
9.82888680151643
 20
-0.4847951447398289
 10
9.84006164105871
 20
-0.4847951447398289
 10
9.842324005347987
 20
-0.484712595118695
 10
9.843359300159781
 20
-0.4845936371493689
 10
9.844330069285164
 20
-0.4844285379071039
 10
9.845227661235501
 20
-0.4842090063819009
 10
9.846061448456837
 20
-0.483943333583747
 10
9.846821698024403
 20
-0.4836225075452779
 10
9.847508770416905
 20
-0.4832378767778059
 10
9.848122305155652
 20
-0.482798092770015
 10
9.848653650751952
 20
-0.4822945040332189
 10
9.84911145869449
 20
-0.4817263896100369
 10
9.849487077494588
 20
-0.4810944704578529
 10
9.84978014667355
 20
-0.48039838609798
 10
9.849991026710082
 20
-0.4796291245630359
 10
9.85012836909284
 20
-0.4787953373417089
 10
9.85016477744102
 20
-0.477879360977931
 10
9.85013738106021
 20
-0.4772106729988709
 10
9.850045819471703
 20
-0.4765787538466859
 10
9.849899465121561
 20
-0.4760016274561379
 10
9.849697957531117
 20
-0.4754702818598339
 10
9.849450308667711
 20
-0.4749850775364819
 10
9.849157239488742
 20
-0.474545293528693
 10
9.848818389515527
 20
-0.4741512903151519
 10
9.848442770715424
 20
-0.4737940559284899
 10
9.848021371121071
 20
-0.4734735903687189
 10
9.847572575145914
 20
-0.4731989056031879
 10
9.847087370822559
 20
-0.4729606291858559
 10
9.846574409639695
 20
-0.472759121595397
 10
9.84548432206628
 20
-0.4724566799703709
 10
9.844311684871725
 20
-0.4722919412067889
 10
9.844311684871725
 20
-0.4720262684086399
 10
9.8454475532394
 20
-0.4716874184354229
 10
9.84645509119168
 20
-0.4712660188410749
 10
9.847316274793826
 20
-0.470753057658211
 10
9.848039755534508
 20
-0.470130150473401
 10
9.848607869957695
 20
-0.4693976577653369
 10
9.848836773928964
 20
-0.468994642584429
 10
9.849029269552048
 20
-0.4685454861305689
 10
9.849285569904136
 20
-0.4675657050377919
 10
9.849368119525268
 20
-0.466438848637498
 10
9.849331350698394
 20
-0.4656238063083009
 10
9.849212392729067
 20
-0.4648725687081049
 10
9.849019897105984
 20
-0.4641764843482259
 10
9.848754224307832
 20
-0.463535192749979
 10
9.848424746780681
 20
-0.4629580663594249
 10
9.848021371121071
 20
-0.4624360932091919
 10
9.847563563178534
 20
-0.461968912820591
 10
9.847041590028308
 20
-0.461556885672296
 10
9.846464463637746
 20
-0.46119027883957
 10
9.84583254448557
 20
-0.4608788252471669
 10
9.845154484060433
 20
-0.4606225248950859
 10
9.844431003319752
 20
-0.4604210173046309
 10
9.84285535094429
 20
-0.4601459720604119
 10
9.841124332251312
 20
-0.4600544104719079
 10
9.82888680151643
 20
-0.4600544104719079
 97
        0
 92
        3
 72
     0
 73
     1
 93
       58
 10
9.854424193700106
 20
-0.4762856846677199
 10
9.854488358907801
 20
-0.4774857182430929
 10
9.854671482084822
 20
-0.4785938297512499
 10
9.854973923709847
 20
-0.4796107401495989
 10
9.855376938890767
 20
-0.4805451009268069
 10
9.855871515660183
 20
-0.481396912082887
 10
9.856448642050738
 20
-0.4821571616504579
 10
9.857098945616363
 20
-0.482834861596898
 10
9.857813414389675
 20
-0.483439384368258
 10
9.858592048370687
 20
-0.4839613575184989
 10
9.85941646314595
 20
-0.4844011415262899
 10
9.860268274302019
 20
-0.4847767603263919
 10
9.861156493806291
 20
-0.485078841472719
 10
9.862063458202698
 20
-0.485308105922685
 10
9.862979434566471
 20
-0.4854728446862639
 10
9.86389541093024
 20
-0.4855644062747699
 10
9.864802375326638
 20
-0.485601175101651
 10
9.86570897924434
 20
-0.4855644062747699
 10
9.866624955608117
 20
-0.4854728446862639
 10
9.867540931971886
 20
-0.485308105922685
 10
9.868438523922217
 20
-0.485078841472719
 10
9.869327103905176
 20
-0.4847767603263919
 10
9.870188287507329
 20
-0.4844011415262899
 10
9.871012702282599
 20
-0.4839613575184989
 10
9.871781963817527
 20
-0.483439384368258
 10
9.872505444558225
 20
-0.482834861596898
 10
9.873156108602544
 20
-0.4821571616504579
 10
9.873732874514397
 20
-0.481396912082887
 10
9.87422781176251
 20
-0.4805451009268069
 10
9.874630826943427
 20
-0.4796107401495989
 10
9.874932908089766
 20
-0.4785938297512499
 10
9.875116031266778
 20
-0.4774857182430929
 10
9.87518019647447
 20
-0.4762856846677199
 10
9.87518019647447
 20
-0.4600544104719079
 10
9.869061431107031
 20
-0.4600544104719079
 10
9.869061431107031
 20
-0.4757543390714229
 10
9.8690066383454
 20
-0.4767254686755139
 10
9.868841539103133
 20
-0.4776230606258529
 10
9.868557842370228
 20
-0.4784381029550509
 10
9.868127070329814
 20
-0.4791435597609969
 10
9.867550304417954
 20
-0.4797296981189169
 10
9.867202081998665
 20
-0.479967974536253
 10
9.866817451231203
 20
-0.480169482126711
 10
9.866377667223409
 20
-0.4803252089229129
 10
9.865901474867425
 20
-0.480444166892237
 10
9.864802375326638
 20
-0.4805451009268069
 10
9.863702915307156
 20
-0.480444166892237
 10
9.863226722951172
 20
-0.4803252089229129
 10
9.862786938943383
 20
-0.480169482126711
 10
9.862402308175907
 20
-0.479967974536253
 10
9.862054446235314
 20
-0.4797296981189169
 10
9.861477319844766
 20
-0.4791435597609969
 10
9.861046908283047
 20
-0.4784381029550509
 10
9.860762851071446
 20
-0.4776230606258529
 10
9.860597751829188
 20
-0.4767254686755139
 10
9.860542959067557
 20
-0.4757543390714229
 10
9.860542959067557
 20
-0.4600544104719079
 10
9.854424193700106
 20
-0.4600544104719079
 97
        0
 92
        3
 72
     0
 73
     1
 93
      105
 10
9.885558378101003
 20
-0.4725576140049369
 10
9.885585774481816
 20
-0.4715500760526599
 10
9.885677336070316
 20
-0.4706157152754519
 10
9.885824050899148
 20
-0.469745519705935
 10
9.886025558489605
 20
-0.4689578737575459
 10
9.88627284687432
 20
-0.468234032538162
 10
9.886574928020659
 20
-0.4675837289725449
 10
9.886923150439943
 20
-0.4669975906146169
 10
9.887316793174788
 20
-0.4664756174643759
 10
9.887747565215214
 20
-0.466017449043145
 10
9.888214745603811
 20
-0.465632818275671
 10
9.8887183343406
 20
-0.465302980269825
 10
9.889258691904278
 20
-0.4650373074716759
 10
9.88982680632746
 20
-0.464835799881218
 10
9.890421956652768
 20
-0.4646894455310899
 10
9.891035851870194
 20
-0.4646068959099529
 10
9.891677143468442
 20
-0.464579499529136
 10
9.8924738013842
 20
-0.4646526767042099
 10
9.893252435365216
 20
-0.4648635567407359
 10
9.893994300519335
 20
-0.4651930342678799
 10
9.894699757325284
 20
-0.465641830243046
 10
9.895341048923529
 20
-0.466191560252787
 10
9.89589979090065
 20
-0.4668234794049739
 10
9.896366610810555
 20
-0.46752893621091
 10
9.896733217643282
 20
-0.4683075701919219
 10
9.901780279850762
 20
-0.4659075030411959
 10
9.900845919073545
 20
-0.4644879379406279
 10
9.89982900867519
 20
-0.4632237391575719
 10
9.89871152472097
 20
-0.462133651584157
 10
9.898116374395668
 20
-0.461657459228177
 10
9.897493467210857
 20
-0.461217675220388
 10
9.896843163645233
 20
-0.460833044452916
 10
9.8961651032201
 20
-0.460494194479695
 10
9.895450634446782
 20
-0.4602011253007319
 10
9.894708769292665
 20
-0.4599628488833939
 10
9.893939507757711
 20
-0.459770713739009
 10
9.893133477395885
 20
-0.4596330108775479
 10
9.89229067820719
 20
-0.459550821735106
 10
9.891411470670297
 20
-0.4595234253543
 10
9.890000917537101
 20
-0.4595966025293669
 10
9.888681565513718
 20
-0.459798110119821
 10
9.887436111622803
 20
-0.460136960093037
 10
9.886281858841693
 20
-0.4605857560682009
 10
9.885210155681722
 20
-0.461153870491387
 10
9.88423001411025
 20
-0.4618221979917549
 10
9.883332422159913
 20
-0.4625918200053889
 10
9.882526391798084
 20
-0.463443631161469
 10
9.881811923024769
 20
-0.4643870039060599
 10
9.881189015839965
 20
-0.465394541858338
 10
9.880657670243664
 20
-0.4664756174643759
 10
9.880218246714572
 20
-0.4676021133859819
 10
9.879879036262658
 20
-0.468792774515279
 10
9.879631747877943
 20
-0.4700111925040789
 10
9.879485393527808
 20
-0.4712753912871369
 10
9.879430240287485
 20
-0.4725576140049369
 10
9.879485393527808
 20
-0.473849209168811
 10
9.87964112032401
 20
-0.4751040355058059
 10
9.879906793122165
 20
-0.4763314654619799
 10
9.880264027508824
 20
-0.4775131146239029
 10
9.880731207897425
 20
-0.4786489829915729
 10
9.88128994987455
 20
-0.4797296981189169
 10
9.88194025344017
 20
-0.4807372360711969
 10
9.882691130561668
 20
-0.481671596848416
 10
9.883542941717744
 20
-0.4825324199718589
 10
9.884477302494957
 20
-0.4832930300181299
 10
9.885503224860678
 20
-0.4839707299645659
 10
9.886620708814906
 20
-0.4845294719416769
 10
9.887820742390272
 20
-0.4849872798842159
 10
9.889112337554144
 20
-0.4853171178900619
 10
9.89048612186045
 20
-0.4855279979265839
 10
9.891942455787904
 20
-0.485601175101651
 10
9.892684681420723
 20
-0.485573778720841
 10
9.893417174128787
 20
-0.4854912290997049
 10
9.894864496088859
 20
-0.4851613910938589
 10
9.89556058044874
 20
-0.4849234751552169
 10
9.896247652841241
 20
-0.484630045497555
 10
9.896916340820296
 20
-0.484291195524339
 10
9.89755763241855
 20
-0.483897552789497
 10
9.898785062374733
 20
-0.4829905883931019
 10
9.899911558296331
 20
-0.4818914888523119
 10
9.900910084281241
 20
-0.4806366625153199
 10
9.901367892223774
 20
-0.4799402176767479
 10
9.901780279850762
 20
-0.4792077249686839
 10
9.896998890441434
 20
-0.4768170302640279
 10
9.89654072202021
 20
-0.477650457006662
 10
9.895981980043093
 20
-0.478364925779982
 10
9.895350060890912
 20
-0.4789604365839779
 10
9.8946629884984
 20
-0.4794456409073239
 10
9.893957892171155
 20
-0.4798122477400499
 10
9.893252435365216
 20
-0.480068548092134
 10
9.892574735418773
 20
-0.480224274888337
 10
9.891942455787904
 20
-0.480279428128662
 10
9.891035851870194
 20
-0.480224274888337
 10
9.890211437094932
 20
-0.4800869325055779
 10
9.889469571940797
 20
-0.479858028534306
 10
9.888809895929112
 20
-0.4795555869092779
 10
9.888214745603811
 20
-0.479179968109179
 10
9.887701784420948
 20
-0.478749556547452
 10
9.887243615999717
 20
-0.4782549797780299
 10
9.886849612786177
 20
-0.477714622214359
 10
9.88652013525903
 20
-0.4771374958238019
 10
9.88624509001481
 20
-0.476523961085061
 10
9.886016186043541
 20
-0.475882669486812
 10
9.885842074833894
 20
-0.4752229934751259
 10
9.885622543308695
 20
-0.4738856175170029
 97
        0
 92
        3
 72
     0
 73
     1
 93
       12
 10
9.905242677715389
 20
-0.4847951447398289
 10
9.911361443082832
 20
-0.4847951447398289
 10
9.911361443082832
 20
-0.4744263355593639
 10
9.92067693351676
 20
-0.4744263355593639
 10
9.92067693351676
 20
-0.4847951447398289
 10
9.926795338405503
 20
-0.4847951447398289
 10
9.926795338405503
 20
-0.4600544104719079
 10
9.92067693351676
 20
-0.4600544104719079
 10
9.92067693351676
 20
-0.4691042281076799
 10
9.911361443082832
 20
-0.4691042281076799
 10
9.911361443082832
 20
-0.4600544104719079
 10
9.905242677715389
 20
-0.4600544104719079
 97
        0
 92
        3
 72
     0
 73
     1
 93
        8
 10
9.942760939803186
 20
-0.4648451723272909
 10
9.949145377968769
 20
-0.4648451723272909
 10
9.949145377968769
 20
-0.4600544104719079
 10
9.92998305150462
 20
-0.4600544104719079
 10
9.92998305150462
 20
-0.4648451723272909
 10
9.936642174435736
 20
-0.4648451723272909
 10
9.936642174435736
 20
-0.4847951447398289
 10
9.942760939803186
 20
-0.4847951447398289
 97
        0
 92
        3
 72
     0
 73
     1
 93
        8
 10
9.947276656414346
 20
-0.4847951447398289
 10
9.953935779345466
 20
-0.4847951447398289
 10
9.955264143336208
 20
-0.4810760860444219
 10
9.964304588525923
 20
-0.4810760860444219
 10
9.965641964484046
 20
-0.4847951447398289
 10
9.97229207544779
 20
-0.4847951447398289
 10
9.962976585013871
 20
-0.4600544104719079
 10
9.956592146848278
 20
-0.4600544104719079
 97
        0
 92
        3
 72
     0
 73
     1
 93
        6
 10
9.974948442950602
 20
-0.4847951447398289
 10
9.990913683869582
 20
-0.4847951447398289
 10
9.990913683869582
 20
-0.479748082532363
 10
9.981332881116199
 20
-0.479748082532363
 10
9.981332881116199
 20
-0.4600544104719079
 10
9.974948442950602
 20
-0.4600544104719079
 97
        0
 92
       18
 72
     0
 73
     1
 93
        3
 10
9.723000150151554
 20
-0.4632511355383929
 10
9.727525239208779
 20
-0.475488666273271
 10
9.718209748774854
 20
-0.475488666273271
 97
        0
 92
       18
 72
     0
 73
     1
 93
       29
 10
9.76796554159754
 20
-0.46245447762263
 10
9.769440259938419
 20
-0.462527654797698
 10
9.77067670186197
 20
-0.4627475468015899
 10
9.77120804745827
 20
-0.4629122855651689
 10
9.771684600292945
 20
-0.463113793155622
 10
9.772115011854673
 20
-0.4633430576055919
 10
9.77249063065477
 20
-0.463617742371115
 10
9.772811096214548
 20
-0.4639198235174439
 10
9.773085780980066
 20
-0.464259033969366
 10
9.773315045430033
 20
-0.464625280323394
 10
9.77349816860705
 20
-0.465028295504301
 10
9.773736084545698
 20
-0.4659352599007029
 10
9.773818634166823
 20
-0.4669701942337969
 10
9.773754468959138
 20
-0.4678677861841309
 10
9.773534576955237
 20
-0.4687289697862769
 10
9.77336082622429
 20
-0.4691409969345629
 10
9.773140934220395
 20
-0.4695440121154709
 10
9.772875261422243
 20
-0.469919630915573
 10
9.772554795862463
 20
-0.4702678533348619
 10
9.772179177062375
 20
-0.470588318894633
 10
9.77173939305457
 20
-0.470881388073597
 10
9.77123544383908
 20
-0.4711376884256779
 10
9.77067670186197
 20
-0.4713485684622019
 10
9.770044782709785
 20
-0.4715226796718479
 10
9.76933968638254
 20
-0.471650649608541
 10
9.768551679955461
 20
-0.4717331992296779
 10
9.76769986879938
 20
-0.471760595610496
 10
9.760243727473819
 20
-0.471760595610496
 10
9.760243727473819
 20
-0.46245447762263
 97
        0
 92
       18
 72
     0
 73
     1
 93
       64
 10
9.779964795915083
 20
-0.4716048688142869
 10
9.780065729949664
 20
-0.4706431116562629
 10
9.780221456745865
 20
-0.4696723425308579
 10
9.78044134874976
 20
-0.468719597340206
 10
9.780734417928725
 20
-0.4677946090090619
 10
9.781091652315387
 20
-0.466887644612663
 10
9.781512691431038
 20
-0.4660268214892089
 10
9.78199825623308
 20
-0.4652114186813189
 10
9.782556998210199
 20
-0.464460541559825
 10
9.78318927784108
 20
-0.4637734691673189
 10
9.783885362200948
 20
-0.4631595739498839
 10
9.784654623735893
 20
-0.462646612767024
 10
9.785488050478532
 20
-0.462225573651365
 10
9.786404026842305
 20
-0.4619141200589589
 10
9.787383807935072
 20
-0.4617216244358759
 10
9.788437126681613
 20
-0.4616484472608069
 10
9.78949981787421
 20
-0.4617216244358759
 10
9.790479959445678
 20
-0.4619141200589589
 10
9.791377551396007
 20
-0.462225573651365
 10
9.792201966171277
 20
-0.462646612767024
 10
9.792943831325402
 20
-0.4631595739498839
 10
9.793621891750533
 20
-0.4637734691673189
 10
9.794226414521905
 20
-0.464460541559825
 10
9.794757399639515
 20
-0.4652114186813189
 10
9.795224580028112
 20
-0.4660268214892089
 10
9.795618583241652
 20
-0.466887644612663
 10
9.79595743321487
 20
-0.4677946090090619
 10
9.796223106013029
 20
-0.468719597340206
 10
9.79643362557085
 20
-0.4696723425308579
 10
9.796571328432307
 20
-0.4706431116562629
 10
9.796662890020816
 20
-0.4716048688142869
 10
9.796690286401631
 20
-0.4725576140049369
 10
9.796662890020816
 20
-0.4735193711629679
 10
9.796571328432307
 20
-0.474481128320994
 10
9.79643362557085
 20
-0.4754428854790269
 10
9.796223106013029
 20
-0.4763956306696699
 10
9.79595743321487
 20
-0.4773299914468819
 10
9.795618583241652
 20
-0.478236595364589
 10
9.795224580028112
 20
-0.4790977789667369
 10
9.794757399639515
 20
-0.4799128212959379
 10
9.794226414521905
 20
-0.4806640588961339
 10
9.793621891750533
 20
-0.4813511312886319
 10
9.792943831325402
 20
-0.4819556540600019
 10
9.792201966171277
 20
-0.4824776272102399
 10
9.791377551396007
 20
-0.482899026804588
 10
9.790479959445678
 20
-0.4832104803969929
 10
9.78949981787421
 20
-0.4834026155413839
 10
9.788437126681613
 20
-0.483466780749076
 10
9.787383807935072
 20
-0.4834026155413839
 10
9.786404026842305
 20
-0.4832104803969929
 10
9.785488050478532
 20
-0.482899026804588
 10
9.784654623735893
 20
-0.4824776272102399
 10
9.783885362200948
 20
-0.4819556540600019
 10
9.78318927784108
 20
-0.4813511312886319
 10
9.782556998210199
 20
-0.4806640588961339
 10
9.78199825623308
 20
-0.4799128212959379
 10
9.781512691431038
 20
-0.4790977789667369
 10
9.781091652315387
 20
-0.478236595364589
 10
9.780734417928725
 20
-0.4773299914468819
 10
9.78044134874976
 20
-0.4763956306696699
 10
9.780221456745865
 20
-0.4754428854790269
 10
9.780065729949664
 20
-0.474481128320994
 10
9.779964795915083
 20
-0.4735193711629679
 10
9.779937399534273
 20
-0.4725576140049369
 97
        0
 92
       18
 72
     0
 73
     1
 93
       26
 10
9.812124542202994
 20
-0.46245447762263
 10
9.813434161301618
 20
-0.4624908859708189
 10
9.814561017701912
 20
-0.4626285888322769
 10
9.815522774859947
 20
-0.462866504770914
 10
9.8159441744543
 20
-0.46304061598056
 10
9.816310420808325
 20
-0.4632511355383929
 10
9.816640258814171
 20
-0.4634894119557299
 10
9.816924316025753
 20
-0.4637734691673189
 10
9.817162231964401
 20
-0.464103307173161
 10
9.817354727587482
 20
-0.4644695535271909
 10
9.817510454383687
 20
-0.4648909531215389
 10
9.817620400385644
 20
-0.465348761064082
 10
9.81771196197415
 20
-0.466438848637498
 10
9.817611027939565
 20
-0.4673915938281509
 10
9.81749206997025
 20
-0.467822005389876
 10
9.817317958760599
 20
-0.468225020570783
 10
9.817107439202774
 20
-0.4686096513382569
 10
9.816850778371995
 20
-0.4689578737575459
 10
9.816209847252445
 20
-0.469571408496294
 10
9.815412828857985
 20
-0.470056973298338
 10
9.814945648469388
 20
-0.4702494689214209
 10
9.814451071699958
 20
-0.470405195717621
 10
9.813351972159177
 20
-0.4706247272428259
 10
9.812124542202994
 20
-0.470698264896585
 10
9.804402728079276
 20
-0.470698264896585
 10
9.804402728079276
 20
-0.46245447762263
 97
        0
 92
       18
 72
     0
 73
     1
 93
       28
 10
9.812124542202994
 20
-0.4728232868030969
 10
9.813617644957333
 20
-0.472923860358976
 10
9.814918252088573
 20
-0.4732079175705649
 10
9.815486006033055
 20
-0.4734187976070889
 10
9.81600833966199
 20
-0.4736660859917989
 10
9.81648453201797
 20
-0.473959155170759
 10
9.816905931612316
 20
-0.4742886326979109
 10
9.817281550412412
 20
-0.4746552395306379
 10
9.817611027939565
 20
-0.4750582547115509
 10
9.817886073183786
 20
-0.4754980387193469
 10
9.818105604708988
 20
-0.475965219107947
 10
9.818279715918633
 20
-0.4764688078447429
 10
9.81840804633402
 20
-0.4770001534410399
 10
9.818508619889894
 20
-0.478145033776086
 10
9.818426430747463
 20
-0.4789510641379099
 10
9.818197526776192
 20
-0.479748082532363
 10
9.817794151116578
 20
-0.480517344067305
 10
9.817208012758655
 20
-0.4812044164598039
 10
9.816850778371995
 20
-0.4815158700522109
 10
9.816438751223716
 20
-0.4817999272637999
 10
9.815980582802483
 20
-0.4820472156485129
 10
9.815476994065689
 20
-0.4822671076524069
 10
9.814918252088573
 20
-0.4824318464159819
 10
9.814304356871144
 20
-0.482560176831367
 10
9.813635668892072
 20
-0.4826423659738059
 10
9.812921200118755
 20
-0.4826701228333219
 10
9.804402728079276
 20
-0.4826701228333219
 10
9.804402728079276
 20
-0.4728232868030969
 97
        0
 92
       18
 72
     0
 73
     1
 93
       19
 10
9.84006164105871
 20
-0.4648451723272909
 10
9.840730329037775
 20
-0.4648725687081049
 10
9.841344224255213
 20
-0.4649551183292379
 10
9.841884581818887
 20
-0.4651108451254419
 10
9.84235176220749
 20
-0.4653397490967069
 10
9.842727381007593
 20
-0.4656602146564869
 10
9.843011077740492
 20
-0.4660816142508399
 10
9.843185188950134
 20
-0.4666039478797709
 10
9.843249354157827
 20
-0.467235867031949
 10
9.843185188950134
 20
-0.4678861705975679
 10
9.843011077740492
 20
-0.468444912574686
 10
9.842727381007593
 20
-0.4689027205172249
 10
9.84235176220749
 20
-0.469269327349953
 10
9.841884581818887
 20
-0.4695533845615379
 10
9.841344224255213
 20
-0.469745519705935
 10
9.840730329037775
 20
-0.469864477675253
 10
9.84006164105871
 20
-0.4699012465021329
 10
9.834739894085727
 20
-0.4699012465021329
 10
9.834739894085727
 20
-0.4648451723272909
 97
        0
 92
       18
 72
     0
 73
     1
 93
       19
 10
9.841124332251312
 20
-0.4744263355593639
 10
9.841857185438071
 20
-0.474472116353621
 10
9.842479732144177
 20
-0.4746184707037579
 10
9.842983681359671
 20
-0.4748567471210909
 10
9.843386696540584
 20
-0.475186585126931
 10
9.843679765719546
 20
-0.4756079847212909
 10
9.843890645756078
 20
-0.476102561490708
 10
9.844009603725386
 20
-0.4766886998486399
 10
9.844046372552272
 20
-0.477348015381636
 10
9.844009603725386
 20
-0.4779345142182509
 10
9.843872261342629
 20
-0.478483883749304
 10
9.843624972957926
 20
-0.4789784605187229
 10
9.843249354157827
 20
-0.4794092325591419
 10
9.842727381007593
 20
-0.479775478913173
 10
9.842030936169028
 20
-0.4800411517113249
 10
9.841142716664756
 20
-0.4802152629209639
 10
9.84006164105871
 20
-0.480279428128662
 10
9.835005566883876
 20
-0.480279428128662
 10
9.835005566883876
 20
-0.4744263355593639
 97
        0
 92
       18
 72
     0
 73
     1
 93
        3
 10
9.959788871914757
 20
-0.466173175839346
 10
9.962710912215716
 20
-0.476551357465876
 10
9.956592146848278
 20
-0.476551357465876
 97
        0
 75
     0
 76
     1
 98
        0
  0
HATCH
  5
84
102
{ACAD_REACTORS
330
83
102
}
330
1F
100
AcDbEntity
  8
XR$1$TB_809_1
  6
AUSGEZOGEN
 62
     3
440
 33554687
370
    35
100
AcDbHatch
 10
0.0
 20
0.0
 30
0.0
210
0.0
220
0.0
230
1.0
  2
SOLID
 70
     1
 71
     0
 91
        1
 92
        3
 72
     0
 73
     1
 93
       22
 10
9.683091193359102
 20
-0.4850698295053529
 10
9.69825977636232
 20
-0.4850698295053529
 10
9.696977553644516
 20
-0.4842270303166439
 10
9.695731739274903
 20
-0.4833110539528749
 10
9.69453170569953
 20
-0.482303516000596
 10
9.693395837331856
 20
-0.4812044164598039
 10
9.692342518585338
 20
-0.4800137553305099
 10
9.691371749459933
 20
-0.4787037757531969
 10
9.69050155389042
 20
-0.4772842106526319
 10
9.689741304322844
 20
-0.4757543390714229
 10
9.68927412393424
 20
-0.474755813086521
 10
9.688871108753327
 20
-0.4737482751342419
 10
9.688522886334031
 20
-0.472740737181957
 10
9.68822981715508
 20
-0.4717331992296779
 10
9.687826801974166
 20
-0.4697087508790529
 10
9.68764367879714
 20
-0.467703047420556
 10
9.687680087145338
 20
-0.4657243798641799
 10
9.6879093515953
 20
-0.463782481134685
 10
9.688330751189653
 20
-0.4618863631994489
 10
9.688614447922555
 20
-0.460961374868302
 10
9.688944285928391
 20
-0.4600544104719079
 10
9.683091193359102
 20
-0.4600544104719079
 97
        0
 75
     0
 76
     1
 98
        0
  0
HATCH
  5
85
102
{ACAD_REACTORS
330
83
102
}
330
1F
100
AcDbEntity
  8
XR$1$TB_809_1
  6
AUSGEZOGEN
 62
     3
440
 33554687
370
    35
100
AcDbHatch
 10
0.0
 20
0.0
 30
0.0
210
0.0
220
0.0
230
1.0
  2
SOLID
 70
     1
 71
     0
 91
        1
 92
        3
 72
     0
 73
     1
 93
       24
 10
9.695658562099826
 20
-0.4813511312886319
 10
9.696867607642561
 20
-0.4824686152428609
 10
9.698195611154624
 20
-0.4834761531951439
 10
9.699633560668634
 20
-0.4843369763185899
 10
9.701181816663285
 20
-0.4850698295053529
 10
9.708097239946488
 20
-0.4850698295053529
 10
9.708097239946488
 20
-0.4600544104719079
 10
9.69453170569953
 20
-0.4600544104719079
 10
9.69397296372242
 20
-0.4606957020701549
 10
9.693496771366444
 20
-0.461419182810844
 10
9.692672356591178
 20
-0.4629858232189299
 10
9.692296737791082
 20
-0.463782481134685
 10
9.691966899785236
 20
-0.4645978839425839
 10
9.691692215019717
 20
-0.4654129262717789
 10
9.69146331104844
 20
-0.466237341047038
 10
9.691142485009966
 20
-0.4678861705975679
 10
9.691005142627205
 20
-0.469535000148099
 10
9.69104191145409
 20
-0.4711838296986359
 10
9.691243419044541
 20
-0.472795890422277
 10
9.691609665398577
 20
-0.4743805547651149
 10
9.6921319990275
 20
-0.475919077834998
 10
9.692809698973942
 20
-0.477393796175889
 10
9.693625101781828
 20
-0.478804709787776
 10
9.694577486493785
 20
-0.480123701332458
 97
        0
 75
     0
 76
     1
 98
        0
  0
HATCH
  5
86
330
1F
100
AcDbEntity
  8
XR$1$TB_809_1
  6
STRICHPUNKT2_S5
 62
    18
420
        0
440
 33554687
370
    -3
100
AcDbHatch
 10
0.0
 20
0.0
 30
0.0
210
0.0
220
0.0
230
1.0
  2
SOLID
 70
     1
 71
     0
 91
        1
 92
        3
 72
     0
 73
     1
 93
        4
 10
9.840381798043998
 20
0.0860783644480701
 10
9.840381798043998
 20
0.0890783644480701
 10
9.835381798043999
 20
0.0890783644480701
 10
9.835381798043999
 20
0.0860783644480701
 97
        0
 75
     0
 76
     1
 98
        0
  0
HATCH
  5
87
330
1F
100
AcDbEntity
  8
XR$1$TB_809_1
  6
STRICHPUNKT2_S5
 62
    18
420
        0
440
 33554687
370
    -3
100
AcDbHatch
 10
0.0
 20
0.0
 30
0.0
210
0.0
220
0.0
230
1.0
  2
SOLID
 70
     1
 71
     0
 91
        1
 92
        3
 72
     0
 73
     1
 93
        4
 10
9.830381798043998
 20
0.0860783644480701
 10
9.830381798043998
 20
0.0890783644480701
 10
9.825381798043999
 20
0.0890783644480701
 10
9.825381798043999
 20
0.0860783644480701
 97
        0
 75
     0
 76
     1
 98
        0
  0
HATCH
  5
88
330
1F
100
AcDbEntity
  8
XR$1$TB_809_1
  6
AUSGEZOGEN
 62
     9
440
 33554687
370
    -3
100
AcDbHatch
 10
0.0
 20
0.0
 30
0.0
210
0.0
220
0.0
230
1.0
  2
SOLID
 70
     1
 71
     0
 91
        1
 92
        3
 72
     0
 73
     1
 93
        4
 10
9.784637280405082
 20
0.5041048320983701
 10
9.784637280405082
 20
0.0993401110921001
 10
9.804637280405014
 20
0.0993401110921001
 10
9.804637280405014
 20
0.5041048320983701
 97
        0
 75
     0
 76
     1
 98
        0
  0
HATCH
  5
89
330
1F
100
AcDbEntity
  8
XR$1$TB_809_1
  6
STRICHPUNKT2_S5
 62
    18
420
        0
440
 33554687
370
    -3
100
AcDbHatch
 10
0.0
 20
0.0
 30
0.0
210
0.0
220
0.0
230
1.0
  2
SOLID
 70
     1
 71
     0
 91
        1
 92
        3
 72
     0
 73
     1
 93
        4
 10
9.820381798043998
 20
0.0860783644480701
 10
9.820381798043998
 20
0.0890783644480701
 10
9.815381798043997
 20
0.0890783644480701
 10
9.815381798043997
 20
0.0860783644480701
 97
        0
 75
     0
 76
     1
 98
        0
  0
HATCH
  5
8A
330
1F
100
AcDbEntity
  8
XR$1$TB_809_1
  6
STRICHPUNKT2_S5
 62
    18
420
        0
440
 33554687
370
    -3
100
AcDbHatch
 10
0.0
 20
0.0
 30
0.0
210
0.0
220
0.0
230
1.0
  2
SOLID
 70
     1
 71
     0
 91
        1
 92
        3
 72
     0
 73
     1
 93
        4
 10
9.860381798043997
 20
0.0860783644480701
 10
9.860381798043997
 20
0.0890783644480701
 10
9.855381798043998
 20
0.0890783644480701
 10
9.855381798043998
 20
0.0860783644480701
 97
        0
 75
     0
 76
     1
 98
        0
  0
HATCH
  5
8B
330
1F
100
AcDbEntity
  8
XR$1$TB_809_1
  6
STRICHPUNKT2_S5
 62
    18
420
        0
440
 33554687
370
    -3
100
AcDbHatch
 10
0.0
 20
0.0
 30
0.0
210
0.0
220
0.0
230
1.0
  2
SOLID
 70
     1
 71
     0
 91
        1
 92
        3
 72
     0
 73
     1
 93
        4
 10
9.850381798043998
 20
0.0860783644480701
 10
9.850381798043998
 20
0.0890783644480701
 10
9.845381798043999
 20
0.0890783644480701
 10
9.845381798043999
 20
0.0860783644480701
 97
        0
 75
     0
 76
     1
 98
        0
  0
HATCH
  5
8C
330
1F
100
AcDbEntity
  8
XR$1$TB_809_1
  6
STRICHPUNKT2_S5
 62
    18
420
        0
440
 33554687
370
    -3
100
AcDbHatch
 10
0.0
 20
0.0
 30
0.0
210
0.0
220
0.0
230
1.0
  2
SOLID
 70
     1
 71
     0
 91
        1
 92
        3
 72
     0
 73
     1
 93
        4
 10
9.880381798043999
 20
0.0860783644480701
 10
9.880381798043999
 20
0.0890783644480701
 10
9.875381798043998
 20
0.0890783644480701
 10
9.875381798043998
 20
0.0860783644480701
 97
        0
 75
     0
 76
     1
 98
        0
  0
HATCH
  5
8D
330
1F
100
AcDbEntity
  8
XR$1$TB_809_1
  6
STRICHPUNKT2_S5
 62
    18
420
        0
440
 33554687
370
    -3
100
AcDbHatch
 10
0.0
 20
0.0
 30
0.0
210
0.0
220
0.0
230
1.0
  2
SOLID
 70
     1
 71
     0
 91
        1
 92
        3
 72
     0
 73
     1
 93
        4
 10
9.870381798043999
 20
0.0860783644480701
 10
9.870381798043999
 20
0.0890783644480701
 10
9.865381798043998
 20
0.0890783644480701
 10
9.865381798043998
 20
0.0860783644480701
 97
        0
 75
     0
 76
     1
 98
        0
  0
HATCH
  5
8E
330
1F
100
AcDbEntity
  8
XR$1$TB_809_1
  6
STRICHPUNKT2_S5
 62
    18
420
        0
440
 33554687
370
    -3
100
AcDbHatch
 10
0.0
 20
0.0
 30
0.0
210
0.0
220
0.0
230
1.0
  2
SOLID
 70
     1
 71
     0
 91
        1
 92
        3
 72
     0
 73
     1
 93
        4
 10
9.900381798043998
 20
0.0860783644480701
 10
9.900381798043998
 20
0.0890783644480701
 10
9.895381798043998
 20
0.0890783644480701
 10
9.895381798043998
 20
0.0860783644480701
 97
        0
 75
     0
 76
     1
 98
        0
  0
HATCH
  5
8F
330
1F
100
AcDbEntity
  8
XR$1$TB_809_1
  6
STRICHPUNKT2_S5
 62
    18
420
        0
440
 33554687
370
    -3
100
AcDbHatch
 10
0.0
 20
0.0
 30
0.0
210
0.0
220
0.0
230
1.0
  2
SOLID
 70
     1
 71
     0
 91
        1
 92
        3
 72
     0
 73
     1
 93
        4
 10
9.890381798043999
 20
0.0860783644480701
 10
9.890381798043999
 20
0.0890783644480701
 10
9.885381798043998
 20
0.0890783644480701
 10
9.885381798043998
 20
0.0860783644480701
 97
        0
 75
     0
 76
     1
 98
        0
  0
HATCH
  5
90
330
1F
100
AcDbEntity
  8
XR$1$TB_809_1
  6
AUSGEZOGEN
 62
    18
420
        0
440
 33554687
370
    -3
100
AcDbHatch
 10
0.0
 20
0.0
 30
0.0
210
0.0
220
0.0
230
1.0
  2
SOLID
 70
     1
 71
     0
 91
        1
 92
        3
 72
     0
 73
     1
 93
        6
 10
9.96038179804405
 20
0.0890783644480701
 10
9.905381798043999
 20
0.0890783644480701
 10
9.905381798043999
 20
0.0860783644480701
 10
9.96338179804405
 20
0.0860783644480701
 10
9.96338179804405
 20
0.1193401110921001
 10
9.96038179804405
 20
0.1193401110921001
 97
        0
 75
     0
 76
     1
 98
        0
  0
MTEXT
  5
91
330
1F
100
AcDbEntity
  8
XR$1$TB_809_1
  6
AUSGEZOGEN
 62
     7
440
 33554687
370
    -3
100
AcDbMText
 10
9.587843
 20
0.797913
 30
0.0
 40
0.025
 41
0.369217
 46
0.0
 71
     7
 72
     5
  1
\W1.00;SOCKELANSCHLUSS
  7
ARIAL
 73
     1
 44
1.0
  0
MTEXT
  5
92
330
1F
100
AcDbEntity
  8
XR$1$TB_809_1
  6
AUSGEZOGEN
 62
     7
440
 33554687
370
    -3
100
AcDbMText
 10
9.587843
 20
0.762902
 30
0.0
 40
0.0175
 41
0.308011
 46
0.0
 71
     7
 72
     5
  1
\W1.00;CONNECTION TO PLINTH
  7
ARIAL
 73
     1
 44
1.0
  0
MTEXT
  5
93
330
1F
100
AcDbEntity
  8
XR$1$TB_809_1
  6
AUSGEZOGEN
 62
     7
440
 33554687
370
    -3
100
AcDbMText
 10
9.587843
 20
0.736652
 30
0.0
 40
0.0175
 41
0.263695
 46
0.0
 71
     7
 72
     5
  1
\W1.00;RACCORD DE SOCLE
  7
ARIAL
 73
     1
 44
1.0
  0
LINE
  5
94
330
1F
100
AcDbEntity
  8
XR$1$TB_809_1
  6
STRICHPUNKT2_S5
 62
     7
440
 33554687
370
    -3
100
AcDbLine
 10
9.890382
 20
-0.134794
 30
0.0
 11
10.283382
 21
-0.134794
 31
0.0
  0
LINE
  5
95
330
1F
100
AcDbEntity
  8
XR$1$TB_809_1
  6
AUSGEZOGEN
 62
    52
440
 33554687
370
    -3
100
AcDbLine
 10
9.923382
 20
0.070981
 30
0.0
 11
9.963382
 21
0.055981
 31
0.0
  0
LINE
  5
96
330
1F
100
AcDbEntity
  8
XR$1$TB_809_1
  6
AUSGEZOGEN
 62
    52
440
 33554687
370
    -3
100
AcDbLine
 10
9.963382
 20
0.055981
 30
0.0
 11
9.923382
 21
0.040981
 31
0.0
  0
LINE
  5
97
330
1F
100
AcDbEntity
  8
XR$1$TB_809_1
  6
AUSGEZOGEN
 62
    52
440
 33554687
370
    -3
100
AcDbLine
 10
9.923382
 20
0.040981
 30
0.0
 11
9.963382
 21
0.025981
 31
0.0
  0
LINE
  5
98
330
1F
100
AcDbEntity
  8
XR$1$TB_809_1
  6
AUSGEZOGEN
 62
    52
440
 33554687
370
    -3
100
AcDbLine
 10
9.963382
 20
0.025981
 30
0.0
 11
9.923382
 21
0.010981
 31
0.0
  0
LINE
  5
99
330
1F
100
AcDbEntity
  8
XR$1$TB_809_1
  6
AUSGEZOGEN
 62
    52
440
 33554687
370
    -3
100
AcDbLine
 10
9.923382
 20
0.010981
 30
0.0
 11
9.963382
 21
-0.004019
 31
0.0
  0
LINE
  5
9A
330
1F
100
AcDbEntity
  8
XR$1$TB_809_1
  6
AUSGEZOGEN
 62
    52
440
 33554687
370
    -3
100
AcDbLine
 10
9.963382
 20
-0.004019
 30
0.0
 11
9.923382
 21
-0.019019
 31
0.0
  0
LINE
  5
9B
330
1F
100
AcDbEntity
  8
XR$1$TB_809_1
  6
AUSGEZOGEN
 62
    52
440
 33554687
370
    -3
100
AcDbLine
 10
9.923382
 20
-0.019019
 30
0.0
 11
9.963382
 21
-0.034019
 31
0.0
  0
LINE
  5
9C
330
1F
100
AcDbEntity
  8
XR$1$TB_809_1
  6
AUSGEZOGEN
 62
    52
440
 33554687
370
    -3
100
AcDbLine
 10
9.963382
 20
-0.034019
 30
0.0
 11
9.923382
 21
-0.049019
 31
0.0
  0
LINE
  5
9D
330
1F
100
AcDbEntity
  8
XR$1$TB_809_1
  6
AUSGEZOGEN
 62
    52
440
 33554687
370
    -3
100
AcDbLine
 10
9.923382
 20
-0.049019
 30
0.0
 11
9.963382
 21
-0.064019
 31
0.0
  0
LINE
  5
9E
330
1F
100
AcDbEntity
  8
XR$1$TB_809_1
  6
AUSGEZOGEN
 62
    52
440
 33554687
370
    -3
100
AcDbLine
 10
9.963382
 20
-0.064019
 30
0.0
 11
9.923382
 21
-0.079019
 31
0.0
  0
LINE
  5
9F
330
1F
100
AcDbEntity
  8
XR$1$TB_809_1
  6
AUSGEZOGEN
 62
    52
440
 33554687
370
    -3
100
AcDbLine
 10
9.923382
 20
-0.079019
 30
0.0
 11
9.963382
 21
-0.094019
 31
0.0
  0
LINE
  5
A0
330
1F
100
AcDbEntity
  8
XR$1$TB_809_1
  6
AUSGEZOGEN
 62
    52
440
 33554687
370
    -3
100
AcDbLine
 10
9.963382
 20
-0.094019
 30
0.0
 11
9.923382
 21
-0.109019
 31
0.0
  0
LINE
  5
A1
330
1F
100
AcDbEntity
  8
XR$1$TB_809_1
  6
AUSGEZOGEN
 62
    52
440
 33554687
370
    -3
100
AcDbLine
 10
9.923382
 20
-0.109019
 30
0.0
 11
9.963382
 21
-0.124019
 31
0.0
  0
LINE
  5
A2
330
1F
100
AcDbEntity
  8
XR$1$TB_809_1
  6
AUSGEZOGEN
 62
    52
440
 33554687
370
    -3
100
AcDbLine
 10
9.963382
 20
-0.124019
 30
0.0
 11
9.934648
 21
-0.134794
 31
0.0
  0
LINE
  5
A3
330
1F
100
AcDbEntity
  8
XR$1$TB_809_1
  6
AUSGEZOGEN
 62
    32
440
 33554687
370
    -3
100
AcDbLine
 10
10.263382
 20
-0.134794
 30
0.0
 11
10.263382
 21
0.504104
 31
0.0
  0
LINE
  5
A4
330
1F
100
AcDbEntity
  8
XR$1$TB_809_1
  6
AUSGEZOGEN
 62
    52
440
 33554687
370
    -3
100
AcDbLine
 10
9.918382
 20
0.069078
 30
0.0
 11
9.910382
 21
0.069078
 31
0.0
  0
LINE
  5
A5
330
1F
100
AcDbEntity
  8
XR$1$TB_809_1
  6
AUSGEZOGEN
 62
    52
440
 33554687
370
    -3
100
AcDbLine
 10
9.910382
 20
0.086078
 30
0.0
 11
9.910382
 21
-0.134794
 31
0.0
  0
LINE
  5
A6
330
1F
100
AcDbEntity
  8
XR$1$TB_809_1
  6
AUSGEZOGEN
 62
    52
440
 33554687
370
    -3
100
AcDbLine
 10
9.923382
 20
0.086078
 30
0.0
 11
9.923382
 21
-0.134794
 31
0.0
  0
LINE
  5
A7
330
1F
100
AcDbEntity
  8
XR$1$TB_809_1
  6
AUSGEZOGEN
 62
    52
440
 33554687
370
    -3
100
AcDbLine
 10
9.918382
 20
0.086078
 30
0.0
 11
9.918382
 21
-0.134794
 31
0.0
  0
LINE
  5
A8
330
1F
100
AcDbEntity
  8
XR$1$TB_809_1
  6
AUSGEZOGEN
 62
     7
440
 33554687
370
    -3
100
AcDbLine
 10
9.960382
 20
0.089078
 30
0.0
 11
9.960382
 21
0.089078
 31
0.0
  0
LINE
  5
A9
330
1F
100
AcDbEntity
  8
XR$1$TB_809_1
  6
AUSGEZOGEN
 62
     6
440
 33554687
370
    -3
100
AcDbLine
 10
9.960382
 20
0.11934
 30
0.0
 11
9.963382
 21
0.11934
 31
0.0
  0
LINE
  5
AA
330
1F
100
AcDbEntity
  8
XR$1$TB_809_1
  6
STRICHPUNKT2_S5
 62
     6
440
 33554687
370
    35
100
AcDbLine
 10
9.951015
 20
0.104332
 30
0.0
 11
9.979015
 21
0.104332
 31
0.0
  0
LINE
  5
AB
330
1F
100
AcDbEntity
  8
XR$1$TB_809_1
  6
STRICHPUNKT2_S5
 62
     6
440
 33554687
370
    35
100
AcDbLine
 10
9.9393
 20
0.104332
 30
0.0
 11
9.9833
 21
0.104332
 31
0.0
  0
LINE
  5
AC
330
1F
100
AcDbEntity
  8
XR$1$TB_809_1
  6
AUSGEZOGEN
 62
    52
440
 33554687
370
    -3
100
AcDbLine
 10
9.963382
 20
0.085981
 30
0.0
 11
9.923382
 21
0.070981
 31
0.0
  0
LINE
  5
AD
330
1F
100
AcDbEntity
  8
XR$1$TB_809_1
  6
AUSGEZOGEN
 62
    32
440
 33554687
370
    -3
100
AcDbLine
 10
9.963382
 20
-0.134794
 30
0.0
 11
9.963382
 21
0.504104
 31
0.0
  0
LINE
  5
AE
330
1F
100
AcDbEntity
  8
XR$1$TB_809_1
  6
AUSGEZOGEN
 62
     6
440
 33554687
370
    -3
100
AcDbLine
 10
9.960382
 20
0.11934
 30
0.0
 11
9.960382
 21
0.089078
 31
0.0
  0
MTEXT
  5
AF
330
1F
100
AcDbEntity
  8
XR$1$TB_809_1
  6
AUSGEZOGEN
 62
     7
440
 33554687
370
    -3
100
AcDbMText
 10
9.587453
 20
-0.541056
 30
0.0
 40
0.009
 41
0.89646
 46
0.0
 71
     7
 72
     5
  1
\W0.85;THESE ARE NOT BINDING CONSTRUCTION PROPOSALS WHICH HAVE TO BE VERIFIED FOR EACH INDIVIDUAL PROJECT AS REGARDS APPLICABILITY AND CORRECTNESS.
  7
ARIAL
 73
     1
 44
1.0
  0
MTEXT
  5
B0
330
1F
100
AcDbEntity
  8
XR$1$TB_809_1
  6
AUSGEZOGEN
 62
     7
440
 33554687
370
    -3
100
AcDbMText
 10
9.587453
 20
-0.523056
 30
0.0
 40
0.009
 41
0.8975
 46
0.0
 71
     7
 72
     5
  1
\W0.91;DIES SIND UNVERBINDLICHE KONSTRUKTIONSVORSCHLÄGE, DIE FÜR JEDES PROJEKT AUF ANWENDBARKEIT UND RICHTIGKEIT GEPRÜFT WERDEN MÜSSEN.
  7
ARIAL
 73
     1
 44
1.0
  0
MTEXT
  5
B1
330
1F
100
AcDbEntity
  8
XR$1$TB_809_1
  6
AUSGEZOGEN
 62
     7
440
 33554687
370
    -3
100
AcDbMText
 10
10.002114
 20
-0.485127
 30
0.0
 40
0.009
 41
0.348436
 46
0.0
 71
     7
 72
     5
  1
\W0.92;Tel. 09435 / 391 3238   e-mail: as.fassade@deutsche-steinzeug.de
  7
ARIAL
 73
     1
 44
1.0
  0
MTEXT
  5
B2
330
1F
100
AcDbEntity
  8
XR$1$TB_809_1
  6
AUSGEZOGEN
 62
     7
440
 33554687
370
    -3
100
AcDbMText
 10
10.001663
 20
-0.468885
 30
0.0
 40
0.009
 41
0.418059
 46
0.0
 71
     7
 72
     5
  1
\W1.00;AGROB BUCHTAL GmbH   Architektenservice   D - 92521 Schwarzenfeld
  7
ARIAL
 73
     1
 44
1.0
  0
LINE
  5
B3
330
1F
100
AcDbEntity
  8
XR$1$TB_809_1
  6
AUSGEZOGEN
 62
    52
440
 33554687
370
    13
100
AcDbLine
 10
9.891382
 20
0.324078
 30
0.0
 11
9.891382
 21
0.504104
 31
0.0
  0
LINE
  5
B4
330
1F
100
AcDbEntity
  8
XR$1$TB_809_1
  6
AUSGEZOGEN
 62
    52
440
 33554687
370
    13
100
AcDbLine
 10
9.891382
 20
0.089078
 30
0.0
 11
9.891382
 21
0.244078
 31
0.0
  0
MTEXT
  5
B5
330
1F
100
AcDbEntity
  8
XR$1$TB_809_1
  6
AUSGEZOGEN
 62
     7
440
 33554687
370
    -3
100
AcDbMText
 10
9.665335
 20
-0.238049
 30
0.0
 40
0.0125
 41
0.201076
 46
0.0
 71
     7
 72
     5
  1
\W1.26;d> outil de diamètre
  7
ARIAL
 73
     1
 44
1.0
  0
MTEXT
  5
B6
330
1F
100
AcDbEntity
  8
XR$1$TB_809_1
  6
AUSGEZOGEN
 62
     7
440
 33554687
370
    -3
100
AcDbMText
 10
9.665156
 20
-0.105522
 30
0.0
 40
0.0125
 41
0.175287
 46
0.0
 71
     1
 72
     5
  1
\A1;{\fArial|i0|b0;\H0.012500;\W1.250000;\C7;d> Durchmesser }\P{\fArial|i0|b0;\H0.012500;\W1.250000;\C7;     Werkzeug}\P
  7
ARIAL
 73
     1
 44
1.204819
  0
MTEXT
  5
B7
330
1F
100
AcDbEntity
  8
XR$1$TB_809_1
  6
AUSGEZOGEN
 62
     7
440
 33554687
370
    -3
100
AcDbMText
 10
9.665797
 20
-0.168343
 30
0.0
 40
0.0125
 41
0.13023
 46
0.0
 71
     1
 72
     5
  1
\A1;{\fArial|i0|b0;\H0.012500;\W1.250000;\C7;d> diameter }\P{\fArial|i0|b0;\H0.012500;\W1.250000;\C7;     tool}\P
  7
ARIAL
 73
     1
 44
1.204819
  0
CIRCLE
  5
B8
330
1F
100
AcDbEntity
  8
XR$1$TB_809_1
  6
STRICHPUNKT2_S5
 62
     5
440
 33554687
370
    -3
100
AcDbCircle
 10
9.734539
 20
-0.00492
 30
0.0
 40
0.0728117338926939
  0
LINE
  5
B9
330
1F
100
AcDbEntity
  8
XR$1$TB_809_1
  6
AUSGEZOGEN
 62
    52
440
 33554687
370
    -3
100
AcDbLine
 10
9.841382
 20
0.504105
 30
0.0
 11
9.841382
 21
0.094186
 31
0.0
  0
LINE
  5
BA
330
1F
100
AcDbEntity
  8
XR$1$TB_809_1
  6
VERDECKT2_S2
 62
    52
440
 33554687
370
    -3
100
AcDbLine
 10
9.843382
 20
0.504105
 30
0.0
 11
9.843382
 21
0.094186
 31
0.0
  0
LINE
  5
BB
330
1F
100
AcDbEntity
  8
XR$1$TB_809_1
  6
AUSGEZOGEN
 62
     7
440
 33554687
370
    -3
100
AcDbLine
 10
9.808382
 20
0.09234
 30
0.0
 11
9.808382
 21
0.09434
 31
0.0
  0
LINE
  5
BC
330
1F
100
AcDbEntity
  8
XR$1$TB_809_1
  6
AUSGEZOGEN
 62
     7
440
 33554687
370
    -3
100
AcDbLine
 10
9.808382
 20
0.14384
 30
0.0
 11
9.808382
 21
0.14584
 31
0.0
  0
LINE
  5
BD
330
1F
100
AcDbEntity
  8
XR$1$TB_809_1
  6
AUSGEZOGEN
 62
     7
440
 33554687
370
    -3
100
AcDbLine
 10
9.808382
 20
0.14384
 30
0.0
 11
9.808382
 21
0.09434
 31
0.0
  0
ARC
  5
BE
330
1F
100
AcDbEntity
  8
XR$1$TB_809_1
  6
AUSGEZOGEN
 62
     7
440
 33554687
370
    -3
100
AcDbCircle
 10
9.808882
 20
0.102397
 30
0.0
 40
0.0015
100
AcDbArc
 50
120.0
 51
180.0
  0
LINE
  5
BF
330
1F
100
AcDbEntity
  8
XR$1$TB_809_1
  6
AUSGEZOGEN
 62
     7
440
 33554687
370
    -3
100
AcDbLine
 10
9.807382
 20
0.09584
 30
0.0
 11
9.807382
 21
0.102397
 31
0.0
  0
LINE
  5
C0
330
1F
100
AcDbEntity
  8
XR$1$TB_809_1
  6
AUSGEZOGEN
 62
     7
440
 33554687
370
    -3
100
AcDbLine
 10
9.807382
 20
0.095783
 30
0.0
 11
9.807382
 21
0.09584
 31
0.0
  0
ARC
  5
C1
330
1F
100
AcDbEntity
  8
XR$1$TB_809_1
  6
AUSGEZOGEN
 62
     7
440
 33554687
370
    -3
100
AcDbCircle
 10
9.808882
 20
0.095783
 30
0.0
 40
0.0015
100
AcDbArc
 50
180.0
 51
240.0
  0
LINE
  5
C2
330
1F
100
AcDbEntity
  8
XR$1$TB_809_1
  6
AUSGEZOGEN
 62
     7
440
 33554687
370
    -3
100
AcDbLine
 10
9.808382
 20
0.10384
 30
0.0
 11
9.808132
 21
0.103696
 31
0.0
  0
LINE
  5
C3
330
1F
100
AcDbEntity
  8
XR$1$TB_809_1
  6
AUSGEZOGEN
 62
     7
440
 33554687
370
    -3
100
AcDbLine
 10
9.808132
 20
0.094484
 30
0.0
 11
9.808382
 21
0.09434
 31
0.0
  0
LINE
  5
C4
330
1F
100
AcDbEntity
  8
XR$1$TB_809_1
  6
AUSGEZOGEN
 62
     7
440
 33554687
370
    -3
100
AcDbLine
 10
9.805382
 20
0.09234
 30
0.0
 11
9.808382
 21
0.09234
 31
0.0
  0
LINE
  5
C5
330
1F
100
AcDbEntity
  8
XR$1$TB_809_1
  6
AUSGEZOGEN
 62
     7
440
 33554687
370
    -3
100
AcDbLine
 10
9.795632
 20
0.09734
 30
0.0
 11
9.800632
 21
0.09734
 31
0.0
  0
ARC
  5
C6
330
1F
100
AcDbEntity
  8
XR$1$TB_809_1
  6
AUSGEZOGEN
 62
     7
440
 33554687
370
    -3
100
AcDbCircle
 10
9.800632
 20
0.09584
 30
0.0
 40
0.0015
100
AcDbArc
 50
270.0
 51
90.0
  0
LINE
  5
C7
330
1F
100
AcDbEntity
  8
XR$1$TB_809_1
  6
AUSGEZOGEN
 62
     7
440
 33554687
370
    -3
100
AcDbLine
 10
9.807507
 20
0.115474
 30
0.0
 11
9.805599
 21
0.118426
 31
0.0
  0
ARC
  5
C8
330
1F
100
AcDbEntity
  8
XR$1$TB_809_1
  6
AUSGEZOGEN
 62
     7
440
 33554687
370
    -3
100
AcDbCircle
 10
9.810638
 20
0.121683
 30
0.0
 40
0.003
100
AcDbArc
 50
167.877543
 51
183.880386
  0
ARC
  5
C9
330
1F
100
AcDbEntity
  8
XR$1$TB_809_1
  6
AUSGEZOGEN
 62
     7
440
 33554687
370
    -3
100
AcDbCircle
 10
9.810638
 20
0.121683
 30
0.0
 40
0.003
100
AcDbArc
 50
183.880386
 51
212.877543
  0
ARC
  5
CA
330
1F
100
AcDbEntity
  8
XR$1$TB_809_1
  6
AUSGEZOGEN
 62
     7
440
 33554687
370
    -3
100
AcDbCircle
 10
9.810638
 20
0.121683
 30
0.0
 40
0.006
100
AcDbArc
 50
183.880386
 51
212.877543
  0
ARC
  5
CB
330
1F
100
AcDbEntity
  8
XR$1$TB_809_1
  6
AUSGEZOGEN
 62
     7
440
 33554687
370
    -3
100
AcDbCircle
 10
9.810638
 20
0.121683
 30
0.0
 40
0.0059999999999999
100
AcDbArc
 50
167.877543
 51
183.880386
  0
LINE
  5
CC
330
1F
100
AcDbEntity
  8
XR$1$TB_809_1
  6
AUSGEZOGEN
 62
     7
440
 33554687
370
    -3
100
AcDbLine
 10
9.804772
 20
0.122943
 30
0.0
 11
9.808313
 21
0.139429
 31
0.0
  0
ARC
  5
CD
330
1F
100
AcDbEntity
  8
XR$1$TB_809_1
  6
AUSGEZOGEN
 62
     7
440
 33554687
370
    -3
100
AcDbCircle
 10
9.80538
 20
0.140059
 30
0.0
 40
0.0030000000000001
100
AcDbArc
 50
347.877543
 51
3.880386
  0
LINE
  5
CE
330
1F
100
AcDbEntity
  8
XR$1$TB_809_1
  6
AUSGEZOGEN
 62
     7
440
 33554687
370
    -3
100
AcDbLine
 10
9.808382
 20
0.125465
 30
0.0
 11
9.807705
 21
0.122313
 31
0.0
  0
LINE
  5
CF
330
1F
100
AcDbEntity
  8
XR$1$TB_809_1
  6
AUSGEZOGEN
 62
     7
440
 33554687
370
    -3
100
AcDbLine
 10
9.808118
 20
0.120054
 30
0.0
 11
9.808382
 21
0.119647
 31
0.0
  0
LINE
  5
D0
330
1F
100
AcDbEntity
  8
XR$1$TB_809_1
  6
AUSGEZOGEN
 62
     7
440
 33554687
370
    -3
100
AcDbLine
 10
9.808382
 20
0.11412
 30
0.0
 11
9.807507
 21
0.115474
 31
0.0
  0
LINE
  5
D1
330
1F
100
AcDbEntity
  8
XR$1$TB_809_1
  6
VERDECKT2_S2
 62
     7
440
 33554687
370
    13
100
AcDbLine
 10
9.793132
 20
0.10859
 30
0.0
 11
9.797632
 21
0.10859
 31
0.0
  0
ARC
  5
D2
330
1F
100
AcDbEntity
  8
XR$1$TB_809_1
  6
VERDECKT2_S2
 62
     7
440
 33554687
370
    13
100
AcDbCircle
 10
9.798132
 20
0.107185
 30
0.0
 40
0.0004999999999999
100
AcDbArc
 50
338.583286
 51
0.0
  0
LINE
  5
D3
330
1F
100
AcDbEntity
  8
XR$1$TB_809_1
  6
VERDECKT2_S2
 62
     7
440
 33554687
370
    13
100
AcDbLine
 10
9.798632
 20
0.10759
 30
0.0
 11
9.798632
 21
0.107185
 31
0.0
  0
ARC
  5
D4
330
1F
100
AcDbEntity
  8
XR$1$TB_809_1
  6
VERDECKT2_S2
 62
     7
440
 33554687
370
    13
100
AcDbCircle
 10
9.797632
 20
0.10759
 30
0.0
 40
0.001
100
AcDbArc
 50
0.0
 51
90.0
  0
LINE
  5
D5
330
1F
100
AcDbEntity
  8
XR$1$TB_809_1
  6
VERDECKT2_S2
 62
     7
440
 33554687
370
    13
100
AcDbLine
 10
9.797666
 20
0.104629
 30
0.0
 11
9.798597
 21
0.107002
 31
0.0
  0
ARC
  5
D6
330
1F
100
AcDbEntity
  8
XR$1$TB_809_1
  6
VERDECKT2_S2
 62
     7
440
 33554687
370
    13
100
AcDbCircle
 10
9.798132
 20
0.104446
 30
0.0
 40
0.0004999999999999
100
AcDbArc
 50
158.583286
 51
180.0
  0
LINE
  5
D7
330
1F
100
AcDbEntity
  8
XR$1$TB_809_1
  6
VERDECKT2_S2
 62
     7
440
 33554687
370
    13
100
AcDbLine
 10
9.797632
 20
0.09934
 30
0.0
 11
9.797632
 21
0.104446
 31
0.0
  0
ARC
  5
D8
330
1F
100
AcDbEntity
  8
XR$1$TB_809_1
  6
VERDECKT2_S2
 62
     7
440
 33554687
370
    13
100
AcDbCircle
 10
9.793132
 20
0.10659
 30
0.0
 40
0.002
100
AcDbArc
 50
90.0
 51
180.0
  0
LINE
  5
D9
330
1F
100
AcDbEntity
  8
XR$1$TB_809_1
  6
AUSGEZOGEN
 62
     7
440
 33554687
370
    -3
100
AcDbLine
 10
9.804637
 20
0.09934
 30
0.0
 11
9.807382
 21
0.09934
 31
0.0
  0
LINE
  5
DA
330
1F
100
AcDbEntity
  8
XR$1$TB_809_1
  6
VERDECKT2_S2
 62
     7
440
 33554687
370
    13
100
AcDbLine
 10
9.791132
 20
0.09934
 30
0.0
 11
9.791132
 21
0.10659
 31
0.0
  0
LINE
  5
DB
330
1F
100
AcDbEntity
  8
XR$1$TB_809_1
  6
AUSGEZOGEN
 62
     7
440
 33554687
370
    25
100
AcDbLine
 10
9.784637
 20
0.09934
 30
0.0
 11
9.804637
 21
0.09934
 31
0.0
  0
LINE
  5
DC
330
1F
100
AcDbEntity
  8
XR$1$TB_809_1
  6
AUSGEZOGEN
 62
     7
440
 33554687
370
    -3
100
AcDbLine
 10
9.791132
 20
0.09434
 30
0.0
 11
9.791132
 21
0.09934
 31
0.0
  0
ARC
  5
DD
330
1F
100
AcDbEntity
  8
XR$1$TB_809_1
  6
AUSGEZOGEN
 62
     7
440
 33554687
370
    -3
100
AcDbCircle
 10
9.793132
 20
0.09434
 30
0.0
 40
0.002
100
AcDbArc
 50
180.0
 51
270.0
  0
LINE
  5
DE
330
1F
100
AcDbEntity
  8
XR$1$TB_809_1
  6
AUSGEZOGEN
 62
     7
440
 33554687
370
    -3
100
AcDbLine
 10
9.793132
 20
0.09234
 30
0.0
 11
9.805382
 21
0.09234
 31
0.0
  0
LINE
  5
DF
330
1F
100
AcDbEntity
  8
XR$1$TB_809_1
  6
VERDECKT2_S2
 62
     7
440
 33554687
370
    13
100
AcDbLine
 10
9.790637
 20
0.09934
 30
0.0
 11
9.790637
 21
0.504105
 31
0.0
  0
LINE
  5
E0
330
1F
100
AcDbEntity
  8
XR$1$TB_809_1
  6
AUSGEZOGEN
 62
     7
440
 33554687
370
    25
100
AcDbLine
 10
9.784637
 20
0.09934
 30
0.0
 11
9.784637
 21
0.504105
 31
0.0
  0
LINE
  5
E1
330
1F
100
AcDbEntity
  8
XR$1$TB_809_1
  6
AUSGEZOGEN
 62
     7
440
 33554687
370
    25
100
AcDbLine
 10
9.804637
 20
0.09934
 30
0.0
 11
9.804637
 21
0.504105
 31
0.0
  0
LINE
  5
E2
330
1F
100
AcDbEntity
  8
XR$1$TB_809_1
  6
VERDECKT2_S2
 62
     7
440
 33554687
370
    13
100
AcDbLine
 10
9.798632
 20
0.09934
 30
0.0
 11
9.798632
 21
0.504105
 31
0.0
  0
LINE
  5
E3
330
1F
100
AcDbEntity
  8
XR$1$TB_809_1
  6
AUSGEZOGEN
 62
     7
440
 33554687
370
    -3
100
AcDbLine
 10
9.808382
 20
0.09234
 30
0.0
 11
9.811382
 21
0.09234
 31
0.0
  0
ARC
  5
E4
330
1F
100
AcDbEntity
  8
XR$1$TB_809_1
  6
AUSGEZOGEN
 62
     7
440
 33554687
370
    -3
100
AcDbCircle
 10
9.795632
 20
0.09584
 30
0.0
 40
0.0015
100
AcDbArc
 50
90.0
 51
270.0
  0
LINE
  5
E5
330
1F
100
AcDbEntity
  8
XR$1$TB_809_1
  6
AUSGEZOGEN
 62
     7
440
 33554687
370
    -3
100
AcDbLine
 10
9.800632
 20
0.09434
 30
0.0
 11
9.795632
 21
0.09434
 31
0.0
  0
LINE
  5
E6
330
1F
100
AcDbEntity
  8
XR$1$TB_809_1
  6
AUSGEZOGEN
 62
     7
440
 33554687
370
    -3
100
AcDbLine
 10
9.816132
 20
0.09584
 30
0.0
 11
9.802632
 21
0.09584
 31
0.0
  0
LINE
  5
E7
330
1F
100
AcDbEntity
  8
XR$1$TB_809_1
  6
AUSGEZOGEN
 62
     7
440
 33554687
370
    -3
100
AcDbLine
 10
9.841382
 20
0.11109
 30
0.0
 11
9.813382
 21
0.11109
 31
0.0
  0
LINE
  5
E8
330
1F
100
AcDbEntity
  8
XR$1$TB_809_1
  6
AUSGEZOGEN
 62
     7
440
 33554687
370
    -3
100
AcDbLine
 10
9.841382
 20
0.16559
 30
0.0
 11
9.813382
 21
0.16559
 31
0.0
  0
LINE
  5
E9
330
1F
100
AcDbEntity
  8
XR$1$TB_809_1
  6
AUSGEZOGEN
 62
     7
440
 33554687
370
    -3
100
AcDbLine
 10
9.838882
 20
0.16359
 30
0.0
 11
9.838882
 21
0.11309
 31
0.0
  0
LINE
  5
EA
330
1F
100
AcDbEntity
  8
XR$1$TB_809_1
  6
AUSGEZOGEN
 62
     7
440
 33554687
370
    -3
100
AcDbLine
 10
9.813382
 20
0.18734
 30
0.0
 11
9.811382
 21
0.18734
 31
0.0
  0
LINE
  5
EB
330
1F
100
AcDbEntity
  8
XR$1$TB_809_1
  6
AUSGEZOGEN
 62
     7
440
 33554687
370
    -3
100
AcDbLine
 10
9.811382
 20
0.14584
 30
0.0
 11
9.808382
 21
0.14584
 31
0.0
  0
LINE
  5
EC
330
1F
100
AcDbEntity
  8
XR$1$TB_809_1
  6
AUSGEZOGEN
 62
     7
440
 33554687
370
    -3
100
AcDbLine
 10
9.811382
 20
0.18734
 30
0.0
 11
9.811382
 21
0.14584
 31
0.0
  0
LINE
  5
ED
330
1F
100
AcDbEntity
  8
XR$1$TB_809_1
  6
AUSGEZOGEN
 62
     7
440
 33554687
370
    -3
100
AcDbLine
 10
9.813382
 20
0.16359
 30
0.0
 11
9.838882
 21
0.16359
 31
0.0
  0
LINE
  5
EE
330
1F
100
AcDbEntity
  8
XR$1$TB_809_1
  6
AUSGEZOGEN
 62
     7
440
 33554687
370
    -3
100
AcDbLine
 10
9.813382
 20
0.11309
 30
0.0
 11
9.813382
 21
0.16359
 31
0.0
  0
LINE
  5
EF
330
1F
100
AcDbEntity
  8
XR$1$TB_809_1
  6
AUSGEZOGEN
 62
     7
440
 33554687
370
    -3
100
AcDbLine
 10
9.838882
 20
0.11309
 30
0.0
 11
9.813382
 21
0.11309
 31
0.0
  0
LINE
  5
F0
330
1F
100
AcDbEntity
  8
XR$1$TB_809_1
  6
AUSGEZOGEN
 62
     7
440
 33554687
370
    -3
100
AcDbLine
 10
9.846882
 20
0.13834
 30
0.0
 11
9.831882
 21
0.13834
 31
0.0
  0
LINE
  5
F1
330
1F
100
AcDbEntity
  8
XR$1$TB_809_1
  6
AUSGEZOGEN
 62
     7
440
 33554687
370
    -3
100
AcDbLine
 10
9.705539
 20
0.067892
 30
0.0
 11
9.705539
 21
0.151808
 31
0.0
  0
LINE
  5
F2
330
1F
100
AcDbEntity
  8
XR$1$TB_809_1
  6
AUSGEZOGEN
 62
     7
440
 33554687
370
    -3
100
AcDbLine
 10
9.705539
 20
0.151808
 30
0.0
 11
9.811382
 21
0.151808
 31
0.0
  0
LINE
  5
F3
330
1F
100
AcDbEntity
  8
XR$1$TB_809_1
  6
AUSGEZOGEN
 62
     7
440
 33554687
370
    -3
100
AcDbLine
 10
9.813382
 20
0.176465
 30
0.0
 11
9.814089
 21
0.177172
 31
0.0
  0
LINE
  5
F4
330
1F
100
AcDbEntity
  8
XR$1$TB_809_1
  6
AUSGEZOGEN
 62
     7
440
 33554687
370
    -3
100
AcDbLine
 10
9.814089
 20
0.177172
 30
0.0
 11
9.813382
 21
0.177879
 31
0.0
  0
LINE
  5
F5
330
1F
100
AcDbEntity
  8
XR$1$TB_809_1
  6
AUSGEZOGEN
 62
     7
440
 33554687
370
    -3
100
AcDbLine
 10
9.813382
 20
0.176465
 30
0.0
 11
9.814089
 21
0.175758
 31
0.0
  0
LINE
  5
F6
330
1F
100
AcDbEntity
  8
XR$1$TB_809_1
  6
AUSGEZOGEN
 62
     7
440
 33554687
370
    -3
100
AcDbLine
 10
9.814089
 20
0.175758
 30
0.0
 11
9.813382
 21
0.175051
 31
0.0
  0
LINE
  5
F7
330
1F
100
AcDbEntity
  8
XR$1$TB_809_1
  6
AUSGEZOGEN
 62
     7
440
 33554687
370
    -3
100
AcDbLine
 10
9.813382
 20
0.177879
 30
0.0
 11
9.813382
 21
0.18734
 31
0.0
  0
LINE
  5
F8
330
1F
100
AcDbEntity
  8
XR$1$TB_809_1
  6
AUSGEZOGEN
 62
     7
440
 33554687
370
    -3
100
AcDbLine
 10
9.813382
 20
0.16559
 30
0.0
 11
9.813382
 21
0.175051
 31
0.0
  0
LINE
  5
F9
330
1F
100
AcDbEntity
  8
XR$1$TB_809_1
  6
AUSGEZOGEN
 62
     7
440
 33554687
370
    -3
100
AcDbLine
 10
9.813382
 20
0.100215
 30
0.0
 11
9.814089
 21
0.100922
 31
0.0
  0
LINE
  5
FA
330
1F
100
AcDbEntity
  8
XR$1$TB_809_1
  6
AUSGEZOGEN
 62
     7
440
 33554687
370
    -3
100
AcDbLine
 10
9.814089
 20
0.100922
 30
0.0
 11
9.813382
 21
0.101629
 31
0.0
  0
LINE
  5
FB
330
1F
100
AcDbEntity
  8
XR$1$TB_809_1
  6
AUSGEZOGEN
 62
     7
440
 33554687
370
    -3
100
AcDbLine
 10
9.813382
 20
0.100215
 30
0.0
 11
9.814089
 21
0.099508
 31
0.0
  0
LINE
  5
FC
330
1F
100
AcDbEntity
  8
XR$1$TB_809_1
  6
AUSGEZOGEN
 62
     7
440
 33554687
370
    -3
100
AcDbLine
 10
9.814089
 20
0.099508
 30
0.0
 11
9.813382
 21
0.098801
 31
0.0
  0
LINE
  5
FD
330
1F
100
AcDbEntity
  8
XR$1$TB_809_1
  6
AUSGEZOGEN
 62
     7
440
 33554687
370
    -3
100
AcDbLine
 10
9.813382
 20
0.11109
 30
0.0
 11
9.813382
 21
0.101629
 31
0.0
  0
LINE
  5
FE
330
1F
100
AcDbEntity
  8
XR$1$TB_809_1
  6
AUSGEZOGEN
 62
     7
440
 33554687
370
    -3
100
AcDbLine
 10
9.841382
 20
0.094186
 30
0.0
 11
9.891382
 21
0.094186
 31
0.0
  0
LINE
  5
FF
330
1F
100
AcDbEntity
  8
XR$1$TB_809_1
  6
AUSGEZOGEN
 62
     7
440
 33554687
370
    -3
100
AcDbLine
 10
9.868326
 20
0.092078
 30
0.0
 11
9.860826
 21
0.092078
 31
0.0
  0
LINE
  5
100
330
1F
100
AcDbEntity
  8
XR$1$TB_809_1
  6
AUSGEZOGEN
 62
     7
440
 33554687
370
    -3
100
AcDbLine
 10
9.868326
 20
0.092078
 30
0.0
 11
9.875826
 21
0.092078
 31
0.0
  0
LINE
  5
101
330
1F
100
AcDbEntity
  8
XR$1$TB_809_1
  6
AUSGEZOGEN
 62
     7
440
 33554687
370
    -3
100
AcDbLine
 10
9.957382
 20
0.324078
 30
0.0
 11
9.957382
 21
0.244078
 31
0.0
  0
LINE
  5
102
330
1F
100
AcDbEntity
  8
XR$1$TB_809_1
  6
VERDECKT2_S2
 62
     7
440
 33554687
370
    -3
100
AcDbLine
 10
9.954382
 20
0.324078
 30
0.0
 11
9.954382
 21
0.244078
 31
0.0
  0
LINE
  5
103
330
1F
100
AcDbEntity
  8
XR$1$TB_809_1
  6
STRICHPUNKT2_S5
 62
     6
440
 33554687
370
    35
100
AcDbLine
 10
9.944382
 20
0.284078
 30
0.0
 11
10.062382
 21
0.284078
 31
0.0
  0
LINE
  5
104
330
1F
100
AcDbEntity
  8
XR$1$TB_809_1
  6
AUSGEZOGEN
 62
     7
440
 33554687
370
    13
100
AcDbLine
 10
9.891382
 20
0.439078
 30
0.0
 11
9.963382
 21
0.414078
 31
0.0
  0
LINE
  5
105
330
1F
100
AcDbEntity
  8
XR$1$TB_809_1
  6
AUSGEZOGEN
 62
     7
440
 33554687
370
    13
100
AcDbLine
 10
9.963382
 20
0.414078
 30
0.0
 11
9.891382
 21
0.389078
 31
0.0
  0
LINE
  5
106
330
1F
100
AcDbEntity
  8
XR$1$TB_809_1
  6
AUSGEZOGEN
 62
     7
440
 33554687
370
    13
100
AcDbLine
 10
9.891382
 20
0.389078
 30
0.0
 11
9.963382
 21
0.364078
 31
0.0
  0
LINE
  5
107
330
1F
100
AcDbEntity
  8
XR$1$TB_809_1
  6
AUSGEZOGEN
 62
     7
440
 33554687
370
    13
100
AcDbLine
 10
9.963382
 20
0.464078
 30
0.0
 11
9.891382
 21
0.439078
 31
0.0
  0
LINE
  5
108
330
1F
100
AcDbEntity
  8
XR$1$TB_809_1
  6
AUSGEZOGEN
 62
     7
440
 33554687
370
    13
100
AcDbLine
 10
9.963382
 20
0.364078
 30
0.0
 11
9.891382
 21
0.339078
 31
0.0
  0
LINE
  5
109
330
1F
100
AcDbEntity
  8
XR$1$TB_809_1
  6
AUSGEZOGEN
 62
     7
440
 33554687
370
    13
100
AcDbLine
 10
9.891382
 20
0.239078
 30
0.0
 11
9.963382
 21
0.214078
 31
0.0
  0
LINE
  5
10A
330
1F
100
AcDbEntity
  8
XR$1$TB_809_1
  6
AUSGEZOGEN
 62
     7
440
 33554687
370
    13
100
AcDbLine
 10
9.963382
 20
0.214078
 30
0.0
 11
9.891382
 21
0.189078
 31
0.0
  0
LINE
  5
10B
330
1F
100
AcDbEntity
  8
XR$1$TB_809_1
  6
AUSGEZOGEN
 62
     7
440
 33554687
370
    13
100
AcDbLine
 10
9.891382
 20
0.189078
 30
0.0
 11
9.963382
 21
0.164078
 31
0.0
  0
LINE
  5
10C
330
1F
100
AcDbEntity
  8
XR$1$TB_809_1
  6
AUSGEZOGEN
 62
     7
440
 33554687
370
    13
100
AcDbLine
 10
9.963382
 20
0.164078
 30
0.0
 11
9.891382
 21
0.139078
 31
0.0
  0
LINE
  5
10D
330
1F
100
AcDbEntity
  8
XR$1$TB_809_1
  6
AUSGEZOGEN
 62
     7
440
 33554687
370
    13
100
AcDbLine
 10
9.891382
 20
0.489078
 30
0.0
 11
9.963382
 21
0.464078
 31
0.0
  0
LINE
  5
10E
330
1F
100
AcDbEntity
  8
XR$1$TB_809_1
  6
AUSGEZOGEN
 62
     7
440
 33554687
370
    13
100
AcDbLine
 10
9.934656
 20
0.504104
 30
0.0
 11
9.891382
 21
0.489078
 31
0.0
  0
LINE
  5
10F
330
1F
100
AcDbEntity
  8
XR$1$TB_809_1
  6
AUSGEZOGEN
 62
     7
440
 33554687
370
    13
100
AcDbLine
 10
9.891382
 20
0.339078
 30
0.0
 11
9.934581
 21
0.324078
 31
0.0
  0
LINE
  5
110
330
1F
100
AcDbEntity
  8
XR$1$TB_809_1
  6
AUSGEZOGEN
 62
     7
440
 33554687
370
    13
100
AcDbLine
 10
9.905782
 20
0.244078
 30
0.0
 11
9.891382
 21
0.239078
 31
0.0
  0
LINE
  5
111
330
1F
100
AcDbEntity
  8
XR$1$TB_809_1
  6
AUSGEZOGEN
 62
     7
440
 33554687
370
    13
100
AcDbLine
 10
9.891382
 20
0.139078
 30
0.0
 11
9.960382
 21
0.11512
 31
0.0
  0
LINE
  5
112
330
1F
100
AcDbEntity
  8
XR$1$TB_809_1
  6
AUSGEZOGEN
 62
     7
440
 33554687
370
    13
100
AcDbLine
 10
9.960382
 20
0.113037
 30
0.0
 11
9.891382
 21
0.089078
 31
0.0
  0
LINE
  5
113
330
1F
100
AcDbEntity
  8
XR$1$TB_809_1
  6
VERDECKT2_S2
 62
     7
440
 33554687
370
    -3
100
AcDbLine
 10
9.891382
 20
0.324078
 30
0.0
 11
9.891382
 21
0.244078
 31
0.0
  0
LINE
  5
114
330
1F
100
AcDbEntity
  8
XR$1$TB_809_1
  6
AUSGEZOGEN
 62
     5
440
 33554687
370
    -3
100
AcDbLine
 10
9.712113
 20
0.028681
 30
0.0
 11
9.713846
 21
0.027681
 31
0.0
  0
LINE
  5
115
330
1F
100
AcDbEntity
  8
XR$1$TB_809_1
  6
AUSGEZOGEN
 62
     5
440
 33554687
370
    -3
100
AcDbLine
 10
9.713846
 20
0.027681
 30
0.0
 11
9.713846
 21
-0.070319
 31
0.0
  0
LINE
  5
116
330
1F
100
AcDbEntity
  8
XR$1$TB_809_1
  6
AUSGEZOGEN
 62
     5
440
 33554687
370
    -3
100
AcDbLine
 10
9.713846
 20
-0.070319
 30
0.0
 11
9.712113
 21
-0.069319
 31
0.0
  0
LINE
  5
117
330
1F
100
AcDbEntity
  8
XR$1$TB_809_1
  6
AUSGEZOGEN
 62
     5
440
 33554687
370
    -3
100
AcDbLine
 10
9.712113
 20
-0.069319
 30
0.0
 11
9.712113
 21
-0.047569
 31
0.0
  0
LINE
  5
118
330
1F
100
AcDbEntity
  8
XR$1$TB_809_1
  6
AUSGEZOGEN
 62
     5
440
 33554687
370
    -3
100
AcDbLine
 10
9.712113
 20
-0.047569
 30
0.0
 11
9.687865
 21
-0.033569
 31
0.0
  0
LINE
  5
119
330
1F
100
AcDbEntity
  8
XR$1$TB_809_1
  6
AUSGEZOGEN
 62
     5
440
 33554687
370
    -3
100
AcDbLine
 10
9.687865
 20
-0.033569
 30
0.0
 11
9.687865
 21
0.020931
 31
0.0
  0
LINE
  5
11A
330
1F
100
AcDbEntity
  8
XR$1$TB_809_1
  6
AUSGEZOGEN
 62
     5
440
 33554687
370
    -3
100
AcDbLine
 10
9.687865
 20
0.020931
 30
0.0
 11
9.712113
 21
0.006931
 31
0.0
  0
LINE
  5
11B
330
1F
100
AcDbEntity
  8
XR$1$TB_809_1
  6
AUSGEZOGEN
 62
     5
440
 33554687
370
    -3
100
AcDbLine
 10
9.712113
 20
0.006931
 30
0.0
 11
9.712113
 21
0.028681
 31
0.0
  0
LINE
  5
11C
330
1F
100
AcDbEntity
  8
XR$1$TB_809_1
  6
AUSGEZOGEN
 62
     5
440
 33554687
370
    -3
100
AcDbLine
 10
9.712113
 20
0.004931
 30
0.0
 11
9.69003
 21
0.017681
 31
0.0
  0
LINE
  5
11D
330
1F
100
AcDbEntity
  8
XR$1$TB_809_1
  6
AUSGEZOGEN
 62
     5
440
 33554687
370
    -3
100
AcDbLine
 10
9.69003
 20
-0.032819
 30
0.0
 11
9.69003
 21
0.017681
 31
0.0
  0
LINE
  5
11E
330
1F
100
AcDbEntity
  8
XR$1$TB_809_1
  6
AUSGEZOGEN
 62
     5
440
 33554687
370
    -3
100
AcDbLine
 10
9.712113
 20
-0.045569
 30
0.0
 11
9.69003
 21
-0.032819
 31
0.0
  0
LINE
  5
11F
330
1F
100
AcDbEntity
  8
XR$1$TB_809_1
  6
AUSGEZOGEN
 62
     5
440
 33554687
370
    -3
100
AcDbLine
 10
9.712113
 20
-0.045569
 30
0.0
 11
9.712113
 21
0.004931
 31
0.0
  0
LINE
  5
120
330
1F
100
AcDbEntity
  8
XR$1$TB_809_1
  6
AUSGEZOGEN
 62
     5
440
 33554687
370
    -3
100
AcDbLine
 10
9.69003
 20
-0.032819
 30
0.0
 11
9.712113
 21
-0.020069
 31
0.0
  0
ARC
  5
121
330
1F
100
AcDbEntity
  8
XR$1$TB_809_1
  6
AUSGEZOGEN
 62
     7
440
 33554687
370
    -3
100
AcDbCircle
 10
9.749947
 20
0.012024
 30
0.0
 40
0.0216506350946043
100
AcDbArc
 50
300.0
 51
0.0
  0
ARC
  5
122
330
1F
100
AcDbEntity
  8
XR$1$TB_809_1
  6
AUSGEZOGEN
 62
     7
440
 33554687
370
    -3
100
AcDbCircle
 10
9.771598
 20
-0.000476
 30
0.0
 40
0.0216506350946043
100
AcDbArc
 50
120.0
 51
180.0
  0
ARC
  5
123
330
1F
100
AcDbEntity
  8
XR$1$TB_809_1
  6
AUSGEZOGEN
 62
     7
440
 33554687
370
    -3
100
AcDbCircle
 10
9.748215
 20
0.013024
 30
0.0
 40
0.0216506350946043
100
AcDbArc
 50
300.0
 51
0.0
  0
ARC
  5
124
330
1F
100
AcDbEntity
  8
XR$1$TB_809_1
  6
AUSGEZOGEN
 62
     7
440
 33554687
370
    -3
100
AcDbCircle
 10
9.762649
 20
0.013024
 30
0.0
 40
0.0072168783648681
100
AcDbArc
 50
0.0
 51
52.035237
  0
ARC
  5
125
330
1F
100
AcDbEntity
  8
XR$1$TB_809_1
  6
AUSGEZOGEN
 62
     7
440
 33554687
370
    -3
100
AcDbCircle
 10
9.755432
 20
0.000524
 30
0.0
 40
0.0072168783648681
100
AcDbArc
 50
247.964764
 51
300.0
  0
LINE
  5
126
330
1F
100
AcDbEntity
  8
XR$1$TB_809_1
  6
AUSGEZOGEN
 62
     5
440
 33554687
370
    -3
100
AcDbLine
 10
9.687865
 20
0.020931
 30
0.0
 11
9.760749
 21
0.063011
 31
0.0
  0
LINE
  5
127
330
1F
100
AcDbEntity
  8
XR$1$TB_809_1
  6
AUSGEZOGEN
 62
     5
440
 33554687
370
    -3
100
AcDbLine
 10
9.712113
 20
0.028681
 30
0.0
 11
9.766894
 21
0.060308
 31
0.0
  0
LINE
  5
128
330
1F
100
AcDbEntity
  8
XR$1$TB_809_1
  6
AUSGEZOGEN
 62
     5
440
 33554687
370
    -3
100
AcDbLine
 10
9.713846
 20
0.027681
 30
0.0
 11
9.768727
 21
0.059366
 31
0.0
  0
LINE
  5
129
330
1F
100
AcDbEntity
  8
XR$1$TB_809_1
  6
AUSGEZOGEN
 62
     5
440
 33554687
370
    -3
100
AcDbLine
 10
9.713846
 20
-0.070319
 30
0.0
 11
9.806356
 21
-0.016908
 31
0.0
  0
ARC
  5
12A
330
1F
100
AcDbEntity
  8
XR$1$TB_809_1
  6
AUSGEZOGEN
 62
     7
440
 33554687
370
    -3
100
AcDbCircle
 10
9.757164
 20
-0.000476
 30
0.0
 40
0.0072168783648681
100
AcDbArc
 50
180.0
 51
300.0
  0
ARC
  5
12B
330
1F
100
AcDbEntity
  8
XR$1$TB_809_1
  6
AUSGEZOGEN
 62
     7
440
 33554687
370
    -3
100
AcDbCircle
 10
9.764381
 20
0.012024
 30
0.0
 40
0.0072168783648681
100
AcDbArc
 50
0.0
 51
120.0
  0
LINE
  5
12C
330
1F
100
AcDbEntity
  8
XR$1$TB_809_1
  6
AUSGEZOGEN
 62
     5
440
 33554687
370
    -3
100
AcDbLine
 10
9.771598
 20
0.012024
 30
0.0
 11
9.771598
 21
0.012022
 31
0.0
  0
LINE
  5
12D
330
1F
100
AcDbEntity
  8
XR$1$TB_809_1
  6
AUSGEZOGEN
 62
     5
440
 33554687
370
    -3
100
AcDbLine
 10
9.747987
 20
-0.024605
 30
0.0
 11
9.773151
 21
-0.010076
 31
0.0
  0
LINE
  5
12E
330
1F
100
AcDbEntity
  8
XR$1$TB_809_1
  6
AUSGEZOGEN
 62
     5
440
 33554687
370
    -3
100
AcDbLine
 10
9.750063
 20
-0.009144
 30
0.0
 11
9.750063
 21
-0.025273
 31
0.0
  0
LINE
  5
12F
330
1F
100
AcDbEntity
  8
XR$1$TB_809_1
  6
AUSGEZOGEN
 62
     5
440
 33554687
370
    -3
100
AcDbLine
 10
9.771598
 20
0.00329
 30
0.0
 11
9.771598
 21
-0.012839
 31
0.0
  0
LINE
  5
130
330
1F
100
AcDbEntity
  8
XR$1$TB_809_1
  6
AUSGEZOGEN
 62
     5
440
 33554687
370
    -3
100
AcDbLine
 10
9.750063
 20
-0.023406
 30
0.0
 11
9.751795
 21
-0.024406
 31
0.0
  0
LINE
  5
131
330
1F
100
AcDbEntity
  8
XR$1$TB_809_1
  6
AUSGEZOGEN
 62
     5
440
 33554687
370
    -3
100
AcDbLine
 10
9.750063
 20
-0.023406
 30
0.0
 11
9.74833
 21
-0.022406
 31
0.0
  0
LINE
  5
132
330
1F
100
AcDbEntity
  8
XR$1$TB_809_1
  6
AUSGEZOGEN
 62
     5
440
 33554687
370
    -3
100
AcDbLine
 10
9.771598
 20
-0.010973
 30
0.0
 11
9.77333
 21
-0.011973
 31
0.0
  0
LINE
  5
133
330
1F
100
AcDbEntity
  8
XR$1$TB_809_1
  6
AUSGEZOGEN
 62
     5
440
 33554687
370
    -3
100
AcDbLine
 10
9.771598
 20
-0.010973
 30
0.0
 11
9.769866
 21
-0.009973
 31
0.0
  0
MTEXT
  5
134
330
1F
100
AcDbEntity
  8
XR$1$TB_809_1
  6
AUSGEZOGEN
 62
     7
440
 33554687
370
    -3
100
AcDbMText
 10
9.754587
 20
-0.031922
 30
0.0
 40
0.0075
 41
0.02203
 46
0.0
 71
     7
 72
     5
  1
\W1.39;\Q30.0;d>
  7
ARIAL
 11
0.8660254037844375
 21
0.5000000000000024
 31
0.0
 73
     1
 44
1.0
  0
LINE
  5
135
330
1F
100
AcDbEntity
  8
XR$1$TB_809_1
  6
AUSGEZOGEN
 62
     1
440
 33554687
370
    70
100
AcDbLine
 10
9.469645
 20
-0.608434
 30
0.0
 11
9.469645
 21
0.876566
 31
0.0
  0
LINE
  5
136
330
1F
100
AcDbEntity
  8
XR$1$TB_809_1
  6
AUSGEZOGEN
 62
    35
440
 33554687
370
    70
100
AcDbLine
 10
10.519645
 20
0.876566
 30
0.0
 11
9.469645
 21
0.876566
 31
0.0
  0
LINE
  5
137
330
1F
100
AcDbEntity
  8
XR$1$TB_809_1
  6
AUSGEZOGEN
 62
    35
440
 33554687
370
    70
100
AcDbLine
 10
10.519645
 20
-0.608434
 30
0.0
 11
10.519645
 21
0.876566
 31
0.0
  0
LINE
  5
138
330
1F
100
AcDbEntity
  8
XR$1$TB_809_1
  6
AUSGEZOGEN
 62
    35
440
 33554687
370
    70
100
AcDbLine
 10
9.469645
 20
-0.608434
 30
0.0
 11
10.519645
 21
-0.608434
 31
0.0
  0
MTEXT
  5
139
330
1F
100
AcDbEntity
  8
XR$1$TB_809_1
  6
AUSGEZOGEN
 62
     7
440
 33554687
370
    -3
100
AcDbMText
 10
9.587453
 20
-0.559056
 30
0.0
 40
0.009
 41
0.895804
 46
0.0
 71
     7
 72
     5
  1
\W0.80;IL S' AGIT DE PROPOSITIONS DE CONSTRUCTION SANS ENGAGEMENT DE NOTRE PART QUI DOIVENT ETRE VERIFIEES POUR CHAQUE PROJET A LEUR EXACTITUDE ET FAISABILITE.
  7
ARIAL
 73
     1
 44
1.0
  0
MTEXT
  5
13A
330
1F
100
AcDbEntity
  8
XR$1$TB_809_1
  6
AUSGEZOGEN
 62
     7
440
 33554687
370
    -3
100
AcDbMText
 10
9.587874
 20
0.686667
 30
0.0
 40
0.0225
 41
0.381035
 46
0.0
 71
     7
 72
     5
  1
\W1.00;KeraTwin   K20 - Klammer
  7
ARIAL
 73
     1
 44
1.0
  0
MTEXT
  5
13B
330
1F
100
AcDbEntity
  8
XR$1$TB_809_1
  6
AUSGEZOGEN
 62
     7
440
 33554687
370
    -3
100
AcDbMText
 10
9.722048
 20
0.698863
 30
0.0
 40
0.01
 41
0.024254
 46
0.0
 71
     7
 72
     5
  1
\A1;{\fArial|i0|b0;\H0.017500;\W0.911111;\C7;®}\P
  7
ARIAL
 73
     1
 44
1.0
  0
MTEXT
  5
13C
330
1F
100
AcDbEntity
  8
XR$1$TB_809_1
  6
AUSGEZOGEN
 62
     6
440
 33554687
370
    -3
100
AcDbMText
 10
9.590317
 20
0.62974
 30
0.0
 40
0.0175
 41
0.216709
 46
0.0
 71
     1
 72
     5
  1
}\P{\fArial|i0|b0;\H0.017500;\W1.000000;\C6;VERTICAL FIXING}\P
  7
ARIAL
 73
     1
 44
0.903614
  0
MTEXT
  5
13D
330
1F
100
AcDbEntity
  8
XR$1$TB_809_1
  6
AUSGEZOGEN
 62
     6
440
 33554687
370
    -3
100
AcDbMText
 10
9.588998
 20
0.617361
 30
0.0
 40
0.0175
 41
0.264251
 46
0.0
 71
     7
 72
     5
  1
\W1.00;FIXATION VERTICALE
  7
ARIAL
 73
     1
 44
1.0
  0
MTEXT
  5
13E
330
1F
100
AcDbEntity
  8
XR$1$TB_809_1
  6
AUSGEZOGEN
 62
     7
440
 33554687
370
    -3
100
AcDbMText
 10
9.588073
 20
0.648842
 30
0.0
 40
0.0175
 41
0.281188
 46
0.0
 71
     7
 72
     5
  1
\W1.00;VERTIKALVERLEGUNG
  7
ARIAL
 73
     1
 44
1.0
  0
CIRCLE
  5
13F
330
1F
100
AcDbEntity
  8
XR$1$TB_809_1
  6
AUSGEZOGEN
 62
     7
440
 33554687
370
    -3
100
AcDbCircle
 10
9.870382
 20
0.304078
 30
0.0
 40
0.005
  0
ARC
  5
140
330
1F
100
AcDbEntity
  8
XR$1$TB_809_1
  6
AUSGEZOGEN
 62
     7
440
 33554687
370
    -3
100
AcDbCircle
 10
9.870382
 20
0.296578
 30
0.0
 40
0.0025
100
AcDbArc
 50
180.0
 51
0.0
  0
LINE
  5
141
330
1F
100
AcDbEntity
  8
XR$1$TB_809_1
  6
AUSGEZOGEN
 62
     7
440
 33554687
370
    -3
100
AcDbLine
 10
9.872882
 20
0.296578
 30
0.0
 11
9.872882
 21
0.299748
 31
0.0
  0
LINE
  5
142
330
1F
100
AcDbEntity
  8
XR$1$TB_809_1
  6
AUSGEZOGEN
 62
     7
440
 33554687
370
    -3
100
AcDbLine
 10
9.867882
 20
0.296578
 30
0.0
 11
9.867882
 21
0.299748
 31
0.0
  0
ARC
  5
143
330
1F
100
AcDbEntity
  8
XR$1$TB_809_1
  6
AUSGEZOGEN
 62
     7
440
 33554687
370
    -3
100
AcDbCircle
 10
9.870382
 20
0.311578
 30
0.0
 40
0.0025
100
AcDbArc
 50
0.0
 51
180.0
  0
LINE
  5
144
330
1F
100
AcDbEntity
  8
XR$1$TB_809_1
  6
AUSGEZOGEN
 62
     7
440
 33554687
370
    -3
100
AcDbLine
 10
9.867882
 20
0.308409
 30
0.0
 11
9.867882
 21
0.311578
 31
0.0
  0
LINE
  5
145
330
1F
100
AcDbEntity
  8
XR$1$TB_809_1
  6
AUSGEZOGEN
 62
     7
440
 33554687
370
    -3
100
AcDbLine
 10
9.872882
 20
0.308409
 30
0.0
 11
9.872882
 21
0.311578
 31
0.0
  0
CIRCLE
  5
146
330
1F
100
AcDbEntity
  8
XR$1$TB_809_1
  6
AUSGEZOGEN
 62
     7
440
 33554687
370
    -3
100
AcDbCircle
 10
9.870382
 20
0.264078
 30
0.0
 40
0.0015
  0
CIRCLE
  5
147
330
1F
100
AcDbEntity
  8
XR$1$TB_809_1
  6
AUSGEZOGEN
 62
     7
440
 33554687
370
    -3
100
AcDbCircle
 10
9.870382
 20
0.264078
 30
0.0
 40
0.005
  0
ARC
  5
148
330
1F
100
AcDbEntity
  8
XR$1$TB_809_1
  6
AUSGEZOGEN
 62
     7
440
 33554687
370
    -3
100
AcDbCircle
 10
9.870382
 20
0.256578
 30
0.0
 40
0.0025
100
AcDbArc
 50
180.0
 51
0.0
  0
LINE
  5
149
330
1F
100
AcDbEntity
  8
XR$1$TB_809_1
  6
AUSGEZOGEN
 62
     7
440
 33554687
370
    -3
100
AcDbLine
 10
9.872882
 20
0.256578
 30
0.0
 11
9.872882
 21
0.259748
 31
0.0
  0
LINE
  5
14A
330
1F
100
AcDbEntity
  8
XR$1$TB_809_1
  6
AUSGEZOGEN
 62
     7
440
 33554687
370
    -3
100
AcDbLine
 10
9.867882
 20
0.256578
 30
0.0
 11
9.867882
 21
0.259748
 31
0.0
  0
ARC
  5
14B
330
1F
100
AcDbEntity
  8
XR$1$TB_809_1
  6
AUSGEZOGEN
 62
     7
440
 33554687
370
    -3
100
AcDbCircle
 10
9.870382
 20
0.271578
 30
0.0
 40
0.0025
100
AcDbArc
 50
0.0
 51
180.0
  0
LINE
  5
14C
330
1F
100
AcDbEntity
  8
XR$1$TB_809_1
  6
AUSGEZOGEN
 62
     7
440
 33554687
370
    -3
100
AcDbLine
 10
9.867882
 20
0.268409
 30
0.0
 11
9.867882
 21
0.271578
 31
0.0
  0
LINE
  5
14D
330
1F
100
AcDbEntity
  8
XR$1$TB_809_1
  6
AUSGEZOGEN
 62
     7
440
 33554687
370
    -3
100
AcDbLine
 10
9.872882
 20
0.268409
 30
0.0
 11
9.872882
 21
0.271578
 31
0.0
  0
CIRCLE
  5
14E
330
1F
100
AcDbEntity
  8
XR$1$TB_809_1
  6
AUSGEZOGEN
 62
     7
440
 33554687
370
    -3
100
AcDbCircle
 10
9.870382
 20
0.304078
 30
0.0
 40
0.0015
  0
LINE
  5
14F
330
1F
100
AcDbEntity
  8
XR$1$TB_809_1
  6
AUSGEZOGEN
 62
     7
440
 33554687
370
    -3
100
AcDbLine
 10
9.963382
 20
0.324078
 30
0.0
 11
9.857382
 21
0.324078
 31
0.0
  0
LINE
  5
150
330
1F
100
AcDbEntity
  8
XR$1$TB_809_1
  6
AUSGEZOGEN
 62
     7
440
 33554687
370
    -3
100
AcDbLine
 10
9.857382
 20
0.244078
 30
0.0
 11
9.963382
 21
0.244078
 31
0.0
  0
LINE
  5
151
330
1F
100
AcDbEntity
  8
XR$1$TB_809_1
  6
AUSGEZOGEN
 62
     7
440
 33554687
370
    -3
100
AcDbLine
 10
9.857382
 20
0.324078
 30
0.0
 11
9.857382
 21
0.244078
 31
0.0
  0
MTEXT
  5
152
330
1F
100
AcDbEntity
  8
XR$1$TB_809_1
  6
AUSGEZOGEN
 62
     7
440
 33554687
370
    35
100
AcDbMText
 10
9.647054
 20
0.177961
 30
0.0
 40
0.0125
 41
0.094636
 46
0.0
 71
     7
 72
     5
  1
\W0.92;Art.-Nr.: 681
  7
ARIAL
 11
0.9999999937315056
 21
-0.0001119686961200568
 31
0.0
 73
     1
 44
1.0
  0
LINE
  5
154
102
{ACAD_REACTORS
330
153
102
}
330
1F
100
AcDbEntity
  8
XR$1$TB_809_1
  6
AUSGEZOGEN
 62
     7
440
 33554687
370
    -3
100
AcDbLine
 10
9.735916
 20
0.183784
 30
0.0
 11
9.810083
 21
0.111149
 31
0.0
  0
LINE
  5
155
102
{ACAD_REACTORS
330
153
102
}
330
1F
100
AcDbEntity
  8
XR$1$TB_809_1
  6
AUSGEZOGEN
 62
     7
440
 33554687
370
    -3
100
AcDbLine
 10
9.802582
 20
0.118496
 30
0.0
 11
9.802046
 21
0.119021
 31
0.0
  0
LINE
  5
156
102
{ACAD_REACTORS
330
153
102
}
330
1F
100
AcDbEntity
  8
XR$1$TB_809_1
  6
AUSGEZOGEN
 62
     7
440
 33554687
370
    -3
100
AcDbLine
 10
9.810083
 20
0.111149
 30
0.0
 11
9.810083
 21
0.111149
 31
0.0
  0
LINE
  5
157
102
{ACAD_REACTORS
330
153
102
}
330
1F
100
AcDbEntity
  8
XR$1$TB_809_1
  6
AUSGEZOGEN
 62
     7
440
 33554687
370
    -3
100
AcDbLine
 10
9.810083
 20
0.111149
 30
0.0
 11
9.810083
 21
0.111149
 31
0.0
  0
LINE
  5
158
102
{ACAD_REACTORS
330
153
102
}
330
1F
100
AcDbEntity
  8
XR$1$TB_809_1
  6
AUSGEZOGEN
 62
     7
440
 33554687
370
    -3
100
AcDbLine
 10
9.810083
 20
0.111149
 30
0.0
 11
9.810083
 21
0.111149
 31
0.0
  0
LINE
  5
159
102
{ACAD_REACTORS
330
153
102
}
330
1F
100
AcDbEntity
  8
XR$1$TB_809_1
  6
AUSGEZOGEN
 62
     7
440
 33554687
370
    -3
100
AcDbLine
 10
9.810083
 20
0.111149
 30
0.0
 11
9.803631
 21
0.119568
 31
0.0
  0
LINE
  5
15A
102
{ACAD_REACTORS
330
153
102
}
330
1F
100
AcDbEntity
  8
XR$1$TB_809_1
  6
AUSGEZOGEN
 62
     7
440
 33554687
370
    -3
100
AcDbLine
 10
9.803631
 20
0.119568
 30
0.0
 11
9.801532
 21
0.117424
 31
0.0
  0
LINE
  5
15B
102
{ACAD_REACTORS
330
153
102
}
330
1F
100
AcDbEntity
  8
XR$1$TB_809_1
  6
AUSGEZOGEN
 62
     7
440
 33554687
370
    -3
100
AcDbLine
 10
9.801532
 20
0.117424
 30
0.0
 11
9.810083
 21
0.111149
 31
0.0
  0
HATCH
  5
15C
102
{ACAD_REACTORS
330
153
102
}
330
1F
100
AcDbEntity
  8
XR$1$TB_809_1
  6
AUSGEZOGEN
 62
     7
440
 33554687
370
    -3
100
AcDbHatch
 10
0.0
 20
0.0
 30
0.0
210
0.0
220
0.0
230
1.0
  2
SOLID
 70
     1
 71
     0
 91
        1
 92
        3
 72
     0
 73
     1
 93
        3
 10
9.801532287597656
 20
0.1174241943359375
 10
9.81008349609375
 20
0.1111491088867188
 10
9.80363134765625
 20
0.1195675659179688
 97
        0
 75
     0
 76
     1
 98
        0
  0
LINE
  5
15D
330
1F
100
AcDbEntity
  8
XR$1$TB_809_1
  6
STRICHPUNKT2_S5
 62
     7
440
 33554687
370
    -3
100
AcDbLine
 10
9.773382
 20
0.504105
 30
0.0
 11
10.283382
 21
0.504101
 31
0.0
  0
LWPOLYLINE
  5
15E
330
1F
100
AcDbEntity
  8
XR$1$TB_809_1
  6
AUSGEZOGEN
 62
     7
440
 33554687
370
    -3
100
AcDbPolyline
 90
        2
 70
     1
 43
0.0
 10
9.811382
 20
0.09234
 10
9.811382
 20
0.09234
  0
HATCH
  5
15F
330
1F
100
AcDbEntity
  8
XR$1$TB_809_1
  6
AUSGEZOGEN
 62
    18
420
        0
440
 33554687
370
    -3
100
AcDbHatch
 10
0.0
 20
0.0
 30
0.0
210
0.0
220
0.0
230
1.0
  2
SOLID
 70
     1
 71
     0
 91
        2
 92
        3
 72
     0
 73
     1
 93
       18
 10
9.814088904825237
 20
0.0995080043109141
 10
9.813381798044048
 20
0.1002151110921001
 10
9.814088904825237
 20
0.1009222178732861
 10
9.813381798044048
 20
0.1016293246544731
 10
9.813381798044048
 20
0.1110901110921001
 10
9.841381798044049
 20
0.1110901110921001
 10
9.841381798044049
 20
0.1655901110921001
 10
9.813381798044048
 20
0.1655901110921001
 10
9.813381798044048
 20
0.1750508975297271
 10
9.814088904825237
 20
0.1757580043109141
 10
9.813381798044048
 20
0.1764651110921001
 10
9.814088904825237
 20
0.1771722178732861
 10
9.813381798044048
 20
0.1778793246544731
 10
9.813381798044048
 20
0.1873401110921001
 10
9.81138179804405
 20
0.1873401110921001
 10
9.81138179804405
 20
0.0923401110921001
 10
9.813381798044048
 20
0.0923401110921001
 10
9.813381798044048
 20
0.0988008975297271
 97
        0
 92
       18
 72
     0
 73
     1
 93
        4
 10
9.838881798044017
 20
0.1635901110921001
 10
9.838881798044017
 20
0.1130901110921001
 10
9.813381798044048
 20
0.1130901110921001
 10
9.813381798044048
 20
0.1635901110921001
 97
        0
 75
     0
 76
     1
 98
        0
  0
LINE
  5
160
330
1F
100
AcDbEntity
  8
XR$1$TB_809_1
  6
AUSGEZOGEN
 62
     7
440
 33554687
370
    -3
100
AcDbLine
 10
9.813382
 20
0.09234
 30
0.0
 11
9.811382
 21
0.09234
 31
0.0
  0
LINE
  5
161
330
1F
100
AcDbEntity
  8
XR$1$TB_809_1
  6
AUSGEZOGEN
 62
     7
440
 33554687
370
    -3
100
AcDbLine
 10
9.811382
 20
0.09234
 30
0.0
 11
9.811382
 21
0.14584
 31
0.0
  0
LINE
  5
162
330
1F
100
AcDbEntity
  8
XR$1$TB_809_1
  6
AUSGEZOGEN
 62
     7
440
 33554687
370
    -3
100
AcDbLine
 10
9.811382
 20
0.09234
 30
0.0
 11
9.811382
 21
0.11309
 31
0.0
  0
LINE
  5
163
330
1F
100
AcDbEntity
  8
XR$1$TB_809_1
  6
AUSGEZOGEN
 62
     7
440
 33554687
370
    -3
100
AcDbLine
 10
9.813382
 20
0.098801
 30
0.0
 11
9.813382
 21
0.09234
 31
0.0
  0
HATCH
  5
164
330
1F
100
AcDbEntity
  8
XR$1$TB_809_1
  6
STRICHPUNKT2_S5
 62
    18
420
        0
440
 33554687
370
    -3
100
AcDbHatch
 10
0.0
 20
0.0
 30
0.0
210
0.0
220
0.0
230
1.0
  2
SOLID
 70
     1
 71
     0
 91
        1
 92
        3
 72
     0
 73
     1
 93
        4
 10
9.810381798043998
 20
0.0860783644480701
 10
9.810381798043998
 20
0.0890783644480701
 10
9.805381798043998
 20
0.0890783644480701
 10
9.805381798043998
 20
0.0860783644480701
 97
        0
 75
     0
 76
     1
 98
        0
  0
HATCH
  5
165
330
1F
100
AcDbEntity
  8
XR$1$TB_809_1
  6
STRICHPUNKT2_S5
 62
    18
420
        0
440
 33554687
370
    -3
100
AcDbHatch
 10
0.0
 20
0.0
 30
0.0
210
0.0
220
0.0
230
1.0
  2
SOLID
 70
     1
 71
     0
 91
        1
 92
        3
 72
     0
 73
     1
 93
        4
 10
9.800381798043999
 20
0.0860783644480701
 10
9.800381798043999
 20
0.0890783644480701
 10
9.795381798043998
 20
0.0890783644480701
 10
9.795381798043998
 20
0.0860783644480701
 97
        0
 75
     0
 76
     1
 98
        0
  0
HATCH
  5
166
330
1F
100
AcDbEntity
  8
XR$1$TB_809_1
  6
STRICHPUNKT2_S5
 62
    18
420
        0
440
 33554687
370
    -3
100
AcDbHatch
 10
0.0
 20
0.0
 30
0.0
210
0.0
220
0.0
230
1.0
  2
SOLID
 70
     1
 71
     0
 91
        1
 92
        3
 72
     0
 73
     1
 93
        4
 10
9.790381798043999
 20
0.0860783644480701
 10
9.790381798043999
 20
0.0890783644480701
 10
9.785381798043998
 20
0.0890783644480701
 10
9.785381798043998
 20
0.0860783644480701
 97
        0
 75
     0
 76
     1
 98
        0
  0
HATCH
  5
167
330
1F
100
AcDbEntity
  8
XR$1$TB_809_1
  6
STRICHPUNKT2_S5
 62
    18
420
        0
440
 33554687
370
    -3
100
AcDbHatch
 10
0.0
 20
0.0
 30
0.0
210
0.0
220
0.0
230
1.0
  2
SOLID
 70
     1
 71
     0
 91
        1
 92
        3
 72
     0
 73
     1
 93
        4
 10
9.830381798043998
 20
0.0860783644480701
 10
9.830381798043998
 20
0.0890783644480701
 10
9.825381798043999
 20
0.0890783644480701
 10
9.825381798043999
 20
0.0860783644480701
 97
        0
 75
     0
 76
     1
 98
        0
  0
HATCH
  5
168
330
1F
100
AcDbEntity
  8
XR$1$TB_809_1
  6
STRICHPUNKT2_S5
 62
    18
420
        0
440
 33554687
370
    -3
100
AcDbHatch
 10
0.0
 20
0.0
 30
0.0
210
0.0
220
0.0
230
1.0
  2
SOLID
 70
     1
 71
     0
 91
        1
 92
        3
 72
     0
 73
     1
 93
        4
 10
9.820381798043998
 20
0.0860783644480701
 10
9.820381798043998
 20
0.0890783644480701
 10
9.815381798043997
 20
0.0890783644480701
 10
9.815381798043997
 20
0.0860783644480701
 97
        0
 75
     0
 76
     1
 98
        0
  0
HATCH
  5
169
330
1F
100
AcDbEntity
  8
XR$1$TB_809_1
  6
STRICHPUNKT2_S5
 62
    18
420
        0
440
 33554687
370
    -3
100
AcDbHatch
 10
0.0
 20
0.0
 30
0.0
210
0.0
220
0.0
230
1.0
  2
SOLID
 70
     1
 71
     0
 91
        1
 92
        3
 72
     0
 73
     1
 93
        4
 10
9.840381798043998
 20
0.0860783644480701
 10
9.840381798043998
 20
0.0890783644480701
 10
9.835381798043999
 20
0.0890783644480701
 10
9.835381798043999
 20
0.0860783644480701
 97
        0
 75
     0
 76
     1
 98
        0
  0
LINE
  5
16A
330
1F
100
AcDbEntity
  8
XR$1$TB_809_1
  6
AUSGEZOGEN
 62
     7
440
 33554687
370
    -3
100
AcDbLine
 10
9.785382
 20
0.086078
 30
0.0
 11
9.785382
 21
0.089078
 31
0.0
  0
LINE
  5
16B
330
1F
100
AcDbEntity
  8
XR$1$TB_809_1
  6
AUSGEZOGEN
 62
     7
440
 33554687
370
    -3
100
AcDbLine
 10
9.960382
 20
0.089078
 30
0.0
 11
9.785382
 21
0.089078
 31
0.0
  0
LINE
  5
16C
330
1F
100
AcDbEntity
  8
XR$1$TB_809_1
  6
AUSGEZOGEN
 62
     7
440
 33554687
370
    -3
100
AcDbLine
 10
9.963382
 20
0.086078
 30
0.0
 11
9.785382
 21
0.086078
 31
0.0
  0
LINE
  5
16D
330
1F
100
AcDbEntity
  8
XR$1$TB_809_1
  6
AUSGEZOGEN
 62
     7
440
 33554687
370
    -3
100
AcDbLine
 10
9.860826
 20
0.089078
 30
0.0
 11
9.860826
 21
0.094186
 31
0.0
  0
LINE
  5
16E
330
1F
100
AcDbEntity
  8
XR$1$TB_809_1
  6
AUSGEZOGEN
 62
     7
440
 33554687
370
    -3
100
AcDbLine
 10
9.875826
 20
0.089078
 30
0.0
 11
9.875826
 21
0.094186
 31
0.0
  0
LINE
  5
16F
330
1F
100
AcDbEntity
  8
XR$1$TB_809_1
  6
VERDECKT2_S2
 62
     7
440
 33554687
370
    -3
100
AcDbLine
 10
9.868326
 20
0.114078
 30
0.0
 11
9.860826
 21
0.114078
 31
0.0
  0
ARC
  5
170
330
1F
100
AcDbEntity
  8
XR$1$TB_809_1
  6
VERDECKT2_S2
 62
     7
440
 33554687
370
    -3
100
AcDbCircle
 10
9.868326
 20
0.104078
 30
0.0
 40
0.004
100
AcDbArc
 50
90.0
 51
270.0
  0
ARC
  5
171
330
1F
100
AcDbEntity
  8
XR$1$TB_809_1
  6
VERDECKT2_S2
 62
     7
440
 33554687
370
    -3
100
AcDbCircle
 10
9.868326
 20
0.104078
 30
0.0
 40
0.0015
100
AcDbArc
 50
90.0
 51
270.0
  0
LINE
  5
172
330
1F
100
AcDbEntity
  8
XR$1$TB_809_1
  6
VERDECKT2_S2
 62
     7
440
 33554687
370
    -3
100
AcDbLine
 10
9.868326
 20
0.114078
 30
0.0
 11
9.875826
 21
0.114078
 31
0.0
  0
ARC
  5
173
330
1F
100
AcDbEntity
  8
XR$1$TB_809_1
  6
VERDECKT2_S2
 62
     7
440
 33554687
370
    -3
100
AcDbCircle
 10
9.868326
 20
0.104078
 30
0.0
 40
0.004
100
AcDbArc
 50
270.0
 51
90.0
  0
ARC
  5
174
330
1F
100
AcDbEntity
  8
XR$1$TB_809_1
  6
VERDECKT2_S2
 62
     7
440
 33554687
370
    -3
100
AcDbCircle
 10
9.868326
 20
0.104078
 30
0.0
 40
0.0015
100
AcDbArc
 50
270.0
 51
90.0
  0
MTEXT
  5
175
330
1F
100
AcDbEntity
  8
XR$1$TB_809_1
  6
AUSGEZOGEN
 62
     7
440
 33554687
370
    -3
100
AcDbMText
 10
10.366621
 20
-0.504772
 30
0.0
 40
0.009
 41
0.096773
 46
0.0
 71
     7
 72
     5
  1
\W0.91;STAND: Mai 2020
  7
ARIAL
 73
     1
 44
1.0
  0
VIEWPORT
  5
72
330
6E
100
AcDbEntity
 67
     1
  8
0
100
AcDbViewport
 10
0.105
 20
0.1485
 30
0.0
 40
0.2102
 41
0.2972
 68
     1
 69
     1
 12
0.105
 22
0.1485
 13
0.0
 23
0.0
 14
0.5
 24
0.5
 15
0.5
 25
0.5
 16
0.0
 26
0.0
 36
1.0
 17
0.0
 27
0.0
 37
0.0
 42
50.0
 43
0.0
 44
0.0
 45
0.2972
 50
0.0
 51
0.0
 72
   100
 90
   557152
  1

281
     0
 71
     1
 74
     0
110
0.0
120
0.0
130
0.0
111
1.0
121
0.0
131
0.0
112
0.0
122
1.0
132
0.0
 79
     0
146
0.0
170
     0
 61
     5
348
2F
292
     1
282
     1
141
0.0
142
0.0
 63
   256
361
73
  0
VIEWPORT
  5
178
330
6E
100
AcDbEntity
 67
     1
  8
PLAN_809
  6
AUSGEZOGEN
 62
     7
370
    35
100
AcDbViewport
 10
0.105
 20
0.1485
 30
0.0
 40
0.2102
 41
0.2972
 68
     2
 69
     2
 12
0.0
 22
0.0
 13
0.0
 23
0.0
 14
1.0
 24
1.0
 15
0.0
 25
0.0
 16
0.0
 26
0.0
 36
1.0
 17
9.994645
 27
0.134066
 37
0.0
 42
50.0
 43
0.0
 44
0.0
 45
1.486
 50
0.0
 51
0.0
 72
   100
331
10
331
76
331
78
 90
   557280
  1

281
     0
 71
     1
 74
     0
110
0.0
120
0.0
130
0.0
111
1.0
121
0.0
131
0.0
112
0.0
122
1.0
132
0.0
 79
     0
146
0.0
170
     0
 61
     5
348
2F
292
     1
282
     1
141
0.0
142
0.0
 63
   256
361
179
  0
ENDSEC
  0
SECTION
  2
OBJECTS
  0
DICTIONARY
  5
C
330
0
100
AcDbDictionary
281
     1
  3
ACAD_DETAILVIEWSTYLE
350
1B1
  3
ACAD_GROUP
350
D
  3
ACAD_LAYOUT
350
1A
  3
ACAD_MATERIAL
350
43
  3
ACAD_MLEADERSTYLE
350
6B
  3
ACAD_MLINESTYLE
350
17
  3
ACAD_PLOTSETTINGS
350
19
  3
ACAD_PLOTSTYLENAME
350
E
  3
ACAD_SCALELIST
350
47
  3
ACAD_SECTIONVIEWSTYLE
350
1B2
  3
ACAD_TABLESTYLE
350
69
  3
ACAD_VISUALSTYLE
350
2A
  3
ACDB_RECOMPOSE_DATA
350
1AE
  3
AcDbVariableDictionary
350
17A
  0
SUN
  5
6D
330
29
100
AcDbSun
 90
        1
290
     0
 63
     7
421
 16777215
 40
1.0
291
     1
 91
  2455826
 92
 54000000
292
     0
 70
     2
 71
   256
280
     1
  0
DICTIONARY
  5
176
330
1F
100
AcDbDictionary
280
     1
281
     1
  3
ACAD_SORTENTS
360
177
  0
SUN
  5
73
330
72
100
AcDbSun
 90
        1
290
     0
 63
     7
421
 16777215
 40
1.0
291
     1
 91
  2455826
 92
 54000000
292
     0
 70
     2
 71
   256
280
     1
  0
SUN
  5
179
330
178
100
AcDbSun
 90
        1
290
     0
 63
     7
421
 16777215
 40
1.0
291
     1
 91
  2455826
 92
 54000000
292
     0
 70
     2
 71
   256
280
     1
  0
DICTIONARY
  5
1B1
102
{ACAD_REACTORS
330
C
102
}
330
C
100
AcDbDictionary
281
     1
  0
DICTIONARY
  5
D
102
{ACAD_REACTORS
330
C
102
}
330
C
100
AcDbDictionary
281
     1
  3
VERBUNDBLOCK_0
350
83
  3
VERBUNDBLOCK_1
350
153
  0
DICTIONARY
  5
1A
102
{ACAD_REACTORS
330
C
102
}
330
C
100
AcDbDictionary
281
     1
  3
K20 Klammersystem vertikal 10
350
6F
  3
Model
350
22
  0
DICTIONARY
  5
43
102
{ACAD_REACTORS
330
C
102
}
330
C
100
AcDbDictionary
281
     1
  3
ByBlock
350
45
  3
ByLayer
350
44
  3
Global
350
46
  0
DICTIONARY
  5
6B
102
{ACAD_REACTORS
330
C
102
}
330
C
100
AcDbDictionary
281
     1
  3
Standard
350
6C
  0
DICTIONARY
  5
17
102
{ACAD_REACTORS
330
C
102
}
330
C
100
AcDbDictionary
281
     1
  3
Standard
350
18
  0
DICTIONARY
  5
19
102
{ACAD_REACTORS
330
C
102
}
330
C
100
AcDbDictionary
281
     1
  0
ACDBDICTIONARYWDFLT
  5
E
102
{ACAD_REACTORS
330
C
102
}
330
C
100
AcDbDictionary
281
     1
  3
Normal
350
F
100
AcDbDictionaryWithDefault
340
F
  0
DICTIONARY
  5
47
102
{ACAD_REACTORS
330
C
102
}
330
C
100
AcDbDictionary
281
     1
  3
A0
350
48
  3
A1
350
49
  3
A2
350
4A
  3
A3
350
4B
  3
A4
350
4C
  3
A5
350
4D
  3
A6
350
4E
  3
A7
350
4F
  3
A8
350
50
  3
A9
350
51
  3
B0
350
52
  3
B1
350
53
  3
B2
350
54
  3
B3
350
55
  3
B4
350
56
  3
B5
350
57
  3
B6
350
58
  3
B7
350
59
  3
B8
350
5A
  3
B9
350
5B
  3
C0
350
5C
  3
C1
350
5D
  3
C2
350
5E
  3
C3
350
5F
  3
C4
350
60
  3
C5
350
61
  3
C6
350
62
  3
C7
350
63
  3
C8
350
64
  3
C9
350
65
  3
D0
350
66
  3
D1
350
67
  3
D2
350
68
  0
DICTIONARY
  5
1B2
102
{ACAD_REACTORS
330
C
102
}
330
C
100
AcDbDictionary
281
     1
  0
DICTIONARY
  5
69
102
{ACAD_REACTORS
330
C
102
}
330
C
100
AcDbDictionary
281
     1
  3
Standard
350
6A
  0
DICTIONARY
  5
2A
102
{ACAD_REACTORS
330
C
102
}
330
C
100
AcDbDictionary
281
     1
  3
2dWireframe
350
2F
  3
Basic
350
32
  3
Brighten
350
36
  3
ColorChange
350
3A
  3
Conceptual
350
34
  3
Dim
350
35
  3
EdgeColorOff
350
3D
  3
Facepattern
350
39
  3
Flat
350
2B
  3
FlatWithEdges
350
2C
  3
Gouraud
350
2D
  3
GouraudWithEdges
350
2E
  3
Hidden
350
31
  3
JitterOff
350
3B
  3
Linepattern
350
38
  3
OverhangOff
350
3C
  3
Realistic
350
33
  3
Shaded
350
42
  3
Shaded with edges
350
41
  3
Shades of Gray
350
3E
  3
Sketchy
350
3F
  3
Thicken
350
37
  3
Wireframe
350
30
  3
X-Ray
350
40
  0
XRECORD
  5
1AE
102
{ACAD_REACTORS
330
C
102
}
330
C
100
AcDbXrecord
280
     1
 90
        1
330
6A
  0
DICTIONARY
  5
17A
102
{ACAD_REACTORS
330
C
102
}
330
C
100
AcDbDictionary
281
     1
  3
CANNOSCALE
350
17B
  3
CMLEADERSTYLE
350
1B0
  3
CTABLESTYLE
350
1AF
  0
SORTENTSTABLE
  5
177
102
{ACAD_REACTORS
330
176
102
}
330
176
100
AcDbSortentsTable
330
1F
331
7E
  5
97
331
7F
  5
98
331
80
  5
7E
331
81
  5
7F
331
82
  5
80
331
84
  5
81
331
85
  5
82
331
86
  5
84
331
87
  5
85
331
88
  5
86
331
89
  5
87
331
8A
  5
88
331
8B
  5
89
331
8C
  5
8A
331
8D
  5
8B
331
8E
  5
8C
331
8F
  5
8D
331
90
  5
8E
331
91
  5
99
331
92
  5
9A
331
93
  5
9B
331
94
  5
9C
331
95
  5
9D
331
96
  5
9E
331
97
  5
9F
331
98
  5
A0
331
99
  5
A1
331
9A
  5
A2
331
9B
  5
A3
331
9C
  5
A4
331
9D
  5
A5
331
9E
  5
A6
331
9F
  5
A7
331
A0
  5
A8
331
A1
  5
A9
331
A2
  5
AA
331
A3
  5
AB
331
A4
  5
AC
331
A5
  5
AD
331
A6
  5
AE
331
A7
  5
AF
331
A8
  5
B0
331
A9
  5
B1
331
AA
  5
B2
331
AB
  5
B3
331
AC
  5
B4
331
AD
  5
B5
331
AE
  5
B6
331
AF
  5
B7
331
B0
  5
B8
331
B1
  5
B9
331
B2
  5
BA
331
B3
  5
BB
331
B4
  5
BC
331
B5
  5
BD
331
B6
  5
BE
331
B7
  5
BF
331
B8
  5
C0
331
B9
  5
C1
331
BA
  5
C2
331
BB
  5
C3
331
BC
  5
C4
331
BD
  5
C5
331
BE
  5
C6
331
BF
  5
C7
331
C0
  5
C8
331
C1
  5
C9
331
C2
  5
CA
331
C3
  5
CB
331
C4
  5
CC
331
C5
  5
CD
331
C6
  5
CE
331
C7
  5
CF
331
C8
  5
D0
331
C9
  5
D1
331
CA
  5
D2
331
CB
  5
D3
331
CC
  5
D4
331
CD
  5
D5
331
CE
  5
D6
331
CF
  5
D7
331
D0
  5
D8
331
D1
  5
D9
331
D2
  5
DA
331
D3
  5
DB
331
D4
  5
DC
331
D5
  5
DD
331
D6
  5
DE
331
D7
  5
DF
331
D8
  5
E0
331
D9
  5
E1
331
DA
  5
E2
331
DB
  5
E3
331
DC
  5
E4
331
DD
  5
E5
331
DE
  5
E6
331
DF
  5
E7
331
E0
  5
E8
331
E1
  5
E9
331
E2
  5
EA
331
E3
  5
EB
331
E4
  5
EC
331
E5
  5
ED
331
E6
  5
EE
331
E7
  5
EF
331
E8
  5
F0
331
E9
  5
F1
331
EA
  5
F2
331
EB
  5
F3
331
EC
  5
F4
331
ED
  5
F5
331
EE
  5
F6
331
EF
  5
F7
331
F0
  5
F8
331
F1
  5
F9
331
F2
  5
FA
331
F3
  5
FB
331
F4
  5
FC
331
F5
  5
FD
331
F6
  5
FE
331
F7
  5
FF
331
F8
  5
100
331
F9
  5
101
331
FA
  5
102
331
FB
  5
103
331
FC
  5
104
331
FD
  5
105
331
FE
  5
106
331
FF
  5
107
331
100
  5
108
331
101
  5
109
331
102
  5
10A
331
103
  5
10B
331
104
  5
10C
331
105
  5
10D
331
106
  5
10E
331
107
  5
10F
331
108
  5
110
331
109
  5
111
331
10A
  5
112
331
10B
  5
113
331
10C
  5
114
331
10D
  5
115
331
10E
  5
116
331
10F
  5
117
331
110
  5
118
331
111
  5
119
331
112
  5
11A
331
113
  5
11B
331
114
  5
11C
331
115
  5
11D
331
116
  5
11E
331
117
  5
11F
331
118
  5
120
331
119
  5
121
331
11A
  5
122
331
11B
  5
123
331
11C
  5
124
331
11D
  5
125
331
11E
  5
126
331
11F
  5
127
331
120
  5
128
331
121
  5
129
331
122
  5
12A
331
123
  5
12B
331
124
  5
12C
331
125
  5
12D
331
126
  5
12E
331
127
  5
12F
331
128
  5
130
331
129
  5
131
331
12A
  5
132
331
12B
  5
133
331
12C
  5
134
331
12D
  5
135
331
12E
  5
136
331
12F
  5
137
331
130
  5
138
331
131
  5
139
331
132
  5
13A
331
133
  5
13B
331
134
  5
13C
331
135
  5
13D
331
136
  5
13E
331
137
  5
13F
331
138
  5
140
331
139
  5
141
331
13A
  5
142
331
13B
  5
143
331
13C
  5
144
331
13D
  5
145
331
13E
  5
146
331
13F
  5
147
331
140
  5
148
331
141
  5
149
331
142
  5
14A
331
143
  5
14B
331
144
  5
14C
331
145
  5
14D
331
146
  5
14E
331
147
  5
14F
331
148
  5
150
331
149
  5
151
331
14A
  5
152
331
14B
  5
154
331
14C
  5
155
331
14D
  5
156
331
14E
  5
157
331
14F
  5
158
331
150
  5
159
331
151
  5
15A
331
152
  5
15B
331
154
  5
15C
331
155
  5
15D
331
156
  5
15E
331
157
  5
15F
331
158
  5
160
331
159
  5
161
331
15A
  5
162
331
15B
  5
163
331
15C
  5
8F
331
15D
  5
164
331
15E
  5
165
331
15F
  5
90
331
160
  5
166
331
161
  5
167
331
162
  5
168
331
163
  5
169
331
164
  5
91
331
165
  5
92
331
166
  5
93
331
167
  5
94
331
168
  5
95
331
169
  5
96
  0
GROUP
  5
83
102
{ACAD_REACTORS
330
D
102
}
330
D
100
AcDbGroup
300

 70
     0
 71
     1
340
84
340
85
  0
GROUP
  5
153
102
{ACAD_REACTORS
330
D
102
}
330
D
100
AcDbGroup
300

 70
     0
 71
     1
340
154
340
155
340
156
340
157
340
158
340
159
340
15A
340
15B
340
15C
  0
LAYOUT
  5
6F
102
{ACAD_REACTORS
330
1A
102
}
330
1A
100
AcDbPlotSettings
  1

  2
none_device
  4
none_user_media
  6

 40
0.0
 41
0.0
 42
0.0
 43
0.0
 44
297.0
 45
209.9
 46
0.0
 47
0.0
 48
0.0
 49
0.0
140
0.0
141
0.0
142
1000.0
143
1.0
 70
   688
 72
     1
 73
     1
 74
     5
  7

 75
    33
 76
     0
 77
     2
 78
   300
147
1000.0
148
0.0
149
0.0
100
AcDbLayout
  1
K20 Klammersystem vertikal 10
 70
     0
 71
     1
 10
-0.0001
 20
-0.0001
 11
0.2101
 21
0.2971
 12
0.0
 22
0.0
 32
0.0
 14
-0.0001
 24
-0.0001
 34
0.0
 15
0.2101
 25
0.2971
 35
0.0
146
0.0
 13
0.0
 23
0.0
 33
0.0
 16
1.0
 26
0.0
 36
0.0
 17
0.0
 27
1.0
 37
0.0
 76
     0
330
6E
331
72
  0
LAYOUT
  5
22
102
{ACAD_REACTORS
330
1A
102
}
330
1A
100
AcDbPlotSettings
  1

  2
none_device
  4
Letter_(8.50_x_11.00_Inches)
  6

 40
6.35
 41
6.35
 42
6.350005
 43
6.350005
 44
215.9
 45
279.4
 46
0.0
 47
0.0
 48
0.0
 49
0.0
140
0.0
141
0.0
142
1.0
143
1.0
 70
  1712
 72
     0
 73
     0
 74
     0
  7

 75
     0
 76
     0
 77
     2
 78
   300
147
1.0
148
0.0
149
0.0
100
AcDbLayout
  1
Model
 70
     1
 71
     0
 10
9.469645
 20
-0.608434
 11
10.519645
 21
0.876566
 12
0.0
 22
0.0
 32
0.0
 14
9.469645
 24
-0.608434
 34
9.469645
 15
10.519645
 25
0.876566
 35
10.519645
146
0.0
 13
0.0
 23
0.0
 33
0.0
 16
1.0
 26
0.0
 36
0.0
 17
0.0
 27
1.0
 37
0.0
 76
     0
330
1F
331
29
  0
MATERIAL
  5
45
102
{ACAD_REACTORS
330
43
102
}
330
43
100
AcDbMaterial
  1
ByBlock
 72
     1
 94
      127
  0
MATERIAL
  5
44
102
{ACAD_REACTORS
330
43
102
}
330
43
100
AcDbMaterial
  1
ByLayer
 72
     1
 94
      127
  0
MATERIAL
  5
46
102
{ACAD_REACTORS
330
43
102
}
330
43
100
AcDbMaterial
  1
Global
 72
     1
 94
      127
  0
MLEADERSTYLE
  5
6C
102
{ACAD_REACTORS
330
6B
102
}
330
6B
100
AcDbMLeaderStyle
179
     2
170
     2
171
     1
172
     0
 90
        2
 40
0.0
 41
0.0
173
     1
 91
-1056964608
340
14
 92
       -2
290
     1
 42
0.09
291
     1
 43
0.36
  3
Standard
341
0
 44
0.18
300

342
11
174
     1
178
     6
175
     1
176
     0
 93
-1056964608
 45
0.18
292
     0
297
     0
 46
0.18
343
0
 94
-1056964608
 47
1.0
 49
1.0
140
1.0
293
     1
141
0.0
294
     1
177
     0
142
1.0
295
     0
296
     0
143
0.125
271
     0
272
     9
273
     9
  0
MLINESTYLE
  5
18
102
{ACAD_REACTORS
330
17
102
}
330
17
100
AcDbMlineStyle
  2
Standard
 70
     0
  3

 62
   256
 51
90.0
 52
90.0
 71
     2
 49
0.5
 62
   256
  6
BYLAYER
 49
-0.5
 62
   256
  6
BYLAYER
  0
ACDBPLACEHOLDER
  5
F
102
{ACAD_REACTORS
330
E
102
}
330
E
  0
SCALE
  5
48
102
{ACAD_REACTORS
330
47
102
}
330
47
100
AcDbScale
 70
     0
300
1:1
140
1.0
141
1.0
290
     1
  0
SCALE
  5
49
102
{ACAD_REACTORS
330
47
102
}
330
47
100
AcDbScale
 70
     0
300
1:2
140
1.0
141
2.0
290
     0
  0
SCALE
  5
4A
102
{ACAD_REACTORS
330
47
102
}
330
47
100
AcDbScale
 70
     0
300
1:4
140
1.0
141
4.0
290
     0
  0
SCALE
  5
4B
102
{ACAD_REACTORS
330
47
102
}
330
47
100
AcDbScale
 70
     0
300
1:5
140
1.0
141
5.0
290
     0
  0
SCALE
  5
4C
102
{ACAD_REACTORS
330
47
102
}
330
47
100
AcDbScale
 70
     0
300
1:8
140
1.0
141
8.0
290
     0
  0
SCALE
  5
4D
102
{ACAD_REACTORS
330
47
102
}
330
47
100
AcDbScale
 70
     0
300
1:10
140
1.0
141
10.0
290
     0
  0
SCALE
  5
4E
102
{ACAD_REACTORS
330
47
102
}
330
47
100
AcDbScale
 70
     0
300
1:16
140
1.0
141
16.0
290
     0
  0
SCALE
  5
4F
102
{ACAD_REACTORS
330
47
102
}
330
47
100
AcDbScale
 70
     0
300
1:20
140
1.0
141
20.0
290
     0
  0
SCALE
  5
50
102
{ACAD_REACTORS
330
47
102
}
330
47
100
AcDbScale
 70
     0
300
1:30
140
1.0
141
30.0
290
     0
  0
SCALE
  5
51
102
{ACAD_REACTORS
330
47
102
}
330
47
100
AcDbScale
 70
     0
300
1:40
140
1.0
141
40.0
290
     0
  0
SCALE
  5
52
102
{ACAD_REACTORS
330
47
102
}
330
47
100
AcDbScale
 70
     0
300
1:50
140
1.0
141
50.0
290
     0
  0
SCALE
  5
53
102
{ACAD_REACTORS
330
47
102
}
330
47
100
AcDbScale
 70
     0
300
1:100
140
1.0
141
100.0
290
     0
  0
SCALE
  5
54
102
{ACAD_REACTORS
330
47
102
}
330
47
100
AcDbScale
 70
     0
300
2:1
140
2.0
141
1.0
290
     0
  0
SCALE
  5
55
102
{ACAD_REACTORS
330
47
102
}
330
47
100
AcDbScale
 70
     0
300
4:1
140
4.0
141
1.0
290
     0
  0
SCALE
  5
56
102
{ACAD_REACTORS
330
47
102
}
330
47
100
AcDbScale
 70
     0
300
8:1
140
8.0
141
1.0
290
     0
  0
SCALE
  5
57
102
{ACAD_REACTORS
330
47
102
}
330
47
100
AcDbScale
 70
     0
300
10:1
140
10.0
141
1.0
290
     0
  0
SCALE
  5
58
102
{ACAD_REACTORS
330
47
102
}
330
47
100
AcDbScale
 70
     0
300
100:1
140
100.0
141
1.0
290
     0
  0
SCALE
  5
59
102
{ACAD_REACTORS
330
47
102
}
330
47
100
AcDbScale
 70
     0
300
1/128" = 1'-0"
140
0.007812
141
12.0
290
     0
  0
SCALE
  5
5A
102
{ACAD_REACTORS
330
47
102
}
330
47
100
AcDbScale
 70
     0
300
1/64" = 1'-0"
140
0.015625
141
12.0
290
     0
  0
SCALE
  5
5B
102
{ACAD_REACTORS
330
47
102
}
330
47
100
AcDbScale
 70
     0
300
1/32" = 1'-0"
140
0.03125
141
12.0
290
     0
  0
SCALE
  5
5C
102
{ACAD_REACTORS
330
47
102
}
330
47
100
AcDbScale
 70
     0
300
1/16" = 1'-0"
140
0.0625
141
12.0
290
     0
  0
SCALE
  5
5D
102
{ACAD_REACTORS
330
47
102
}
330
47
100
AcDbScale
 70
     0
300
3/32" = 1'-0"
140
0.09375
141
12.0
290
     0
  0
SCALE
  5
5E
102
{ACAD_REACTORS
330
47
102
}
330
47
100
AcDbScale
 70
     0
300
1/8" = 1'-0"
140
0.125
141
12.0
290
     0
  0
SCALE
  5
5F
102
{ACAD_REACTORS
330
47
102
}
330
47
100
AcDbScale
 70
     0
300
3/16" = 1'-0"
140
0.1875
141
12.0
290
     0
  0
SCALE
  5
60
102
{ACAD_REACTORS
330
47
102
}
330
47
100
AcDbScale
 70
     0
300
1/4" = 1'-0"
140
0.25
141
12.0
290
     0
  0
SCALE
  5
61
102
{ACAD_REACTORS
330
47
102
}
330
47
100
AcDbScale
 70
     0
300
3/8" = 1'-0"
140
0.375
141
12.0
290
     0
  0
SCALE
  5
62
102
{ACAD_REACTORS
330
47
102
}
330
47
100
AcDbScale
 70
     0
300
1/2" = 1'-0"
140
0.5
141
12.0
290
     0
  0
SCALE
  5
63
102
{ACAD_REACTORS
330
47
102
}
330
47
100
AcDbScale
 70
     0
300
3/4" = 1'-0"
140
0.75
141
12.0
290
     0
  0
SCALE
  5
64
102
{ACAD_REACTORS
330
47
102
}
330
47
100
AcDbScale
 70
     0
300
1" = 1'-0"
140
1.0
141
12.0
290
     0
  0
SCALE
  5
65
102
{ACAD_REACTORS
330
47
102
}
330
47
100
AcDbScale
 70
     0
300
1-1/2" = 1'-0"
140
1.5
141
12.0
290
     0
  0
SCALE
  5
66
102
{ACAD_REACTORS
330
47
102
}
330
47
100
AcDbScale
 70
     0
300
3" = 1'-0"
140
3.0
141
12.0
290
     0
  0
SCALE
  5
67
102
{ACAD_REACTORS
330
47
102
}
330
47
100
AcDbScale
 70
     0
300
6" = 1'-0"
140
6.0
141
12.0
290
     0
  0
SCALE
  5
68
102
{ACAD_REACTORS
330
47
102
}
330
47
100
AcDbScale
 70
     0
300
1'-0" = 1'-0"
140
12.0
141
12.0
290
     0
  0
TABLESTYLE
  5
6A
102
{ACAD_REACTORS
330
69
102
}
102
{ACAD_XDICTIONARY
360
1AC
102
}
330
69
100
AcDbTableStyle
  3
Standard
 70
     0
 71
     0
 40
0.06
 41
0.06
280
     0
281
     0
  7
Standard
140
0.18
170
     2
 62
     0
 63
   257
283
     0
 90
        4
 91
        0
  1

274
    -2
284
     1
 64
     0
275
    -2
285
     1
 65
     0
276
    -2
286
     1
 66
     0
277
    -2
287
     1
 67
     0
278
    -2
288
     1
 68
     0
279
    -2
289
     1
 69
     0
  7
Standard
140
0.25
170
     5
 62
     0
 63
   257
283
     0
 90
        4
 91
        0
  1

274
    -2
284
     1
 64
     0
275
    -2
285
     1
 65
     0
276
    -2
286
     1
 66
     0
277
    -2
287
     1
 67
     0
278
    -2
288
     1
 68
     0
279
    -2
289
     1
 69
     0
  7
Standard
140
0.18
170
     5
 62
     0
 63
   257
283
     0
 90
        4
 91
        0
  1

274
    -2
284
     1
 64
     0
275
    -2
285
     1
 65
     0
276
    -2
286
     1
 66
     0
277
    -2
287
     1
 67
     0
278
    -2
288
     1
 68
     0
279
    -2
289
     1
 69
     0
  0
VISUALSTYLE
  5
2F
102
{ACAD_REACTORS
330
2A
102
}
102
{ACAD_XDICTIONARY
360
184
102
}
330
2A
100
AcDbVisualStyle
  2
2dWireframe
 70
     4
177
     2
291
     0
 71
     0
176
     1
 72
     2
176
     1
 73
     0
176
     1
 90
        0
176
     1
 40
0.6
176
     1
 41
30.0
176
     1
 62
     5
 63
     7
421
 16777215
176
     1
 74
     1
176
     1
 91
        4
176
     1
 64
     7
176
     1
 65
   257
176
     1
 75
     1
176
     1
175
     1
176
     1
 42
1.0
176
     1
 92
        0
176
     1
 66
   257
176
     1
 43
1.0
176
     1
 76
     1
176
     1
 77
     6
176
     1
 78
     2
176
     1
 67
     7
176
     1
 79
     5
176
     1
170
     0
176
     1
171
     0
176
     1
290
     0
176
     1
 93
        1
176
     1
 44
0.0
176
     1
173
     0
176
     1
  0
VISUALSTYLE
  5
32
102
{ACAD_REACTORS
330
2A
102
}
102
{ACAD_XDICTIONARY
360
18A
102
}
330
2A
100
AcDbVisualStyle
  2
Basic
 70
     7
177
     2
291
     1
 71
     1
176
     1
 72
     0
176
     1
 73
     1
176
     1
 90
        0
176
     1
 40
0.6
176
     1
 41
30.0
176
     1
 62
     5
 63
     7
421
 16777215
176
     1
 74
     0
176
     1
 91
        4
176
     1
 64
     7
176
     1
 65
   257
176
     1
 75
     1
176
     1
175
     1
176
     1
 42
1.0
176
     1
 92
        8
176
     1
 66
     7
176
     1
 43
1.0
176
     1
 76
     1
176
     1
 77
     6
176
     1
 78
     2
176
     1
 67
     7
176
     1
 79
     5
176
     1
170
     0
176
     1
171
     0
176
     1
290
     0
176
     1
 93
        1
176
     1
 44
0.0
176
     1
173
     0
176
     1
  0
VISUALSTYLE
  5
36
102
{ACAD_REACTORS
330
2A
102
}
102
{ACAD_XDICTIONARY
360
192
102
}
330
2A
100
AcDbVisualStyle
  2
Brighten
 70
    12
177
     2
291
     1
 71
     2
176
     1
 72
     2
176
     1
 73
     0
176
     1
 90
        0
176
     1
 40
0.6
176
     1
 41
30.0
176
     1
 62
     5
 63
     7
421
 16777215
176
     1
 74
     1
176
     1
 91
        4
176
     1
 64
     7
176
     1
 65
   257
176
     1
 75
     1
176
     1
175
     1
176
     1
 42
1.0
176
     1
 92
        8
176
     1
 66
     7
176
     1
 43
1.0
176
     1
 76
     1
176
     1
 77
     6
176
     1
 78
     2
176
     1
 67
     7
176
     1
 79
     5
176
     1
170
     0
176
     1
171
     0
176
     1
290
     0
176
     1
 93
        1
176
     1
 44
50.0
176
     1
173
     0
176
     1
  0
VISUALSTYLE
  5
3A
102
{ACAD_REACTORS
330
2A
102
}
102
{ACAD_XDICTIONARY
360
19A
102
}
330
2A
100
AcDbVisualStyle
  2
ColorChange
 70
    16
177
     2
291
     1
 71
     2
176
     1
 72
     2
176
     1
 73
     3
176
     1
 90
        0
176
     1
 40
0.6
176
     1
 41
30.0
176
     1
 62
     5
 63
     8
421
  8421504
176
     1
 74
     1
176
     1
 91
        4
176
     1
 64
     7
176
     1
 65
   257
176
     1
 75
     1
176
     1
175
     1
176
     1
 42
1.0
176
     1
 92
        8
176
     1
 66
     8
424
  8421504
176
     1
 43
1.0
176
     1
 76
     1
176
     1
 77
     6
176
     1
 78
     2
176
     1
 67
     7
176
     1
 79
     5
176
     1
170
     0
176
     1
171
     0
176
     1
290
     0
176
     1
 93
        1
176
     1
 44
0.0
176
     1
173
     0
176
     1
  0
VISUALSTYLE
  5
34
102
{ACAD_REACTORS
330
2A
102
}
102
{ACAD_XDICTIONARY
360
18E
102
}
330
2A
100
AcDbVisualStyle
  2
Conceptual
 70
     9
177
     2
291
     0
 71
     3
176
     1
 72
     2
176
     1
 73
     0
176
     1
 90
        0
176
     1
 40
0.6
176
     1
 41
30.0
176
     1
 62
     5
 63
     7
421
 16777215
176
     1
 74
     2
176
     1
 91
        2
176
     1
 64
     7
176
     1
 65
   257
176
     1
 75
     1
176
     1
175
     1
176
     1
 42
179.0
176
     1
 92
        8
176
     1
 66
     7
176
     1
 43
1.0
176
     1
 76
     1
176
     1
 77
     6
176
     1
 78
     2
176
     1
 67
     7
176
     1
 79
     3
176
     1
170
     0
176
     1
171
     0
176
     1
290
     0
176
     1
 93
        1
176
     1
 44
0.0
176
     1
173
     0
176
     1
  0
VISUALSTYLE
  5
35
102
{ACAD_REACTORS
330
2A
102
}
102
{ACAD_XDICTIONARY
360
190
102
}
330
2A
100
AcDbVisualStyle
  2
Dim
 70
    11
177
     2
291
     1
 71
     2
176
     1
 72
     2
176
     1
 73
     0
176
     1
 90
        0
176
     1
 40
0.6
176
     1
 41
30.0
176
     1
 62
     5
 63
     7
421
 16777215
176
     1
 74
     1
176
     1
 91
        4
176
     1
 64
     7
176
     1
 65
   257
176
     1
 75
     1
176
     1
175
     1
176
     1
 42
1.0
176
     1
 92
        8
176
     1
 66
     7
176
     1
 43
1.0
176
     1
 76
     1
176
     1
 77
     6
176
     1
 78
     2
176
     1
 67
     7
176
     1
 79
     5
176
     1
170
     0
176
     1
171
     0
176
     1
290
     0
176
     1
 93
        1
176
     1
 44
-50.0
176
     1
173
     0
176
     1
  0
VISUALSTYLE
  5
3D
102
{ACAD_REACTORS
330
2A
102
}
102
{ACAD_XDICTIONARY
360
1A0
102
}
330
2A
100
AcDbVisualStyle
  2
EdgeColorOff
 70
    22
177
     2
291
     1
 71
     2
176
     0
 72
     2
176
     0
 73
     0
176
     0
 90
        0
176
     0
 40
0.6
176
     0
 41
30.0
176
     0
 62
     5
 63
     7
421
 16777215
176
     0
 74
     1
176
     0
 91
        4
176
     0
 64
     7
176
     0
 65
   257
176
     0
 75
     1
176
     0
175
     1
176
     0
 42
1.0
176
     0
 92
        8
176
     2
 66
     7
176
     0
 43
1.0
176
     0
 76
     1
176
     0
 77
     6
176
     0
 78
     2
176
     0
 67
     7
176
     0
 79
     5
176
     0
170
     0
176
     0
171
     0
176
     0
290
     0
176
     0
 93
        1
176
     0
 44
0.0
176
     0
173
     0
176
     0
  0
VISUALSTYLE
  5
39
102
{ACAD_REACTORS
330
2A
102
}
102
{ACAD_XDICTIONARY
360
198
102
}
330
2A
100
AcDbVisualStyle
  2
Facepattern
 70
    15
177
     2
291
     1
 71
     2
176
     1
 72
     2
176
     1
 73
     0
176
     1
 90
        0
176
     1
 40
0.6
176
     1
 41
30.0
176
     1
 62
     5
 63
     7
421
 16777215
176
     1
 74
     1
176
     1
 91
        4
176
     1
 64
     7
176
     1
 65
   257
176
     1
 75
     1
176
     1
175
     1
176
     1
 42
1.0
176
     1
 92
        8
176
     1
 66
     7
176
     1
 43
1.0
176
     1
 76
     1
176
     1
 77
     6
176
     1
 78
     2
176
     1
 67
     7
176
     1
 79
     5
176
     1
170
     0
176
     1
171
     0
176
     1
290
     0
176
     1
 93
        1
176
     1
 44
0.0
176
     1
173
     0
176
     1
  0
VISUALSTYLE
  5
2B
102
{ACAD_REACTORS
330
2A
102
}
102
{ACAD_XDICTIONARY
360
17C
102
}
330
2A
100
AcDbVisualStyle
  2
Flat
 70
     0
177
     2
291
     1
 71
     2
176
     1
 72
     1
176
     1
 73
     1
176
     1
 90
        2
176
     1
 40
0.6
176
     1
 41
30.0
176
     1
 62
     5
 63
     7
421
 16777215
176
     1
 74
     0
176
     1
 91
        0
176
     1
 64
     7
176
     1
 65
   257
176
     1
 75
     1
176
     1
175
     1
176
     1
 42
1.0
176
     1
 92
        8
176
     1
 66
     7
176
     1
 43
1.0
176
     1
 76
     1
176
     1
 77
     6
176
     1
 78
     2
176
     1
 67
     7
176
     1
 79
     5
176
     1
170
     0
176
     1
171
     0
176
     1
290
     0
176
     1
 93
       13
176
     1
 44
0.0
176
     1
173
     0
176
     1
  0
VISUALSTYLE
  5
2C
102
{ACAD_REACTORS
330
2A
102
}
102
{ACAD_XDICTIONARY
360
17E
102
}
330
2A
100
AcDbVisualStyle
  2
FlatWithEdges
 70
     1
177
     2
291
     1
 71
     2
176
     1
 72
     1
176
     1
 73
     1
176
     1
 90
        2
176
     1
 40
0.6
176
     1
 41
30.0
176
     1
 62
     5
 63
     7
421
 16777215
176
     1
 74
     1
176
     1
 91
        0
176
     1
 64
     7
176
     1
 65
   257
176
     1
 75
     1
176
     1
175
     1
176
     1
 42
1.0
176
     1
 92
        0
176
     1
 66
   257
176
     1
 43
1.0
176
     1
 76
     1
176
     1
 77
     6
176
     1
 78
     2
176
     1
 67
     7
176
     1
 79
     5
176
     1
170
     0
176
     1
171
     0
176
     1
290
     0
176
     1
 93
       13
176
     1
 44
0.0
176
     1
173
     0
176
     1
  0
VISUALSTYLE
  5
2D
102
{ACAD_REACTORS
330
2A
102
}
102
{ACAD_XDICTIONARY
360
180
102
}
330
2A
100
AcDbVisualStyle
  2
Gouraud
 70
     2
177
     2
291
     1
 71
     2
176
     1
 72
     2
176
     1
 73
     1
176
     1
 90
        2
176
     1
 40
0.6
176
     1
 41
30.0
176
     1
 62
     5
 63
     7
421
 16777215
176
     1
 74
     0
176
     1
 91
        0
176
     1
 64
     7
176
     1
 65
   257
176
     1
 75
     1
176
     1
175
     1
176
     1
 42
1.0
176
     1
 92
        0
176
     1
 66
     7
176
     1
 43
1.0
176
     1
 76
     1
176
     1
 77
     6
176
     1
 78
     2
176
     1
 67
     7
176
     1
 79
     5
176
     1
170
     0
176
     1
171
     0
176
     1
290
     0
176
     1
 93
       13
176
     1
 44
0.0
176
     1
173
     0
176
     1
  0
VISUALSTYLE
  5
2E
102
{ACAD_REACTORS
330
2A
102
}
102
{ACAD_XDICTIONARY
360
182
102
}
330
2A
100
AcDbVisualStyle
  2
GouraudWithEdges
 70
     3
177
     2
291
     1
 71
     2
176
     1
 72
     2
176
     1
 73
     1
176
     1
 90
        2
176
     1
 40
0.6
176
     1
 41
30.0
176
     1
 62
     5
 63
     7
421
 16777215
176
     1
 74
     1
176
     1
 91
        0
176
     1
 64
     7
176
     1
 65
   257
176
     1
 75
     1
176
     1
175
     1
176
     1
 42
1.0
176
     1
 92
        0
176
     1
 66
   257
176
     1
 43
1.0
176
     1
 76
     1
176
     1
 77
     6
176
     1
 78
     2
176
     1
 67
     7
176
     1
 79
     5
176
     1
170
     0
176
     1
171
     0
176
     1
290
     0
176
     1
 93
       13
176
     1
 44
0.0
176
     1
173
     0
176
     1
  0
VISUALSTYLE
  5
31
102
{ACAD_REACTORS
330
2A
102
}
102
{ACAD_XDICTIONARY
360
188
102
}
330
2A
100
AcDbVisualStyle
  2
Hidden
 70
     6
177
     2
291
     0
 71
     1
176
     1
 72
     2
176
     1
 73
     2
176
     1
 90
        0
176
     1
 40
0.6
176
     1
 41
30.0
176
     1
 62
     5
 63
     7
421
 16777215
176
     1
 74
     2
176
     1
 91
        2
176
     1
 64
     7
176
     1
 65
   257
176
     1
 75
     2
176
     1
175
     1
176
     1
 42
40.0
176
     1
 92
        0
176
     1
 66
   257
176
     1
 43
1.0
176
     1
 76
     1
176
     1
 77
     6
176
     1
 78
     2
176
     1
 67
     7
176
     1
 79
     3
176
     1
170
     0
176
     1
171
     0
176
     1
290
     0
176
     1
 93
        1
176
     1
 44
0.0
176
     1
173
     0
176
     1
  0
VISUALSTYLE
  5
3B
102
{ACAD_REACTORS
330
2A
102
}
102
{ACAD_XDICTIONARY
360
19C
102
}
330
2A
100
AcDbVisualStyle
  2
JitterOff
 70
    20
177
     2
291
     1
 71
     2
176
     0
 72
     2
176
     0
 73
     0
176
     0
 90
        0
176
     0
 40
0.6
176
     0
 41
30.0
176
     0
 62
     5
 63
     7
421
 16777215
176
     0
 74
     1
176
     0
 91
        4
176
     0
 64
     7
176
     0
 65
   257
176
     0
 75
     1
176
     0
175
     1
176
     0
 42
1.0
176
     0
 92
       10
176
     2
 66
     7
176
     0
 43
1.0
176
     0
 76
     1
176
     0
 77
     6
176
     0
 78
     2
176
     0
 67
     7
176
     0
 79
     5
176
     0
170
     0
176
     0
171
     0
176
     0
290
     0
176
     0
 93
        1
176
     0
 44
0.0
176
     0
173
     0
176
     0
  0
VISUALSTYLE
  5
38
102
{ACAD_REACTORS
330
2A
102
}
102
{ACAD_XDICTIONARY
360
196
102
}
330
2A
100
AcDbVisualStyle
  2
Linepattern
 70
    14
177
     2
291
     1
 71
     2
176
     1
 72
     2
176
     1
 73
     0
176
     1
 90
        0
176
     1
 40
0.6
176
     1
 41
30.0
176
     1
 62
     5
 63
     7
421
 16777215
176
     1
 74
     1
176
     1
 91
        4
176
     1
 64
     7
176
     1
 65
   257
176
     1
 75
     7
176
     1
175
     7
176
     1
 42
1.0
176
     1
 92
        8
176
     1
 66
     7
176
     1
 43
1.0
176
     1
 76
     1
176
     1
 77
     6
176
     1
 78
     2
176
     1
 67
     7
176
     1
 79
     5
176
     1
170
     0
176
     1
171
     0
176
     1
290
     0
176
     1
 93
        1
176
     1
 44
0.0
176
     1
173
     0
176
     1
  0
VISUALSTYLE
  5
3C
102
{ACAD_REACTORS
330
2A
102
}
102
{ACAD_XDICTIONARY
360
19E
102
}
330
2A
100
AcDbVisualStyle
  2
OverhangOff
 70
    21
177
     2
291
     1
 71
     2
176
     0
 72
     2
176
     0
 73
     0
176
     0
 90
        0
176
     0
 40
0.6
176
     0
 41
30.0
176
     0
 62
     5
 63
     7
421
 16777215
176
     0
 74
     1
176
     0
 91
        4
176
     0
 64
     7
176
     0
 65
   257
176
     0
 75
     1
176
     0
175
     1
176
     0
 42
1.0
176
     0
 92
        9
176
     2
 66
     7
176
     0
 43
1.0
176
     0
 76
     1
176
     0
 77
     6
176
     0
 78
     2
176
     0
 67
     7
176
     0
 79
     5
176
     0
170
     0
176
     0
171
     0
176
     0
290
     0
176
     0
 93
        1
176
     0
 44
0.0
176
     0
173
     0
176
     0
  0
VISUALSTYLE
  5
33
102
{ACAD_REACTORS
330
2A
102
}
102
{ACAD_XDICTIONARY
360
18C
102
}
330
2A
100
AcDbVisualStyle
  2
Realistic
 70
     8
177
     2
291
     0
 71
     2
176
     1
 72
     3
176
     1
 73
     0
176
     1
 90
        2
176
     1
 40
0.6
176
     1
 41
30.0
176
     1
 62
     5
 63
     7
421
 16777215
176
     1
 74
     0
176
     1
 91
        0
176
     1
 64
     7
176
     1
 65
   257
176
     1
 75
     1
176
     1
175
     1
176
     1
 42
1.0
176
     1
 92
        8
176
     1
 66
   257
176
     1
 43
1.0
176
     1
 76
     1
176
     1
 77
     6
176
     1
 78
     2
176
     1
 67
     7
176
     1
 79
     3
176
     1
170
     0
176
     1
171
     0
176
     1
290
     0
176
     1
 93
       13
176
     1
 44
0.0
176
     1
173
     0
176
     1
  0
VISUALSTYLE
  5
42
102
{ACAD_REACTORS
330
2A
102
}
102
{ACAD_XDICTIONARY
360
1AA
102
}
330
2A
100
AcDbVisualStyle
  2
Shaded
 70
    27
177
     2
291
     0
 71
     2
176
     1
 72
     2
176
     1
 73
     1
176
     1
 90
        2
176
     1
 40
0.6
176
     1
 41
30.0
176
     1
 62
     5
 63
     7
421
 16777215
176
     1
 74
     0
176
     1
 91
        4
176
     1
 64
     7
176
     1
 65
   257
176
     1
 75
     1
176
     1
175
     1
176
     1
 42
1.0
176
     1
 92
        8
176
     1
 66
   257
176
     1
 43
1.0
176
     1
 76
     1
176
     1
 77
     6
176
     1
 78
     2
176
     1
 67
     8
425
  7895160
176
     1
 79
     3
176
     1
170
     0
176
     1
171
     0
176
     1
290
     0
176
     1
 93
        5
176
     1
 44
0.0
176
     1
173
     0
176
     1
  0
VISUALSTYLE
  5
41
102
{ACAD_REACTORS
330
2A
102
}
102
{ACAD_XDICTIONARY
360
1A8
102
}
330
2A
100
AcDbVisualStyle
  2
Shaded with edges
 70
    26
177
     2
291
     0
 71
     2
176
     1
 72
     2
176
     1
 73
     1
176
     1
 90
        2
176
     1
 40
0.6
176
     1
 41
30.0
176
     1
 62
     5
 63
     7
421
 16777215
176
     1
 74
     1
176
     1
 91
       10
176
     1
 64
     7
176
     1
 65
   257
176
     1
 75
     2
176
     1
175
     1
176
     1
 42
1.0
176
     1
 92
        8
176
     1
 66
   257
176
     1
 43
1.0
176
     1
 76
     1
176
     1
 77
     6
176
     1
 78
     2
176
     1
 67
     7
176
     1
 79
     3
176
     1
170
     0
176
     1
171
     0
176
     1
290
     0
176
     1
 93
        5
176
     1
 44
0.0
176
     1
173
     0
176
     1
  0
VISUALSTYLE
  5
3E
102
{ACAD_REACTORS
330
2A
102
}
102
{ACAD_XDICTIONARY
360
1A2
102
}
330
2A
100
AcDbVisualStyle
  2
Shades of Gray
 70
    23
177
     2
291
     0
 71
     2
176
     1
 72
     2
176
     1
 73
     3
176
     1
 90
        0
176
     1
 40
0.6
176
     1
 41
30.0
176
     1
 62
     5
 63
     7
421
 16777215
176
     1
 74
     2
176
     1
 91
        2
176
     1
 64
     7
176
     1
 65
     7
176
     1
 75
     1
176
     1
175
     1
176
     1
 42
40.0
176
     1
 92
        8
176
     1
 66
     7
176
     1
 43
1.0
176
     1
 76
     1
176
     1
 77
     6
176
     1
 78
     2
176
     1
 67
     7
176
     1
 79
     3
176
     1
170
     0
176
     1
171
     0
176
     1
290
     0
176
     1
 93
        1
176
     1
 44
0.0
176
     1
173
     0
176
     1
  0
VISUALSTYLE
  5
3F
102
{ACAD_REACTORS
330
2A
102
}
102
{ACAD_XDICTIONARY
360
1A4
102
}
330
2A
100
AcDbVisualStyle
  2
Sketchy
 70
    24
177
     2
291
     0
 71
     1
176
     1
 72
     2
176
     1
 73
     2
176
     1
 90
        0
176
     1
 40
0.6
176
     1
 41
30.0
176
     1
 62
     5
 63
     7
421
 16777215
176
     1
 74
     2
176
     1
 91
        2
176
     1
 64
     7
176
     1
 65
     7
176
     1
 75
     1
176
     1
175
     1
176
     1
 42
40.0
176
     1
 92
       11
176
     1
 66
     7
176
     1
 43
1.0
176
     1
 76
     1
176
     1
 77
     6
176
     1
 78
     2
176
     1
 67
     7
176
     1
 79
     6
176
     1
170
     0
176
     1
171
     0
176
     1
290
     0
176
     1
 93
        1
176
     1
 44
0.0
176
     1
173
     0
176
     1
  0
VISUALSTYLE
  5
37
102
{ACAD_REACTORS
330
2A
102
}
102
{ACAD_XDICTIONARY
360
194
102
}
330
2A
100
AcDbVisualStyle
  2
Thicken
 70
    13
177
     2
291
     1
 71
     2
176
     1
 72
     2
176
     1
 73
     0
176
     1
 90
        0
176
     1
 40
0.6
176
     1
 41
30.0
176
     1
 62
     5
 63
     7
421
 16777215
176
     1
 74
     1
176
     1
 91
        4
176
     1
 64
     7
176
     1
 65
   257
176
     1
 75
     1
176
     1
175
     1
176
     1
 42
1.0
176
     1
 92
       12
176
     1
 66
     7
176
     1
 43
1.0
176
     1
 76
     1
176
     1
 77
     6
176
     1
 78
     2
176
     1
 67
     7
176
     1
 79
     5
176
     1
170
     0
176
     1
171
     0
176
     1
290
     0
176
     1
 93
        1
176
     1
 44
0.0
176
     1
173
     0
176
     1
  0
VISUALSTYLE
  5
30
102
{ACAD_REACTORS
330
2A
102
}
102
{ACAD_XDICTIONARY
360
186
102
}
330
2A
100
AcDbVisualStyle
  2
Wireframe
 70
     5
177
     2
291
     0
 71
     0
176
     1
 72
     2
176
     1
 73
     0
176
     1
 90
        0
176
     1
 40
0.6
176
     1
 41
30.0
176
     1
 62
     5
 63
     7
421
 16777215
176
     1
 74
     1
176
     1
 91
        4
176
     1
 64
     7
176
     1
 65
   257
176
     1
 75
     1
176
     1
175
     1
176
     1
 42
1.0
176
     1
 92
        0
176
     1
 66
   257
176
     1
 43
1.0
176
     1
 76
     1
176
     1
 77
     6
176
     1
 78
     2
176
     1
 67
     7
176
     1
 79
     3
176
     1
170
     0
176
     1
171
     0
176
     1
290
     0
176
     1
 93
        1
176
     1
 44
0.0
176
     1
173
     0
176
     1
  0
VISUALSTYLE
  5
40
102
{ACAD_REACTORS
330
2A
102
}
102
{ACAD_XDICTIONARY
360
1A6
102
}
330
2A
100
AcDbVisualStyle
  2
X-Ray
 70
    25
177
     2
291
     0
 71
     2
176
     1
 72
     2
176
     1
 73
     1
176
     1
 90
        1
176
     1
 40
0.5
176
     1
 41
30.0
176
     1
 62
     5
 63
     7
421
 16777215
176
     1
 74
     1
176
     1
 91
        0
176
     1
 64
     7
176
     1
 65
   257
176
     1
 75
     1
176
     1
175
     1
176
     1
 42
1.0
176
     1
 92
        8
176
     1
 66
     7
176
     1
 43
1.0
176
     1
 76
     1
176
     1
 77
     6
176
     1
 78
     2
176
     1
 67
     7
176
     1
 79
     3
176
     1
170
     0
176
     1
171
     0
176
     1
290
     0
176
     1
 93
       13
176
     1
 44
0.0
176
     1
173
     0
176
     1
  0
DICTIONARYVAR
  5
17B
102
{ACAD_REACTORS
330
17A
102
}
330
17A
100
DictionaryVariables
280
     0
  1
1:1
  0
DICTIONARYVAR
  5
1B0
102
{ACAD_REACTORS
330
17A
102
}
330
17A
100
DictionaryVariables
280
     0
  1
Standard
  0
DICTIONARYVAR
  5
1AF
102
{ACAD_REACTORS
330
17A
102
}
330
17A
100
DictionaryVariables
280
     0
  1
Standard
  0
DICTIONARY
  5
1AC
330
6A
100
AcDbDictionary
280
     1
281
     1
  3
ACAD_ROUNDTRIP_2008_TABLESTYLE_CELLSTYLEMAP
360
1AD
  0
DICTIONARY
  5
184
330
2F
100
AcDbDictionary
280
     1
281
     1
  3
ACAD_XREC_ROUNDTRIP
360
185
  0
DICTIONARY
  5
18A
330
32
100
AcDbDictionary
280
     1
281
     1
  3
ACAD_XREC_ROUNDTRIP
360
18B
  0
DICTIONARY
  5
192
330
36
100
AcDbDictionary
280
     1
281
     1
  3
ACAD_XREC_ROUNDTRIP
360
193
  0
DICTIONARY
  5
19A
330
3A
100
AcDbDictionary
280
     1
281
     1
  3
ACAD_XREC_ROUNDTRIP
360
19B
  0
DICTIONARY
  5
18E
330
34
100
AcDbDictionary
280
     1
281
     1
  3
ACAD_XREC_ROUNDTRIP
360
18F
  0
DICTIONARY
  5
190
330
35
100
AcDbDictionary
280
     1
281
     1
  3
ACAD_XREC_ROUNDTRIP
360
191
  0
DICTIONARY
  5
1A0
330
3D
100
AcDbDictionary
280
     1
281
     1
  3
ACAD_XREC_ROUNDTRIP
360
1A1
  0
DICTIONARY
  5
198
330
39
100
AcDbDictionary
280
     1
281
     1
  3
ACAD_XREC_ROUNDTRIP
360
199
  0
DICTIONARY
  5
17C
330
2B
100
AcDbDictionary
280
     1
281
     1
  3
ACAD_XREC_ROUNDTRIP
360
17D
  0
DICTIONARY
  5
17E
330
2C
100
AcDbDictionary
280
     1
281
     1
  3
ACAD_XREC_ROUNDTRIP
360
17F
  0
DICTIONARY
  5
180
330
2D
100
AcDbDictionary
280
     1
281
     1
  3
ACAD_XREC_ROUNDTRIP
360
181
  0
DICTIONARY
  5
182
330
2E
100
AcDbDictionary
280
     1
281
     1
  3
ACAD_XREC_ROUNDTRIP
360
183
  0
DICTIONARY
  5
188
330
31
100
AcDbDictionary
280
     1
281
     1
  3
ACAD_XREC_ROUNDTRIP
360
189
  0
DICTIONARY
  5
19C
330
3B
100
AcDbDictionary
280
     1
281
     1
  3
ACAD_XREC_ROUNDTRIP
360
19D
  0
DICTIONARY
  5
196
330
38
100
AcDbDictionary
280
     1
281
     1
  3
ACAD_XREC_ROUNDTRIP
360
197
  0
DICTIONARY
  5
19E
330
3C
100
AcDbDictionary
280
     1
281
     1
  3
ACAD_XREC_ROUNDTRIP
360
19F
  0
DICTIONARY
  5
18C
330
33
100
AcDbDictionary
280
     1
281
     1
  3
ACAD_XREC_ROUNDTRIP
360
18D
  0
DICTIONARY
  5
1AA
330
42
100
AcDbDictionary
280
     1
281
     1
  3
ACAD_XREC_ROUNDTRIP
360
1AB
  0
DICTIONARY
  5
1A8
330
41
100
AcDbDictionary
280
     1
281
     1
  3
ACAD_XREC_ROUNDTRIP
360
1A9
  0
DICTIONARY
  5
1A2
330
3E
100
AcDbDictionary
280
     1
281
     1
  3
ACAD_XREC_ROUNDTRIP
360
1A3
  0
DICTIONARY
  5
1A4
330
3F
100
AcDbDictionary
280
     1
281
     1
  3
ACAD_XREC_ROUNDTRIP
360
1A5
  0
DICTIONARY
  5
194
330
37
100
AcDbDictionary
280
     1
281
     1
  3
ACAD_XREC_ROUNDTRIP
360
195
  0
DICTIONARY
  5
186
330
30
100
AcDbDictionary
280
     1
281
     1
  3
ACAD_XREC_ROUNDTRIP
360
187
  0
DICTIONARY
  5
1A6
330
40
100
AcDbDictionary
280
     1
281
     1
  3
ACAD_XREC_ROUNDTRIP
360
1A7
  0
CELLSTYLEMAP
  5
1AD
102
{ACAD_REACTORS
330
1AC
102
}
330
1AC
100
AcDbCellStyleMap
 90
        3
300
CELLSTYLE
  1
TABLEFORMAT_BEGIN
 90
        5
170
     1
 91
        0
 92
    32768
 62
   257
 93
        1
300
CONTENTFORMAT
  1
CONTENTFORMAT_BEGIN
 90
        0
 91
        0
 92
        4
 93
        0
300

 40
0.0
140
1.0
 94
        5
 62
     0
340
11
144
0.25
309
CONTENTFORMAT_END
171
     1
301
MARGIN
  1
CELLMARGIN_BEGIN
 40
0.06
 40
0.06
 40
0.06
 40
0.06
 40
0.06
 40
0.06
309
CELLMARGIN_END
 94
        6
 95
        1
302
GRIDFORMAT
  1
GRIDFORMAT_BEGIN
 90
        0
 91
        1
 62
     0
 92
       -2
340
14
 93
        0
 40
0.045
309
GRIDFORMAT_END
 95
        2
302
GRIDFORMAT
  1
GRIDFORMAT_BEGIN
 90
        0
 91
        1
 62
     0
 92
       -2
340
14
 93
        0
 40
0.045
309
GRIDFORMAT_END
 95
        4
302
GRIDFORMAT
  1
GRIDFORMAT_BEGIN
 90
        0
 91
        1
 62
     0
 92
       -2
340
14
 93
        0
 40
0.045
309
GRIDFORMAT_END
 95
        8
302
GRIDFORMAT
  1
GRIDFORMAT_BEGIN
 90
        0
 91
        1
 62
     0
 92
       -2
340
14
 93
        0
 40
0.045
309
GRIDFORMAT_END
 95
       16
302
GRIDFORMAT
  1
GRIDFORMAT_BEGIN
 90
        0
 91
        1
 62
     0
 92
       -2
340
14
 93
        0
 40
0.045
309
GRIDFORMAT_END
 95
       32
302
GRIDFORMAT
  1
GRIDFORMAT_BEGIN
 90
        0
 91
        1
 62
     0
 92
       -2
340
14
 93
        0
 40
0.045
309
GRIDFORMAT_END
309
TABLEFORMAT_END
  1
CELLSTYLE_BEGIN
 90
        1
 91
        1
300
_TITLE
309
CELLSTYLE_END
300
CELLSTYLE
  1
TABLEFORMAT_BEGIN
 90
        5
170
     1
 91
        0
 92
        0
 62
   257
 93
        1
300
CONTENTFORMAT
  1
CONTENTFORMAT_BEGIN
 90
        0
 91
        0
 92
        4
 93
        0
300

 40
0.0
140
1.0
 94
        5
 62
     0
340
11
144
0.18
309
CONTENTFORMAT_END
171
     1
301
MARGIN
  1
CELLMARGIN_BEGIN
 40
0.06
 40
0.06
 40
0.06
 40
0.06
 40
0.06
 40
0.06
309
CELLMARGIN_END
 94
        6
 95
        1
302
GRIDFORMAT
  1
GRIDFORMAT_BEGIN
 90
        0
 91
        1
 62
     0
 92
       -2
340
14
 93
        0
 40
0.045
309
GRIDFORMAT_END
 95
        2
302
GRIDFORMAT
  1
GRIDFORMAT_BEGIN
 90
        0
 91
        1
 62
     0
 92
       -2
340
14
 93
        0
 40
0.045
309
GRIDFORMAT_END
 95
        4
302
GRIDFORMAT
  1
GRIDFORMAT_BEGIN
 90
        0
 91
        1
 62
     0
 92
       -2
340
14
 93
        0
 40
0.045
309
GRIDFORMAT_END
 95
        8
302
GRIDFORMAT
  1
GRIDFORMAT_BEGIN
 90
        0
 91
        1
 62
     0
 92
       -2
340
14
 93
        0
 40
0.045
309
GRIDFORMAT_END
 95
       16
302
GRIDFORMAT
  1
GRIDFORMAT_BEGIN
 90
        0
 91
        1
 62
     0
 92
       -2
340
14
 93
        0
 40
0.045
309
GRIDFORMAT_END
 95
       32
302
GRIDFORMAT
  1
GRIDFORMAT_BEGIN
 90
        0
 91
        1
 62
     0
 92
       -2
340
14
 93
        0
 40
0.045
309
GRIDFORMAT_END
309
TABLEFORMAT_END
  1
CELLSTYLE_BEGIN
 90
        2
 91
        1
300
_HEADER
309
CELLSTYLE_END
300
CELLSTYLE
  1
TABLEFORMAT_BEGIN
 90
        5
170
     1
 91
        0
 92
        0
 62
   257
 93
        1
300
CONTENTFORMAT
  1
CONTENTFORMAT_BEGIN
 90
        0
 91
        0
 92
        4
 93
        0
300

 40
0.0
140
1.0
 94
        2
 62
     0
340
11
144
0.18
309
CONTENTFORMAT_END
171
     1
301
MARGIN
  1
CELLMARGIN_BEGIN
 40
0.06
 40
0.06
 40
0.06
 40
0.06
 40
0.06
 40
0.06
309
CELLMARGIN_END
 94
        6
 95
        1
302
GRIDFORMAT
  1
GRIDFORMAT_BEGIN
 90
        0
 91
        1
 62
     0
 92
       -2
340
14
 93
        0
 40
0.045
309
GRIDFORMAT_END
 95
        2
302
GRIDFORMAT
  1
GRIDFORMAT_BEGIN
 90
        0
 91
        1
 62
     0
 92
       -2
340
14
 93
        0
 40
0.045
309
GRIDFORMAT_END
 95
        4
302
GRIDFORMAT
  1
GRIDFORMAT_BEGIN
 90
        0
 91
        1
 62
     0
 92
       -2
340
14
 93
        0
 40
0.045
309
GRIDFORMAT_END
 95
        8
302
GRIDFORMAT
  1
GRIDFORMAT_BEGIN
 90
        0
 91
        1
 62
     0
 92
       -2
340
14
 93
        0
 40
0.045
309
GRIDFORMAT_END
 95
       16
302
GRIDFORMAT
  1
GRIDFORMAT_BEGIN
 90
        0
 91
        1
 62
     0
 92
       -2
340
14
 93
        0
 40
0.045
309
GRIDFORMAT_END
 95
       32
302
GRIDFORMAT
  1
GRIDFORMAT_BEGIN
 90
        0
 91
        1
 62
     0
 92
       -2
340
14
 93
        0
 40
0.045
309
GRIDFORMAT_END
309
TABLEFORMAT_END
  1
CELLSTYLE_BEGIN
 90
        3
 91
        2
300
_DATA
309
CELLSTYLE_END
  0
XRECORD
  5
185
102
{ACAD_REACTORS
330
184
102
}
330
184
100
AcDbXrecord
280
     1
102
RTVSPost2010Prop28
280
     1
102
RTVSPost2010PropOp28
 70
     1
102
RTVSPost2010Prop29
280
     1
102
RTVSPost2010PropOp29
 70
     1
102
RTVSPost2010Prop30
280
     0
102
RTVSPost2010PropOp30
 70
     1
102
RTVSPost2010Prop31
280
     0
102
RTVSPost2010PropOp31
 70
     1
102
RTVSPost2010Prop32
280
     0
102
RTVSPost2010PropOp32
 70
     1
102
RTVSPost2010Prop33
280
     0
102
RTVSPost2010PropOp33
 70
     1
102
RTVSPost2010Prop34
280
     0
102
RTVSPost2010PropOp34
 70
     1
102
RTVSPost2010Prop35
280
     0
102
RTVSPost2010PropOp35
 70
     1
102
RTVSPost2010Prop36
280
     0
102
RTVSPost2010PropOp36
 70
     1
102
RTVSPost2010Prop37
 90
       50
102
RTVSPost2010PropOp37
 70
     1
102
RTVSPost2010Prop38
140
0.0
102
RTVSPost2010PropOp38
 70
     1
102
RTVSPost2010Prop39
140
1.0
102
RTVSPost2010PropOp39
 70
     1
102
RTVSPost2010Prop40
 90
        0
102
RTVSPost2010PropOp40
 70
     1
102
RTVSPost2010Prop41ColorIndex
 90
       18
102
RTVSPost2010Prop41ColorRGB
 90
        0
102
RTVSPost2010PropOp41
 70
     1
102
RTVSPost2010Prop42
 90
       50
102
RTVSPost2010PropOp42
 70
     1
102
RTVSPost2010Prop43
 90
        3
102
RTVSPost2010PropOp43
 70
     1
102
RTVSPost2010Prop44ColorIndex
 90
        5
102
RTVSPost2010Prop44ColorRGB
 90
      255
102
RTVSPost2010PropOp44
 70
     1
102
RTVSPost2010Prop45
280
     0
102
RTVSPost2010PropOp45
 70
     1
102
RTVSPost2010Prop46
 90
       50
102
RTVSPost2010PropOp46
 70
     1
102
RTVSPost2010Prop47
 90
       50
102
RTVSPost2010PropOp47
 70
     1
102
RTVSPost2010Prop48
 90
       50
102
RTVSPost2010PropOp48
 70
     1
102
RTVSPost2010Prop49
280
     0
102
RTVSPost2010PropOp49
 70
     1
102
RTVSPost2010Prop50
 90
       50
102
RTVSPost2010PropOp50
 70
     1
102
RTVSPost2010Prop51ColorIndex
 90
      256
102
RTVSPost2010Prop51ColorRGB
 90
-16777216
102
RTVSPost2010PropOp51
 70
     0
102
RTVSPost2010Prop52
140
1.0
102
RTVSPost2010PropOp52
 70
     0
102
RTVSPost2010Prop53
 90
        2
102
RTVSPost2010PropOp53
 70
     1
102
RTVSPost2010Prop54
  1
strokes_ogs.tif
102
RTVSPost2010PropOp54
 70
     1
102
RTVSPost2010Prop55
280
     0
102
RTVSPost2010PropOp55
 70
     1
102
RTVSPost2010Prop56
140
1.0
102
RTVSPost2010PropOp56
 70
     1
102
RTVSPost2010Prop57
140
1.0
102
RTVSPost2010PropOp57
 70
     1
  0
XRECORD
  5
18B
102
{ACAD_REACTORS
330
18A
102
}
330
18A
100
AcDbXrecord
280
     1
102
RTVSPost2010Prop28
280
     0
102
RTVSPost2010PropOp28
 70
     1
102
RTVSPost2010Prop29
280
     1
102
RTVSPost2010PropOp29
 70
     1
102
RTVSPost2010Prop30
280
     1
102
RTVSPost2010PropOp30
 70
     1
102
RTVSPost2010Prop31
280
     0
102
RTVSPost2010PropOp31
 70
     1
102
RTVSPost2010Prop32
280
     0
102
RTVSPost2010PropOp32
 70
     1
102
RTVSPost2010Prop33
280
     0
102
RTVSPost2010PropOp33
 70
     1
102
RTVSPost2010Prop34
280
     0
102
RTVSPost2010PropOp34
 70
     1
102
RTVSPost2010Prop35
280
     0
102
RTVSPost2010PropOp35
 70
     1
102
RTVSPost2010Prop36
280
     0
102
RTVSPost2010PropOp36
 70
     1
102
RTVSPost2010Prop37
 90
       50
102
RTVSPost2010PropOp37
 70
     1
102
RTVSPost2010Prop38
140
0.0
102
RTVSPost2010PropOp38
 70
     1
102
RTVSPost2010Prop39
140
1.0
102
RTVSPost2010PropOp39
 70
     1
102
RTVSPost2010Prop40
 90
        0
102
RTVSPost2010PropOp40
 70
     1
102
RTVSPost2010Prop41ColorIndex
 90
       18
102
RTVSPost2010Prop41ColorRGB
 90
        0
102
RTVSPost2010PropOp41
 70
     1
102
RTVSPost2010Prop42
 90
       50
102
RTVSPost2010PropOp42
 70
     1
102
RTVSPost2010Prop43
 90
        3
102
RTVSPost2010PropOp43
 70
     1
102
RTVSPost2010Prop44ColorIndex
 90
        5
102
RTVSPost2010Prop44ColorRGB
 90
      255
102
RTVSPost2010PropOp44
 70
     1
102
RTVSPost2010Prop45
280
     0
102
RTVSPost2010PropOp45
 70
     1
102
RTVSPost2010Prop46
 90
       50
102
RTVSPost2010PropOp46
 70
     1
102
RTVSPost2010Prop47
 90
       50
102
RTVSPost2010PropOp47
 70
     1
102
RTVSPost2010Prop48
 90
       50
102
RTVSPost2010PropOp48
 70
     1
102
RTVSPost2010Prop49
280
     0
102
RTVSPost2010PropOp49
 70
     1
102
RTVSPost2010Prop50
 90
       50
102
RTVSPost2010PropOp50
 70
     1
102
RTVSPost2010Prop51ColorIndex
 90
      256
102
RTVSPost2010Prop51ColorRGB
 90
-16777216
102
RTVSPost2010PropOp51
 70
     0
102
RTVSPost2010Prop52
140
1.0
102
RTVSPost2010PropOp52
 70
     0
102
RTVSPost2010Prop53
 90
        2
102
RTVSPost2010PropOp53
 70
     1
102
RTVSPost2010Prop54
  1
strokes_ogs.tif
102
RTVSPost2010PropOp54
 70
     1
102
RTVSPost2010Prop55
280
     0
102
RTVSPost2010PropOp55
 70
     1
102
RTVSPost2010Prop56
140
1.0
102
RTVSPost2010PropOp56
 70
     1
102
RTVSPost2010Prop57
140
1.0
102
RTVSPost2010PropOp57
 70
     1
  0
XRECORD
  5
193
102
{ACAD_REACTORS
330
192
102
}
330
192
100
AcDbXrecord
280
     1
102
RTVSPost2010Prop28
280
     0
102
RTVSPost2010PropOp28
 70
     1
102
RTVSPost2010Prop29
280
     1
102
RTVSPost2010PropOp29
 70
     1
102
RTVSPost2010Prop30
280
     1
102
RTVSPost2010PropOp30
 70
     1
102
RTVSPost2010Prop31
280
     0
102
RTVSPost2010PropOp31
 70
     1
102
RTVSPost2010Prop32
280
     0
102
RTVSPost2010PropOp32
 70
     1
102
RTVSPost2010Prop33
280
     0
102
RTVSPost2010PropOp33
 70
     1
102
RTVSPost2010Prop34
280
     0
102
RTVSPost2010PropOp34
 70
     1
102
RTVSPost2010Prop35
280
     0
102
RTVSPost2010PropOp35
 70
     1
102
RTVSPost2010Prop36
280
     0
102
RTVSPost2010PropOp36
 70
     1
102
RTVSPost2010Prop37
 90
       50
102
RTVSPost2010PropOp37
 70
     1
102
RTVSPost2010Prop38
140
0.0
102
RTVSPost2010PropOp38
 70
     1
102
RTVSPost2010Prop39
140
1.0
102
RTVSPost2010PropOp39
 70
     1
102
RTVSPost2010Prop40
 90
        0
102
RTVSPost2010PropOp40
 70
     1
102
RTVSPost2010Prop41ColorIndex
 90
       18
102
RTVSPost2010Prop41ColorRGB
 90
        0
102
RTVSPost2010PropOp41
 70
     1
102
RTVSPost2010Prop42
 90
       50
102
RTVSPost2010PropOp42
 70
     1
102
RTVSPost2010Prop43
 90
        3
102
RTVSPost2010PropOp43
 70
     1
102
RTVSPost2010Prop44ColorIndex
 90
        5
102
RTVSPost2010Prop44ColorRGB
 90
      255
102
RTVSPost2010PropOp44
 70
     1
102
RTVSPost2010Prop45
280
     0
102
RTVSPost2010PropOp45
 70
     1
102
RTVSPost2010Prop46
 90
       50
102
RTVSPost2010PropOp46
 70
     1
102
RTVSPost2010Prop47
 90
       50
102
RTVSPost2010PropOp47
 70
     1
102
RTVSPost2010Prop48
 90
       50
102
RTVSPost2010PropOp48
 70
     1
102
RTVSPost2010Prop49
280
     0
102
RTVSPost2010PropOp49
 70
     1
102
RTVSPost2010Prop50
 90
       50
102
RTVSPost2010PropOp50
 70
     1
102
RTVSPost2010Prop51ColorIndex
 90
      256
102
RTVSPost2010Prop51ColorRGB
 90
-16777216
102
RTVSPost2010PropOp51
 70
     0
102
RTVSPost2010Prop52
140
1.0
102
RTVSPost2010PropOp52
 70
     0
102
RTVSPost2010Prop53
 90
        2
102
RTVSPost2010PropOp53
 70
     1
102
RTVSPost2010Prop54
  1
strokes_ogs.tif
102
RTVSPost2010PropOp54
 70
     1
102
RTVSPost2010Prop55
280
     0
102
RTVSPost2010PropOp55
 70
     1
102
RTVSPost2010Prop56
140
1.0
102
RTVSPost2010PropOp56
 70
     1
102
RTVSPost2010Prop57
140
1.0
102
RTVSPost2010PropOp57
 70
     1
  0
XRECORD
  5
19B
102
{ACAD_REACTORS
330
19A
102
}
330
19A
100
AcDbXrecord
280
     1
102
RTVSPost2010Prop28
280
     0
102
RTVSPost2010PropOp28
 70
     1
102
RTVSPost2010Prop29
280
     1
102
RTVSPost2010PropOp29
 70
     1
102
RTVSPost2010Prop30
280
     1
102
RTVSPost2010PropOp30
 70
     1
102
RTVSPost2010Prop31
280
     0
102
RTVSPost2010PropOp31
 70
     1
102
RTVSPost2010Prop32
280
     0
102
RTVSPost2010PropOp32
 70
     1
102
RTVSPost2010Prop33
280
     0
102
RTVSPost2010PropOp33
 70
     1
102
RTVSPost2010Prop34
280
     0
102
RTVSPost2010PropOp34
 70
     1
102
RTVSPost2010Prop35
280
     0
102
RTVSPost2010PropOp35
 70
     1
102
RTVSPost2010Prop36
280
     0
102
RTVSPost2010PropOp36
 70
     1
102
RTVSPost2010Prop37
 90
       50
102
RTVSPost2010PropOp37
 70
     1
102
RTVSPost2010Prop38
140
0.0
102
RTVSPost2010PropOp38
 70
     1
102
RTVSPost2010Prop39
140
1.0
102
RTVSPost2010PropOp39
 70
     1
102
RTVSPost2010Prop40
 90
        0
102
RTVSPost2010PropOp40
 70
     1
102
RTVSPost2010Prop41ColorIndex
 90
       18
102
RTVSPost2010Prop41ColorRGB
 90
        0
102
RTVSPost2010PropOp41
 70
     1
102
RTVSPost2010Prop42
 90
       50
102
RTVSPost2010PropOp42
 70
     1
102
RTVSPost2010Prop43
 90
        3
102
RTVSPost2010PropOp43
 70
     1
102
RTVSPost2010Prop44ColorIndex
 90
        5
102
RTVSPost2010Prop44ColorRGB
 90
      255
102
RTVSPost2010PropOp44
 70
     1
102
RTVSPost2010Prop45
280
     0
102
RTVSPost2010PropOp45
 70
     1
102
RTVSPost2010Prop46
 90
       50
102
RTVSPost2010PropOp46
 70
     1
102
RTVSPost2010Prop47
 90
       50
102
RTVSPost2010PropOp47
 70
     1
102
RTVSPost2010Prop48
 90
       50
102
RTVSPost2010PropOp48
 70
     1
102
RTVSPost2010Prop49
280
     0
102
RTVSPost2010PropOp49
 70
     1
102
RTVSPost2010Prop50
 90
       50
102
RTVSPost2010PropOp50
 70
     1
102
RTVSPost2010Prop51ColorIndex
 90
      256
102
RTVSPost2010Prop51ColorRGB
 90
-16777216
102
RTVSPost2010PropOp51
 70
     0
102
RTVSPost2010Prop52
140
1.0
102
RTVSPost2010PropOp52
 70
     0
102
RTVSPost2010Prop53
 90
        2
102
RTVSPost2010PropOp53
 70
     1
102
RTVSPost2010Prop54
  1
strokes_ogs.tif
102
RTVSPost2010PropOp54
 70
     1
102
RTVSPost2010Prop55
280
     0
102
RTVSPost2010PropOp55
 70
     1
102
RTVSPost2010Prop56
140
1.0
102
RTVSPost2010PropOp56
 70
     1
102
RTVSPost2010Prop57
140
1.0
102
RTVSPost2010PropOp57
 70
     1
  0
XRECORD
  5
18F
102
{ACAD_REACTORS
330
18E
102
}
330
18E
100
AcDbXrecord
280
     1
102
RTVSPost2010Prop28
280
     0
102
RTVSPost2010PropOp28
 70
     1
102
RTVSPost2010Prop29
280
     1
102
RTVSPost2010PropOp29
 70
     1
102
RTVSPost2010Prop30
280
     1
102
RTVSPost2010PropOp30
 70
     1
102
RTVSPost2010Prop31
280
     0
102
RTVSPost2010PropOp31
 70
     1
102
RTVSPost2010Prop32
280
     0
102
RTVSPost2010PropOp32
 70
     1
102
RTVSPost2010Prop33
280
     0
102
RTVSPost2010PropOp33
 70
     1
102
RTVSPost2010Prop34
280
     0
102
RTVSPost2010PropOp34
 70
     1
102
RTVSPost2010Prop35
280
     0
102
RTVSPost2010PropOp35
 70
     1
102
RTVSPost2010Prop36
280
     0
102
RTVSPost2010PropOp36
 70
     1
102
RTVSPost2010Prop37
 90
       50
102
RTVSPost2010PropOp37
 70
     1
102
RTVSPost2010Prop38
140
0.0
102
RTVSPost2010PropOp38
 70
     1
102
RTVSPost2010Prop39
140
1.0
102
RTVSPost2010PropOp39
 70
     1
102
RTVSPost2010Prop40
 90
        0
102
RTVSPost2010PropOp40
 70
     1
102
RTVSPost2010Prop41ColorIndex
 90
       18
102
RTVSPost2010Prop41ColorRGB
 90
        0
102
RTVSPost2010PropOp41
 70
     1
102
RTVSPost2010Prop42
 90
       50
102
RTVSPost2010PropOp42
 70
     1
102
RTVSPost2010Prop43
 90
        3
102
RTVSPost2010PropOp43
 70
     1
102
RTVSPost2010Prop44ColorIndex
 90
        5
102
RTVSPost2010Prop44ColorRGB
 90
      255
102
RTVSPost2010PropOp44
 70
     1
102
RTVSPost2010Prop45
280
     0
102
RTVSPost2010PropOp45
 70
     1
102
RTVSPost2010Prop46
 90
       50
102
RTVSPost2010PropOp46
 70
     1
102
RTVSPost2010Prop47
 90
       50
102
RTVSPost2010PropOp47
 70
     1
102
RTVSPost2010Prop48
 90
       50
102
RTVSPost2010PropOp48
 70
     1
102
RTVSPost2010Prop49
280
     0
102
RTVSPost2010PropOp49
 70
     1
102
RTVSPost2010Prop50
 90
       50
102
RTVSPost2010PropOp50
 70
     1
102
RTVSPost2010Prop51ColorIndex
 90
      256
102
RTVSPost2010Prop51ColorRGB
 90
-16777216
102
RTVSPost2010PropOp51
 70
     0
102
RTVSPost2010Prop52
140
1.0
102
RTVSPost2010PropOp52
 70
     0
102
RTVSPost2010Prop53
 90
        2
102
RTVSPost2010PropOp53
 70
     1
102
RTVSPost2010Prop54
  1
strokes_ogs.tif
102
RTVSPost2010PropOp54
 70
     1
102
RTVSPost2010Prop55
280
     0
102
RTVSPost2010PropOp55
 70
     1
102
RTVSPost2010Prop56
140
1.0
102
RTVSPost2010PropOp56
 70
     1
102
RTVSPost2010Prop57
140
1.0
102
RTVSPost2010PropOp57
 70
     1
  0
XRECORD
  5
191
102
{ACAD_REACTORS
330
190
102
}
330
190
100
AcDbXrecord
280
     1
102
RTVSPost2010Prop28
280
     0
102
RTVSPost2010PropOp28
 70
     1
102
RTVSPost2010Prop29
280
     1
102
RTVSPost2010PropOp29
 70
     1
102
RTVSPost2010Prop30
280
     1
102
RTVSPost2010PropOp30
 70
     1
102
RTVSPost2010Prop31
280
     0
102
RTVSPost2010PropOp31
 70
     1
102
RTVSPost2010Prop32
280
     0
102
RTVSPost2010PropOp32
 70
     1
102
RTVSPost2010Prop33
280
     0
102
RTVSPost2010PropOp33
 70
     1
102
RTVSPost2010Prop34
280
     0
102
RTVSPost2010PropOp34
 70
     1
102
RTVSPost2010Prop35
280
     0
102
RTVSPost2010PropOp35
 70
     1
102
RTVSPost2010Prop36
280
     0
102
RTVSPost2010PropOp36
 70
     1
102
RTVSPost2010Prop37
 90
       50
102
RTVSPost2010PropOp37
 70
     1
102
RTVSPost2010Prop38
140
0.0
102
RTVSPost2010PropOp38
 70
     1
102
RTVSPost2010Prop39
140
1.0
102
RTVSPost2010PropOp39
 70
     1
102
RTVSPost2010Prop40
 90
        0
102
RTVSPost2010PropOp40
 70
     1
102
RTVSPost2010Prop41ColorIndex
 90
       18
102
RTVSPost2010Prop41ColorRGB
 90
        0
102
RTVSPost2010PropOp41
 70
     1
102
RTVSPost2010Prop42
 90
       50
102
RTVSPost2010PropOp42
 70
     1
102
RTVSPost2010Prop43
 90
        3
102
RTVSPost2010PropOp43
 70
     1
102
RTVSPost2010Prop44ColorIndex
 90
        5
102
RTVSPost2010Prop44ColorRGB
 90
      255
102
RTVSPost2010PropOp44
 70
     1
102
RTVSPost2010Prop45
280
     0
102
RTVSPost2010PropOp45
 70
     1
102
RTVSPost2010Prop46
 90
       50
102
RTVSPost2010PropOp46
 70
     1
102
RTVSPost2010Prop47
 90
       50
102
RTVSPost2010PropOp47
 70
     1
102
RTVSPost2010Prop48
 90
       50
102
RTVSPost2010PropOp48
 70
     1
102
RTVSPost2010Prop49
280
     0
102
RTVSPost2010PropOp49
 70
     1
102
RTVSPost2010Prop50
 90
       50
102
RTVSPost2010PropOp50
 70
     1
102
RTVSPost2010Prop51ColorIndex
 90
      256
102
RTVSPost2010Prop51ColorRGB
 90
-16777216
102
RTVSPost2010PropOp51
 70
     0
102
RTVSPost2010Prop52
140
1.0
102
RTVSPost2010PropOp52
 70
     0
102
RTVSPost2010Prop53
 90
        2
102
RTVSPost2010PropOp53
 70
     1
102
RTVSPost2010Prop54
  1
strokes_ogs.tif
102
RTVSPost2010PropOp54
 70
     1
102
RTVSPost2010Prop55
280
     0
102
RTVSPost2010PropOp55
 70
     1
102
RTVSPost2010Prop56
140
1.0
102
RTVSPost2010PropOp56
 70
     1
102
RTVSPost2010Prop57
140
1.0
102
RTVSPost2010PropOp57
 70
     1
  0
XRECORD
  5
1A1
102
{ACAD_REACTORS
330
1A0
102
}
330
1A0
100
AcDbXrecord
280
     1
102
RTVSPost2010Prop28
280
     0
102
RTVSPost2010PropOp28
 70
     0
102
RTVSPost2010Prop29
280
     1
102
RTVSPost2010PropOp29
 70
     0
102
RTVSPost2010Prop30
280
     1
102
RTVSPost2010PropOp30
 70
     0
102
RTVSPost2010Prop31
280
     0
102
RTVSPost2010PropOp31
 70
     0
102
RTVSPost2010Prop32
280
     0
102
RTVSPost2010PropOp32
 70
     0
102
RTVSPost2010Prop33
280
     0
102
RTVSPost2010PropOp33
 70
     0
102
RTVSPost2010Prop34
280
     0
102
RTVSPost2010PropOp34
 70
     0
102
RTVSPost2010Prop35
280
     0
102
RTVSPost2010PropOp35
 70
     0
102
RTVSPost2010Prop36
280
     0
102
RTVSPost2010PropOp36
 70
     0
102
RTVSPost2010Prop37
 90
       50
102
RTVSPost2010PropOp37
 70
     0
102
RTVSPost2010Prop38
140
0.0
102
RTVSPost2010PropOp38
 70
     0
102
RTVSPost2010Prop39
140
1.0
102
RTVSPost2010PropOp39
 70
     0
102
RTVSPost2010Prop40
 90
        0
102
RTVSPost2010PropOp40
 70
     0
102
RTVSPost2010Prop41ColorIndex
 90
       18
102
RTVSPost2010Prop41ColorRGB
 90
        0
102
RTVSPost2010PropOp41
 70
     0
102
RTVSPost2010Prop42
 90
       50
102
RTVSPost2010PropOp42
 70
     0
102
RTVSPost2010Prop43
 90
        3
102
RTVSPost2010PropOp43
 70
     0
102
RTVSPost2010Prop44ColorIndex
 90
        5
102
RTVSPost2010Prop44ColorRGB
 90
      255
102
RTVSPost2010PropOp44
 70
     0
102
RTVSPost2010Prop45
280
     0
102
RTVSPost2010PropOp45
 70
     0
102
RTVSPost2010Prop46
 90
       50
102
RTVSPost2010PropOp46
 70
     0
102
RTVSPost2010Prop47
 90
       50
102
RTVSPost2010PropOp47
 70
     0
102
RTVSPost2010Prop48
 90
       50
102
RTVSPost2010PropOp48
 70
     0
102
RTVSPost2010Prop49
280
     0
102
RTVSPost2010PropOp49
 70
     0
102
RTVSPost2010Prop50
 90
       50
102
RTVSPost2010PropOp50
 70
     0
102
RTVSPost2010Prop51ColorIndex
 90
      256
102
RTVSPost2010Prop51ColorRGB
 90
-16777216
102
RTVSPost2010PropOp51
 70
     0
102
RTVSPost2010Prop52
140
1.0
102
RTVSPost2010PropOp52
 70
     0
102
RTVSPost2010Prop53
 90
        2
102
RTVSPost2010PropOp53
 70
     0
102
RTVSPost2010Prop54
  1
strokes_ogs.tif
102
RTVSPost2010PropOp54
 70
     0
102
RTVSPost2010Prop55
280
     0
102
RTVSPost2010PropOp55
 70
     0
102
RTVSPost2010Prop56
140
1.0
102
RTVSPost2010PropOp56
 70
     0
102
RTVSPost2010Prop57
140
1.0
102
RTVSPost2010PropOp57
 70
     0
  0
XRECORD
  5
199
102
{ACAD_REACTORS
330
198
102
}
330
198
100
AcDbXrecord
280
     1
102
RTVSPost2010Prop28
280
     0
102
RTVSPost2010PropOp28
 70
     1
102
RTVSPost2010Prop29
280
     1
102
RTVSPost2010PropOp29
 70
     1
102
RTVSPost2010Prop30
280
     1
102
RTVSPost2010PropOp30
 70
     1
102
RTVSPost2010Prop31
280
     0
102
RTVSPost2010PropOp31
 70
     1
102
RTVSPost2010Prop32
280
     0
102
RTVSPost2010PropOp32
 70
     1
102
RTVSPost2010Prop33
280
     0
102
RTVSPost2010PropOp33
 70
     1
102
RTVSPost2010Prop34
280
     0
102
RTVSPost2010PropOp34
 70
     1
102
RTVSPost2010Prop35
280
     0
102
RTVSPost2010PropOp35
 70
     1
102
RTVSPost2010Prop36
280
     0
102
RTVSPost2010PropOp36
 70
     1
102
RTVSPost2010Prop37
 90
       50
102
RTVSPost2010PropOp37
 70
     1
102
RTVSPost2010Prop38
140
0.0
102
RTVSPost2010PropOp38
 70
     1
102
RTVSPost2010Prop39
140
1.0
102
RTVSPost2010PropOp39
 70
     1
102
RTVSPost2010Prop40
 90
        0
102
RTVSPost2010PropOp40
 70
     1
102
RTVSPost2010Prop41ColorIndex
 90
       18
102
RTVSPost2010Prop41ColorRGB
 90
        0
102
RTVSPost2010PropOp41
 70
     1
102
RTVSPost2010Prop42
 90
       50
102
RTVSPost2010PropOp42
 70
     1
102
RTVSPost2010Prop43
 90
        3
102
RTVSPost2010PropOp43
 70
     1
102
RTVSPost2010Prop44ColorIndex
 90
        5
102
RTVSPost2010Prop44ColorRGB
 90
      255
102
RTVSPost2010PropOp44
 70
     1
102
RTVSPost2010Prop45
280
     0
102
RTVSPost2010PropOp45
 70
     1
102
RTVSPost2010Prop46
 90
       50
102
RTVSPost2010PropOp46
 70
     1
102
RTVSPost2010Prop47
 90
       50
102
RTVSPost2010PropOp47
 70
     1
102
RTVSPost2010Prop48
 90
       50
102
RTVSPost2010PropOp48
 70
     1
102
RTVSPost2010Prop49
280
     0
102
RTVSPost2010PropOp49
 70
     1
102
RTVSPost2010Prop50
 90
       50
102
RTVSPost2010PropOp50
 70
     1
102
RTVSPost2010Prop51ColorIndex
 90
      256
102
RTVSPost2010Prop51ColorRGB
 90
-16777216
102
RTVSPost2010PropOp51
 70
     0
102
RTVSPost2010Prop52
140
1.0
102
RTVSPost2010PropOp52
 70
     0
102
RTVSPost2010Prop53
 90
        2
102
RTVSPost2010PropOp53
 70
     1
102
RTVSPost2010Prop54
  1
strokes_ogs.tif
102
RTVSPost2010PropOp54
 70
     1
102
RTVSPost2010Prop55
280
     0
102
RTVSPost2010PropOp55
 70
     1
102
RTVSPost2010Prop56
140
1.0
102
RTVSPost2010PropOp56
 70
     1
102
RTVSPost2010Prop57
140
1.0
102
RTVSPost2010PropOp57
 70
     1
  0
XRECORD
  5
17D
102
{ACAD_REACTORS
330
17C
102
}
330
17C
100
AcDbXrecord
280
     1
102
RTVSPost2010Prop28
280
     0
102
RTVSPost2010PropOp28
 70
     1
102
RTVSPost2010Prop29
280
     1
102
RTVSPost2010PropOp29
 70
     1
102
RTVSPost2010Prop30
280
     1
102
RTVSPost2010PropOp30
 70
     1
102
RTVSPost2010Prop31
280
     0
102
RTVSPost2010PropOp31
 70
     1
102
RTVSPost2010Prop32
280
     0
102
RTVSPost2010PropOp32
 70
     1
102
RTVSPost2010Prop33
280
     0
102
RTVSPost2010PropOp33
 70
     1
102
RTVSPost2010Prop34
280
     0
102
RTVSPost2010PropOp34
 70
     1
102
RTVSPost2010Prop35
280
     0
102
RTVSPost2010PropOp35
 70
     1
102
RTVSPost2010Prop36
280
     0
102
RTVSPost2010PropOp36
 70
     1
102
RTVSPost2010Prop37
 90
       50
102
RTVSPost2010PropOp37
 70
     1
102
RTVSPost2010Prop38
140
0.0
102
RTVSPost2010PropOp38
 70
     1
102
RTVSPost2010Prop39
140
1.0
102
RTVSPost2010PropOp39
 70
     1
102
RTVSPost2010Prop40
 90
        0
102
RTVSPost2010PropOp40
 70
     1
102
RTVSPost2010Prop41ColorIndex
 90
       18
102
RTVSPost2010Prop41ColorRGB
 90
        0
102
RTVSPost2010PropOp41
 70
     1
102
RTVSPost2010Prop42
 90
       50
102
RTVSPost2010PropOp42
 70
     1
102
RTVSPost2010Prop43
 90
        3
102
RTVSPost2010PropOp43
 70
     1
102
RTVSPost2010Prop44ColorIndex
 90
        5
102
RTVSPost2010Prop44ColorRGB
 90
      255
102
RTVSPost2010PropOp44
 70
     1
102
RTVSPost2010Prop45
280
     0
102
RTVSPost2010PropOp45
 70
     1
102
RTVSPost2010Prop46
 90
       50
102
RTVSPost2010PropOp46
 70
     1
102
RTVSPost2010Prop47
 90
       50
102
RTVSPost2010PropOp47
 70
     1
102
RTVSPost2010Prop48
 90
       50
102
RTVSPost2010PropOp48
 70
     1
102
RTVSPost2010Prop49
280
     0
102
RTVSPost2010PropOp49
 70
     1
102
RTVSPost2010Prop50
 90
       50
102
RTVSPost2010PropOp50
 70
     1
102
RTVSPost2010Prop51ColorIndex
 90
      256
102
RTVSPost2010Prop51ColorRGB
 90
-16777216
102
RTVSPost2010PropOp51
 70
     0
102
RTVSPost2010Prop52
140
1.0
102
RTVSPost2010PropOp52
 70
     0
102
RTVSPost2010Prop53
 90
        2
102
RTVSPost2010PropOp53
 70
     1
102
RTVSPost2010Prop54
  1
strokes_ogs.tif
102
RTVSPost2010PropOp54
 70
     1
102
RTVSPost2010Prop55
280
     0
102
RTVSPost2010PropOp55
 70
     1
102
RTVSPost2010Prop56
140
1.0
102
RTVSPost2010PropOp56
 70
     1
102
RTVSPost2010Prop57
140
1.0
102
RTVSPost2010PropOp57
 70
     1
  0
XRECORD
  5
17F
102
{ACAD_REACTORS
330
17E
102
}
330
17E
100
AcDbXrecord
280
     1
102
RTVSPost2010Prop28
280
     0
102
RTVSPost2010PropOp28
 70
     1
102
RTVSPost2010Prop29
280
     1
102
RTVSPost2010PropOp29
 70
     1
102
RTVSPost2010Prop30
280
     1
102
RTVSPost2010PropOp30
 70
     1
102
RTVSPost2010Prop31
280
     0
102
RTVSPost2010PropOp31
 70
     1
102
RTVSPost2010Prop32
280
     0
102
RTVSPost2010PropOp32
 70
     1
102
RTVSPost2010Prop33
280
     0
102
RTVSPost2010PropOp33
 70
     1
102
RTVSPost2010Prop34
280
     0
102
RTVSPost2010PropOp34
 70
     1
102
RTVSPost2010Prop35
280
     0
102
RTVSPost2010PropOp35
 70
     1
102
RTVSPost2010Prop36
280
     0
102
RTVSPost2010PropOp36
 70
     1
102
RTVSPost2010Prop37
 90
       50
102
RTVSPost2010PropOp37
 70
     1
102
RTVSPost2010Prop38
140
0.0
102
RTVSPost2010PropOp38
 70
     1
102
RTVSPost2010Prop39
140
1.0
102
RTVSPost2010PropOp39
 70
     1
102
RTVSPost2010Prop40
 90
        0
102
RTVSPost2010PropOp40
 70
     1
102
RTVSPost2010Prop41ColorIndex
 90
       18
102
RTVSPost2010Prop41ColorRGB
 90
        0
102
RTVSPost2010PropOp41
 70
     1
102
RTVSPost2010Prop42
 90
       50
102
RTVSPost2010PropOp42
 70
     1
102
RTVSPost2010Prop43
 90
        3
102
RTVSPost2010PropOp43
 70
     1
102
RTVSPost2010Prop44ColorIndex
 90
        5
102
RTVSPost2010Prop44ColorRGB
 90
      255
102
RTVSPost2010PropOp44
 70
     1
102
RTVSPost2010Prop45
280
     0
102
RTVSPost2010PropOp45
 70
     1
102
RTVSPost2010Prop46
 90
       50
102
RTVSPost2010PropOp46
 70
     1
102
RTVSPost2010Prop47
 90
       50
102
RTVSPost2010PropOp47
 70
     1
102
RTVSPost2010Prop48
 90
       50
102
RTVSPost2010PropOp48
 70
     1
102
RTVSPost2010Prop49
280
     0
102
RTVSPost2010PropOp49
 70
     1
102
RTVSPost2010Prop50
 90
       50
102
RTVSPost2010PropOp50
 70
     1
102
RTVSPost2010Prop51ColorIndex
 90
      256
102
RTVSPost2010Prop51ColorRGB
 90
-16777216
102
RTVSPost2010PropOp51
 70
     0
102
RTVSPost2010Prop52
140
1.0
102
RTVSPost2010PropOp52
 70
     0
102
RTVSPost2010Prop53
 90
        2
102
RTVSPost2010PropOp53
 70
     1
102
RTVSPost2010Prop54
  1
strokes_ogs.tif
102
RTVSPost2010PropOp54
 70
     1
102
RTVSPost2010Prop55
280
     0
102
RTVSPost2010PropOp55
 70
     1
102
RTVSPost2010Prop56
140
1.0
102
RTVSPost2010PropOp56
 70
     1
102
RTVSPost2010Prop57
140
1.0
102
RTVSPost2010PropOp57
 70
     1
  0
XRECORD
  5
181
102
{ACAD_REACTORS
330
180
102
}
330
180
100
AcDbXrecord
280
     1
102
RTVSPost2010Prop28
280
     0
102
RTVSPost2010PropOp28
 70
     1
102
RTVSPost2010Prop29
280
     1
102
RTVSPost2010PropOp29
 70
     1
102
RTVSPost2010Prop30
280
     1
102
RTVSPost2010PropOp30
 70
     1
102
RTVSPost2010Prop31
280
     0
102
RTVSPost2010PropOp31
 70
     1
102
RTVSPost2010Prop32
280
     0
102
RTVSPost2010PropOp32
 70
     1
102
RTVSPost2010Prop33
280
     0
102
RTVSPost2010PropOp33
 70
     1
102
RTVSPost2010Prop34
280
     0
102
RTVSPost2010PropOp34
 70
     1
102
RTVSPost2010Prop35
280
     0
102
RTVSPost2010PropOp35
 70
     1
102
RTVSPost2010Prop36
280
     0
102
RTVSPost2010PropOp36
 70
     1
102
RTVSPost2010Prop37
 90
       50
102
RTVSPost2010PropOp37
 70
     1
102
RTVSPost2010Prop38
140
0.0
102
RTVSPost2010PropOp38
 70
     1
102
RTVSPost2010Prop39
140
1.0
102
RTVSPost2010PropOp39
 70
     1
102
RTVSPost2010Prop40
 90
        0
102
RTVSPost2010PropOp40
 70
     1
102
RTVSPost2010Prop41ColorIndex
 90
       18
102
RTVSPost2010Prop41ColorRGB
 90
        0
102
RTVSPost2010PropOp41
 70
     1
102
RTVSPost2010Prop42
 90
       50
102
RTVSPost2010PropOp42
 70
     1
102
RTVSPost2010Prop43
 90
        3
102
RTVSPost2010PropOp43
 70
     1
102
RTVSPost2010Prop44ColorIndex
 90
        5
102
RTVSPost2010Prop44ColorRGB
 90
      255
102
RTVSPost2010PropOp44
 70
     1
102
RTVSPost2010Prop45
280
     0
102
RTVSPost2010PropOp45
 70
     1
102
RTVSPost2010Prop46
 90
       50
102
RTVSPost2010PropOp46
 70
     1
102
RTVSPost2010Prop47
 90
       50
102
RTVSPost2010PropOp47
 70
     1
102
RTVSPost2010Prop48
 90
       50
102
RTVSPost2010PropOp48
 70
     1
102
RTVSPost2010Prop49
280
     0
102
RTVSPost2010PropOp49
 70
     1
102
RTVSPost2010Prop50
 90
       50
102
RTVSPost2010PropOp50
 70
     1
102
RTVSPost2010Prop51ColorIndex
 90
      256
102
RTVSPost2010Prop51ColorRGB
 90
-16777216
102
RTVSPost2010PropOp51
 70
     0
102
RTVSPost2010Prop52
140
1.0
102
RTVSPost2010PropOp52
 70
     0
102
RTVSPost2010Prop53
 90
        2
102
RTVSPost2010PropOp53
 70
     1
102
RTVSPost2010Prop54
  1
strokes_ogs.tif
102
RTVSPost2010PropOp54
 70
     1
102
RTVSPost2010Prop55
280
     0
102
RTVSPost2010PropOp55
 70
     1
102
RTVSPost2010Prop56
140
1.0
102
RTVSPost2010PropOp56
 70
     1
102
RTVSPost2010Prop57
140
1.0
102
RTVSPost2010PropOp57
 70
     1
  0
XRECORD
  5
183
102
{ACAD_REACTORS
330
182
102
}
330
182
100
AcDbXrecord
280
     1
102
RTVSPost2010Prop28
280
     0
102
RTVSPost2010PropOp28
 70
     1
102
RTVSPost2010Prop29
280
     1
102
RTVSPost2010PropOp29
 70
     1
102
RTVSPost2010Prop30
280
     1
102
RTVSPost2010PropOp30
 70
     1
102
RTVSPost2010Prop31
280
     0
102
RTVSPost2010PropOp31
 70
     1
102
RTVSPost2010Prop32
280
     0
102
RTVSPost2010PropOp32
 70
     1
102
RTVSPost2010Prop33
280
     0
102
RTVSPost2010PropOp33
 70
     1
102
RTVSPost2010Prop34
280
     0
102
RTVSPost2010PropOp34
 70
     1
102
RTVSPost2010Prop35
280
     0
102
RTVSPost2010PropOp35
 70
     1
102
RTVSPost2010Prop36
280
     0
102
RTVSPost2010PropOp36
 70
     1
102
RTVSPost2010Prop37
 90
       50
102
RTVSPost2010PropOp37
 70
     1
102
RTVSPost2010Prop38
140
0.0
102
RTVSPost2010PropOp38
 70
     1
102
RTVSPost2010Prop39
140
1.0
102
RTVSPost2010PropOp39
 70
     1
102
RTVSPost2010Prop40
 90
        0
102
RTVSPost2010PropOp40
 70
     1
102
RTVSPost2010Prop41ColorIndex
 90
       18
102
RTVSPost2010Prop41ColorRGB
 90
        0
102
RTVSPost2010PropOp41
 70
     1
102
RTVSPost2010Prop42
 90
       50
102
RTVSPost2010PropOp42
 70
     1
102
RTVSPost2010Prop43
 90
        3
102
RTVSPost2010PropOp43
 70
     1
102
RTVSPost2010Prop44ColorIndex
 90
        5
102
RTVSPost2010Prop44ColorRGB
 90
      255
102
RTVSPost2010PropOp44
 70
     1
102
RTVSPost2010Prop45
280
     0
102
RTVSPost2010PropOp45
 70
     1
102
RTVSPost2010Prop46
 90
       50
102
RTVSPost2010PropOp46
 70
     1
102
RTVSPost2010Prop47
 90
       50
102
RTVSPost2010PropOp47
 70
     1
102
RTVSPost2010Prop48
 90
       50
102
RTVSPost2010PropOp48
 70
     1
102
RTVSPost2010Prop49
280
     0
102
RTVSPost2010PropOp49
 70
     1
102
RTVSPost2010Prop50
 90
       50
102
RTVSPost2010PropOp50
 70
     1
102
RTVSPost2010Prop51ColorIndex
 90
      256
102
RTVSPost2010Prop51ColorRGB
 90
-16777216
102
RTVSPost2010PropOp51
 70
     0
102
RTVSPost2010Prop52
140
1.0
102
RTVSPost2010PropOp52
 70
     0
102
RTVSPost2010Prop53
 90
        2
102
RTVSPost2010PropOp53
 70
     1
102
RTVSPost2010Prop54
  1
strokes_ogs.tif
102
RTVSPost2010PropOp54
 70
     1
102
RTVSPost2010Prop55
280
     0
102
RTVSPost2010PropOp55
 70
     1
102
RTVSPost2010Prop56
140
1.0
102
RTVSPost2010PropOp56
 70
     1
102
RTVSPost2010Prop57
140
1.0
102
RTVSPost2010PropOp57
 70
     1
  0
XRECORD
  5
189
102
{ACAD_REACTORS
330
188
102
}
330
188
100
AcDbXrecord
280
     1
102
RTVSPost2010Prop28
280
     0
102
RTVSPost2010PropOp28
 70
     1
102
RTVSPost2010Prop29
280
     1
102
RTVSPost2010PropOp29
 70
     1
102
RTVSPost2010Prop30
280
     1
102
RTVSPost2010PropOp30
 70
     1
102
RTVSPost2010Prop31
280
     0
102
RTVSPost2010PropOp31
 70
     1
102
RTVSPost2010Prop32
280
     0
102
RTVSPost2010PropOp32
 70
     1
102
RTVSPost2010Prop33
280
     0
102
RTVSPost2010PropOp33
 70
     1
102
RTVSPost2010Prop34
280
     0
102
RTVSPost2010PropOp34
 70
     1
102
RTVSPost2010Prop35
280
     0
102
RTVSPost2010PropOp35
 70
     1
102
RTVSPost2010Prop36
280
     0
102
RTVSPost2010PropOp36
 70
     1
102
RTVSPost2010Prop37
 90
       50
102
RTVSPost2010PropOp37
 70
     1
102
RTVSPost2010Prop38
140
0.0
102
RTVSPost2010PropOp38
 70
     1
102
RTVSPost2010Prop39
140
1.0
102
RTVSPost2010PropOp39
 70
     1
102
RTVSPost2010Prop40
 90
        0
102
RTVSPost2010PropOp40
 70
     1
102
RTVSPost2010Prop41ColorIndex
 90
       18
102
RTVSPost2010Prop41ColorRGB
 90
        0
102
RTVSPost2010PropOp41
 70
     1
102
RTVSPost2010Prop42
 90
       50
102
RTVSPost2010PropOp42
 70
     1
102
RTVSPost2010Prop43
 90
        3
102
RTVSPost2010PropOp43
 70
     1
102
RTVSPost2010Prop44ColorIndex
 90
        5
102
RTVSPost2010Prop44ColorRGB
 90
      255
102
RTVSPost2010PropOp44
 70
     1
102
RTVSPost2010Prop45
280
     0
102
RTVSPost2010PropOp45
 70
     1
102
RTVSPost2010Prop46
 90
       50
102
RTVSPost2010PropOp46
 70
     1
102
RTVSPost2010Prop47
 90
       50
102
RTVSPost2010PropOp47
 70
     1
102
RTVSPost2010Prop48
 90
       50
102
RTVSPost2010PropOp48
 70
     1
102
RTVSPost2010Prop49
280
     0
102
RTVSPost2010PropOp49
 70
     1
102
RTVSPost2010Prop50
 90
       50
102
RTVSPost2010PropOp50
 70
     1
102
RTVSPost2010Prop51ColorIndex
 90
      256
102
RTVSPost2010Prop51ColorRGB
 90
-16777216
102
RTVSPost2010PropOp51
 70
     0
102
RTVSPost2010Prop52
140
1.0
102
RTVSPost2010PropOp52
 70
     0
102
RTVSPost2010Prop53
 90
        2
102
RTVSPost2010PropOp53
 70
     1
102
RTVSPost2010Prop54
  1
strokes_ogs.tif
102
RTVSPost2010PropOp54
 70
     1
102
RTVSPost2010Prop55
280
     0
102
RTVSPost2010PropOp55
 70
     1
102
RTVSPost2010Prop56
140
1.0
102
RTVSPost2010PropOp56
 70
     1
102
RTVSPost2010Prop57
140
1.0
102
RTVSPost2010PropOp57
 70
     1
  0
XRECORD
  5
19D
102
{ACAD_REACTORS
330
19C
102
}
330
19C
100
AcDbXrecord
280
     1
102
RTVSPost2010Prop28
280
     0
102
RTVSPost2010PropOp28
 70
     0
102
RTVSPost2010Prop29
280
     1
102
RTVSPost2010PropOp29
 70
     0
102
RTVSPost2010Prop30
280
     1
102
RTVSPost2010PropOp30
 70
     0
102
RTVSPost2010Prop31
280
     0
102
RTVSPost2010PropOp31
 70
     0
102
RTVSPost2010Prop32
280
     0
102
RTVSPost2010PropOp32
 70
     0
102
RTVSPost2010Prop33
280
     0
102
RTVSPost2010PropOp33
 70
     0
102
RTVSPost2010Prop34
280
     0
102
RTVSPost2010PropOp34
 70
     0
102
RTVSPost2010Prop35
280
     0
102
RTVSPost2010PropOp35
 70
     0
102
RTVSPost2010Prop36
280
     0
102
RTVSPost2010PropOp36
 70
     0
102
RTVSPost2010Prop37
 90
       50
102
RTVSPost2010PropOp37
 70
     0
102
RTVSPost2010Prop38
140
0.0
102
RTVSPost2010PropOp38
 70
     0
102
RTVSPost2010Prop39
140
1.0
102
RTVSPost2010PropOp39
 70
     0
102
RTVSPost2010Prop40
 90
        0
102
RTVSPost2010PropOp40
 70
     0
102
RTVSPost2010Prop41ColorIndex
 90
       18
102
RTVSPost2010Prop41ColorRGB
 90
        0
102
RTVSPost2010PropOp41
 70
     0
102
RTVSPost2010Prop42
 90
       50
102
RTVSPost2010PropOp42
 70
     0
102
RTVSPost2010Prop43
 90
        3
102
RTVSPost2010PropOp43
 70
     0
102
RTVSPost2010Prop44ColorIndex
 90
        5
102
RTVSPost2010Prop44ColorRGB
 90
      255
102
RTVSPost2010PropOp44
 70
     0
102
RTVSPost2010Prop45
280
     0
102
RTVSPost2010PropOp45
 70
     0
102
RTVSPost2010Prop46
 90
       50
102
RTVSPost2010PropOp46
 70
     0
102
RTVSPost2010Prop47
 90
       50
102
RTVSPost2010PropOp47
 70
     0
102
RTVSPost2010Prop48
 90
       50
102
RTVSPost2010PropOp48
 70
     0
102
RTVSPost2010Prop49
280
     0
102
RTVSPost2010PropOp49
 70
     0
102
RTVSPost2010Prop50
 90
       50
102
RTVSPost2010PropOp50
 70
     0
102
RTVSPost2010Prop51ColorIndex
 90
      256
102
RTVSPost2010Prop51ColorRGB
 90
-16777216
102
RTVSPost2010PropOp51
 70
     0
102
RTVSPost2010Prop52
140
1.0
102
RTVSPost2010PropOp52
 70
     0
102
RTVSPost2010Prop53
 90
        2
102
RTVSPost2010PropOp53
 70
     0
102
RTVSPost2010Prop54
  1
strokes_ogs.tif
102
RTVSPost2010PropOp54
 70
     0
102
RTVSPost2010Prop55
280
     0
102
RTVSPost2010PropOp55
 70
     0
102
RTVSPost2010Prop56
140
1.0
102
RTVSPost2010PropOp56
 70
     0
102
RTVSPost2010Prop57
140
1.0
102
RTVSPost2010PropOp57
 70
     0
  0
XRECORD
  5
197
102
{ACAD_REACTORS
330
196
102
}
330
196
100
AcDbXrecord
280
     1
102
RTVSPost2010Prop28
280
     0
102
RTVSPost2010PropOp28
 70
     1
102
RTVSPost2010Prop29
280
     1
102
RTVSPost2010PropOp29
 70
     1
102
RTVSPost2010Prop30
280
     1
102
RTVSPost2010PropOp30
 70
     1
102
RTVSPost2010Prop31
280
     0
102
RTVSPost2010PropOp31
 70
     1
102
RTVSPost2010Prop32
280
     0
102
RTVSPost2010PropOp32
 70
     1
102
RTVSPost2010Prop33
280
     0
102
RTVSPost2010PropOp33
 70
     1
102
RTVSPost2010Prop34
280
     0
102
RTVSPost2010PropOp34
 70
     1
102
RTVSPost2010Prop35
280
     0
102
RTVSPost2010PropOp35
 70
     1
102
RTVSPost2010Prop36
280
     0
102
RTVSPost2010PropOp36
 70
     1
102
RTVSPost2010Prop37
 90
       50
102
RTVSPost2010PropOp37
 70
     1
102
RTVSPost2010Prop38
140
0.0
102
RTVSPost2010PropOp38
 70
     1
102
RTVSPost2010Prop39
140
1.0
102
RTVSPost2010PropOp39
 70
     1
102
RTVSPost2010Prop40
 90
        0
102
RTVSPost2010PropOp40
 70
     1
102
RTVSPost2010Prop41ColorIndex
 90
       18
102
RTVSPost2010Prop41ColorRGB
 90
        0
102
RTVSPost2010PropOp41
 70
     1
102
RTVSPost2010Prop42
 90
       50
102
RTVSPost2010PropOp42
 70
     1
102
RTVSPost2010Prop43
 90
        3
102
RTVSPost2010PropOp43
 70
     1
102
RTVSPost2010Prop44ColorIndex
 90
        5
102
RTVSPost2010Prop44ColorRGB
 90
      255
102
RTVSPost2010PropOp44
 70
     1
102
RTVSPost2010Prop45
280
     0
102
RTVSPost2010PropOp45
 70
     1
102
RTVSPost2010Prop46
 90
       50
102
RTVSPost2010PropOp46
 70
     1
102
RTVSPost2010Prop47
 90
       50
102
RTVSPost2010PropOp47
 70
     1
102
RTVSPost2010Prop48
 90
       50
102
RTVSPost2010PropOp48
 70
     1
102
RTVSPost2010Prop49
280
     0
102
RTVSPost2010PropOp49
 70
     1
102
RTVSPost2010Prop50
 90
       50
102
RTVSPost2010PropOp50
 70
     1
102
RTVSPost2010Prop51ColorIndex
 90
      256
102
RTVSPost2010Prop51ColorRGB
 90
-16777216
102
RTVSPost2010PropOp51
 70
     0
102
RTVSPost2010Prop52
140
1.0
102
RTVSPost2010PropOp52
 70
     0
102
RTVSPost2010Prop53
 90
        2
102
RTVSPost2010PropOp53
 70
     1
102
RTVSPost2010Prop54
  1
strokes_ogs.tif
102
RTVSPost2010PropOp54
 70
     1
102
RTVSPost2010Prop55
280
     0
102
RTVSPost2010PropOp55
 70
     1
102
RTVSPost2010Prop56
140
1.0
102
RTVSPost2010PropOp56
 70
     1
102
RTVSPost2010Prop57
140
1.0
102
RTVSPost2010PropOp57
 70
     1
  0
XRECORD
  5
19F
102
{ACAD_REACTORS
330
19E
102
}
330
19E
100
AcDbXrecord
280
     1
102
RTVSPost2010Prop28
280
     0
102
RTVSPost2010PropOp28
 70
     0
102
RTVSPost2010Prop29
280
     1
102
RTVSPost2010PropOp29
 70
     0
102
RTVSPost2010Prop30
280
     1
102
RTVSPost2010PropOp30
 70
     0
102
RTVSPost2010Prop31
280
     0
102
RTVSPost2010PropOp31
 70
     0
102
RTVSPost2010Prop32
280
     0
102
RTVSPost2010PropOp32
 70
     0
102
RTVSPost2010Prop33
280
     0
102
RTVSPost2010PropOp33
 70
     0
102
RTVSPost2010Prop34
280
     0
102
RTVSPost2010PropOp34
 70
     0
102
RTVSPost2010Prop35
280
     0
102
RTVSPost2010PropOp35
 70
     0
102
RTVSPost2010Prop36
280
     0
102
RTVSPost2010PropOp36
 70
     0
102
RTVSPost2010Prop37
 90
       50
102
RTVSPost2010PropOp37
 70
     0
102
RTVSPost2010Prop38
140
0.0
102
RTVSPost2010PropOp38
 70
     0
102
RTVSPost2010Prop39
140
1.0
102
RTVSPost2010PropOp39
 70
     0
102
RTVSPost2010Prop40
 90
        0
102
RTVSPost2010PropOp40
 70
     0
102
RTVSPost2010Prop41ColorIndex
 90
       18
102
RTVSPost2010Prop41ColorRGB
 90
        0
102
RTVSPost2010PropOp41
 70
     0
102
RTVSPost2010Prop42
 90
       50
102
RTVSPost2010PropOp42
 70
     0
102
RTVSPost2010Prop43
 90
        3
102
RTVSPost2010PropOp43
 70
     0
102
RTVSPost2010Prop44ColorIndex
 90
        5
102
RTVSPost2010Prop44ColorRGB
 90
      255
102
RTVSPost2010PropOp44
 70
     0
102
RTVSPost2010Prop45
280
     0
102
RTVSPost2010PropOp45
 70
     0
102
RTVSPost2010Prop46
 90
       50
102
RTVSPost2010PropOp46
 70
     0
102
RTVSPost2010Prop47
 90
       50
102
RTVSPost2010PropOp47
 70
     0
102
RTVSPost2010Prop48
 90
       50
102
RTVSPost2010PropOp48
 70
     0
102
RTVSPost2010Prop49
280
     0
102
RTVSPost2010PropOp49
 70
     0
102
RTVSPost2010Prop50
 90
       50
102
RTVSPost2010PropOp50
 70
     0
102
RTVSPost2010Prop51ColorIndex
 90
      256
102
RTVSPost2010Prop51ColorRGB
 90
-16777216
102
RTVSPost2010PropOp51
 70
     0
102
RTVSPost2010Prop52
140
1.0
102
RTVSPost2010PropOp52
 70
     0
102
RTVSPost2010Prop53
 90
        2
102
RTVSPost2010PropOp53
 70
     0
102
RTVSPost2010Prop54
  1
strokes_ogs.tif
102
RTVSPost2010PropOp54
 70
     0
102
RTVSPost2010Prop55
280
     0
102
RTVSPost2010PropOp55
 70
     0
102
RTVSPost2010Prop56
140
1.0
102
RTVSPost2010PropOp56
 70
     0
102
RTVSPost2010Prop57
140
1.0
102
RTVSPost2010PropOp57
 70
     0
  0
XRECORD
  5
18D
102
{ACAD_REACTORS
330
18C
102
}
330
18C
100
AcDbXrecord
280
     1
102
RTVSPost2010Prop28
280
     0
102
RTVSPost2010PropOp28
 70
     1
102
RTVSPost2010Prop29
280
     1
102
RTVSPost2010PropOp29
 70
     1
102
RTVSPost2010Prop30
280
     1
102
RTVSPost2010PropOp30
 70
     1
102
RTVSPost2010Prop31
280
     0
102
RTVSPost2010PropOp31
 70
     1
102
RTVSPost2010Prop32
280
     0
102
RTVSPost2010PropOp32
 70
     1
102
RTVSPost2010Prop33
280
     0
102
RTVSPost2010PropOp33
 70
     1
102
RTVSPost2010Prop34
280
     0
102
RTVSPost2010PropOp34
 70
     1
102
RTVSPost2010Prop35
280
     0
102
RTVSPost2010PropOp35
 70
     1
102
RTVSPost2010Prop36
280
     0
102
RTVSPost2010PropOp36
 70
     1
102
RTVSPost2010Prop37
 90
       50
102
RTVSPost2010PropOp37
 70
     1
102
RTVSPost2010Prop38
140
0.0
102
RTVSPost2010PropOp38
 70
     1
102
RTVSPost2010Prop39
140
1.0
102
RTVSPost2010PropOp39
 70
     1
102
RTVSPost2010Prop40
 90
        0
102
RTVSPost2010PropOp40
 70
     1
102
RTVSPost2010Prop41ColorIndex
 90
       18
102
RTVSPost2010Prop41ColorRGB
 90
        0
102
RTVSPost2010PropOp41
 70
     1
102
RTVSPost2010Prop42
 90
       50
102
RTVSPost2010PropOp42
 70
     1
102
RTVSPost2010Prop43
 90
        3
102
RTVSPost2010PropOp43
 70
     1
102
RTVSPost2010Prop44ColorIndex
 90
        5
102
RTVSPost2010Prop44ColorRGB
 90
      255
102
RTVSPost2010PropOp44
 70
     1
102
RTVSPost2010Prop45
280
     0
102
RTVSPost2010PropOp45
 70
     1
102
RTVSPost2010Prop46
 90
       50
102
RTVSPost2010PropOp46
 70
     1
102
RTVSPost2010Prop47
 90
       50
102
RTVSPost2010PropOp47
 70
     1
102
RTVSPost2010Prop48
 90
       50
102
RTVSPost2010PropOp48
 70
     1
102
RTVSPost2010Prop49
280
     0
102
RTVSPost2010PropOp49
 70
     1
102
RTVSPost2010Prop50
 90
       50
102
RTVSPost2010PropOp50
 70
     1
102
RTVSPost2010Prop51ColorIndex
 90
      256
102
RTVSPost2010Prop51ColorRGB
 90
-16777216
102
RTVSPost2010PropOp51
 70
     0
102
RTVSPost2010Prop52
140
1.0
102
RTVSPost2010PropOp52
 70
     0
102
RTVSPost2010Prop53
 90
        2
102
RTVSPost2010PropOp53
 70
     1
102
RTVSPost2010Prop54
  1
strokes_ogs.tif
102
RTVSPost2010PropOp54
 70
     1
102
RTVSPost2010Prop55
280
     0
102
RTVSPost2010PropOp55
 70
     1
102
RTVSPost2010Prop56
140
1.0
102
RTVSPost2010PropOp56
 70
     1
102
RTVSPost2010Prop57
140
1.0
102
RTVSPost2010PropOp57
 70
     1
  0
XRECORD
  5
1AB
102
{ACAD_REACTORS
330
1AA
102
}
330
1AA
100
AcDbXrecord
280
     1
102
RTVSPost2010Prop28
280
     0
102
RTVSPost2010PropOp28
 70
     1
102
RTVSPost2010Prop29
280
     1
102
RTVSPost2010PropOp29
 70
     1
102
RTVSPost2010Prop30
280
     1
102
RTVSPost2010PropOp30
 70
     1
102
RTVSPost2010Prop31
280
     0
102
RTVSPost2010PropOp31
 70
     1
102
RTVSPost2010Prop32
280
     0
102
RTVSPost2010PropOp32
 70
     1
102
RTVSPost2010Prop33
280
     0
102
RTVSPost2010PropOp33
 70
     1
102
RTVSPost2010Prop34
280
     0
102
RTVSPost2010PropOp34
 70
     1
102
RTVSPost2010Prop35
280
     0
102
RTVSPost2010PropOp35
 70
     1
102
RTVSPost2010Prop36
280
     0
102
RTVSPost2010PropOp36
 70
     1
102
RTVSPost2010Prop37
 90
       50
102
RTVSPost2010PropOp37
 70
     1
102
RTVSPost2010Prop38
140
0.0
102
RTVSPost2010PropOp38
 70
     1
102
RTVSPost2010Prop39
140
1.0
102
RTVSPost2010PropOp39
 70
     1
102
RTVSPost2010Prop40
 90
        0
102
RTVSPost2010PropOp40
 70
     1
102
RTVSPost2010Prop41ColorIndex
 90
       18
102
RTVSPost2010Prop41ColorRGB
 90
        0
102
RTVSPost2010PropOp41
 70
     1
102
RTVSPost2010Prop42
 90
       50
102
RTVSPost2010PropOp42
 70
     1
102
RTVSPost2010Prop43
 90
        3
102
RTVSPost2010PropOp43
 70
     1
102
RTVSPost2010Prop44ColorIndex
 90
        5
102
RTVSPost2010Prop44ColorRGB
 90
      255
102
RTVSPost2010PropOp44
 70
     1
102
RTVSPost2010Prop45
280
     0
102
RTVSPost2010PropOp45
 70
     1
102
RTVSPost2010Prop46
 90
       50
102
RTVSPost2010PropOp46
 70
     1
102
RTVSPost2010Prop47
 90
       50
102
RTVSPost2010PropOp47
 70
     1
102
RTVSPost2010Prop48
 90
       50
102
RTVSPost2010PropOp48
 70
     1
102
RTVSPost2010Prop49
280
     0
102
RTVSPost2010PropOp49
 70
     1
102
RTVSPost2010Prop50
 90
       50
102
RTVSPost2010PropOp50
 70
     1
102
RTVSPost2010Prop51ColorIndex
 90
      256
102
RTVSPost2010Prop51ColorRGB
 90
-16777216
102
RTVSPost2010PropOp51
 70
     0
102
RTVSPost2010Prop52
140
1.0
102
RTVSPost2010PropOp52
 70
     0
102
RTVSPost2010Prop53
 90
        2
102
RTVSPost2010PropOp53
 70
     1
102
RTVSPost2010Prop54
  1
strokes_ogs.tif
102
RTVSPost2010PropOp54
 70
     1
102
RTVSPost2010Prop55
280
     0
102
RTVSPost2010PropOp55
 70
     1
102
RTVSPost2010Prop56
140
1.0
102
RTVSPost2010PropOp56
 70
     1
102
RTVSPost2010Prop57
140
1.0
102
RTVSPost2010PropOp57
 70
     1
  0
XRECORD
  5
1A9
102
{ACAD_REACTORS
330
1A8
102
}
330
1A8
100
AcDbXrecord
280
     1
102
RTVSPost2010Prop28
280
     0
102
RTVSPost2010PropOp28
 70
     1
102
RTVSPost2010Prop29
280
     1
102
RTVSPost2010PropOp29
 70
     1
102
RTVSPost2010Prop30
280
     1
102
RTVSPost2010PropOp30
 70
     1
102
RTVSPost2010Prop31
280
     0
102
RTVSPost2010PropOp31
 70
     1
102
RTVSPost2010Prop32
280
     0
102
RTVSPost2010PropOp32
 70
     1
102
RTVSPost2010Prop33
280
     0
102
RTVSPost2010PropOp33
 70
     1
102
RTVSPost2010Prop34
280
     0
102
RTVSPost2010PropOp34
 70
     1
102
RTVSPost2010Prop35
280
     0
102
RTVSPost2010PropOp35
 70
     1
102
RTVSPost2010Prop36
280
     0
102
RTVSPost2010PropOp36
 70
     1
102
RTVSPost2010Prop37
 90
       50
102
RTVSPost2010PropOp37
 70
     1
102
RTVSPost2010Prop38
140
0.0
102
RTVSPost2010PropOp38
 70
     1
102
RTVSPost2010Prop39
140
1.0
102
RTVSPost2010PropOp39
 70
     1
102
RTVSPost2010Prop40
 90
        0
102
RTVSPost2010PropOp40
 70
     1
102
RTVSPost2010Prop41ColorIndex
 90
       18
102
RTVSPost2010Prop41ColorRGB
 90
        0
102
RTVSPost2010PropOp41
 70
     1
102
RTVSPost2010Prop42
 90
       50
102
RTVSPost2010PropOp42
 70
     1
102
RTVSPost2010Prop43
 90
        3
102
RTVSPost2010PropOp43
 70
     1
102
RTVSPost2010Prop44ColorIndex
 90
        5
102
RTVSPost2010Prop44ColorRGB
 90
      255
102
RTVSPost2010PropOp44
 70
     1
102
RTVSPost2010Prop45
280
     0
102
RTVSPost2010PropOp45
 70
     1
102
RTVSPost2010Prop46
 90
       50
102
RTVSPost2010PropOp46
 70
     1
102
RTVSPost2010Prop47
 90
       50
102
RTVSPost2010PropOp47
 70
     1
102
RTVSPost2010Prop48
 90
       50
102
RTVSPost2010PropOp48
 70
     1
102
RTVSPost2010Prop49
280
     0
102
RTVSPost2010PropOp49
 70
     1
102
RTVSPost2010Prop50
 90
       50
102
RTVSPost2010PropOp50
 70
     1
102
RTVSPost2010Prop51ColorIndex
 90
      256
102
RTVSPost2010Prop51ColorRGB
 90
-16777216
102
RTVSPost2010PropOp51
 70
     0
102
RTVSPost2010Prop52
140
1.0
102
RTVSPost2010PropOp52
 70
     0
102
RTVSPost2010Prop53
 90
        2
102
RTVSPost2010PropOp53
 70
     1
102
RTVSPost2010Prop54
  1
strokes_ogs.tif
102
RTVSPost2010PropOp54
 70
     1
102
RTVSPost2010Prop55
280
     0
102
RTVSPost2010PropOp55
 70
     1
102
RTVSPost2010Prop56
140
1.0
102
RTVSPost2010PropOp56
 70
     1
102
RTVSPost2010Prop57
140
1.0
102
RTVSPost2010PropOp57
 70
     1
  0
XRECORD
  5
1A3
102
{ACAD_REACTORS
330
1A2
102
}
330
1A2
100
AcDbXrecord
280
     1
102
RTVSPost2010Prop28
280
     0
102
RTVSPost2010PropOp28
 70
     1
102
RTVSPost2010Prop29
280
     1
102
RTVSPost2010PropOp29
 70
     1
102
RTVSPost2010Prop30
280
     1
102
RTVSPost2010PropOp30
 70
     1
102
RTVSPost2010Prop31
280
     0
102
RTVSPost2010PropOp31
 70
     1
102
RTVSPost2010Prop32
280
     0
102
RTVSPost2010PropOp32
 70
     1
102
RTVSPost2010Prop33
280
     0
102
RTVSPost2010PropOp33
 70
     1
102
RTVSPost2010Prop34
280
     0
102
RTVSPost2010PropOp34
 70
     1
102
RTVSPost2010Prop35
280
     0
102
RTVSPost2010PropOp35
 70
     1
102
RTVSPost2010Prop36
280
     0
102
RTVSPost2010PropOp36
 70
     1
102
RTVSPost2010Prop37
 90
       50
102
RTVSPost2010PropOp37
 70
     1
102
RTVSPost2010Prop38
140
0.0
102
RTVSPost2010PropOp38
 70
     1
102
RTVSPost2010Prop39
140
1.0
102
RTVSPost2010PropOp39
 70
     1
102
RTVSPost2010Prop40
 90
        0
102
RTVSPost2010PropOp40
 70
     1
102
RTVSPost2010Prop41ColorIndex
 90
       18
102
RTVSPost2010Prop41ColorRGB
 90
        0
102
RTVSPost2010PropOp41
 70
     1
102
RTVSPost2010Prop42
 90
       50
102
RTVSPost2010PropOp42
 70
     1
102
RTVSPost2010Prop43
 90
        3
102
RTVSPost2010PropOp43
 70
     1
102
RTVSPost2010Prop44ColorIndex
 90
        5
102
RTVSPost2010Prop44ColorRGB
 90
      255
102
RTVSPost2010PropOp44
 70
     1
102
RTVSPost2010Prop45
280
     0
102
RTVSPost2010PropOp45
 70
     1
102
RTVSPost2010Prop46
 90
       50
102
RTVSPost2010PropOp46
 70
     1
102
RTVSPost2010Prop47
 90
       50
102
RTVSPost2010PropOp47
 70
     1
102
RTVSPost2010Prop48
 90
       50
102
RTVSPost2010PropOp48
 70
     1
102
RTVSPost2010Prop49
280
     0
102
RTVSPost2010PropOp49
 70
     1
102
RTVSPost2010Prop50
 90
       50
102
RTVSPost2010PropOp50
 70
     1
102
RTVSPost2010Prop51ColorIndex
 90
      256
102
RTVSPost2010Prop51ColorRGB
 90
-16777216
102
RTVSPost2010PropOp51
 70
     0
102
RTVSPost2010Prop52
140
1.0
102
RTVSPost2010PropOp52
 70
     0
102
RTVSPost2010Prop53
 90
        2
102
RTVSPost2010PropOp53
 70
     1
102
RTVSPost2010Prop54
  1
strokes_ogs.tif
102
RTVSPost2010PropOp54
 70
     1
102
RTVSPost2010Prop55
280
     0
102
RTVSPost2010PropOp55
 70
     1
102
RTVSPost2010Prop56
140
1.0
102
RTVSPost2010PropOp56
 70
     1
102
RTVSPost2010Prop57
140
1.0
102
RTVSPost2010PropOp57
 70
     1
  0
XRECORD
  5
1A5
102
{ACAD_REACTORS
330
1A4
102
}
330
1A4
100
AcDbXrecord
280
     1
102
RTVSPost2010Prop28
280
     0
102
RTVSPost2010PropOp28
 70
     1
102
RTVSPost2010Prop29
280
     1
102
RTVSPost2010PropOp29
 70
     1
102
RTVSPost2010Prop30
280
     1
102
RTVSPost2010PropOp30
 70
     1
102
RTVSPost2010Prop31
280
     0
102
RTVSPost2010PropOp31
 70
     1
102
RTVSPost2010Prop32
280
     0
102
RTVSPost2010PropOp32
 70
     1
102
RTVSPost2010Prop33
280
     0
102
RTVSPost2010PropOp33
 70
     1
102
RTVSPost2010Prop34
280
     0
102
RTVSPost2010PropOp34
 70
     1
102
RTVSPost2010Prop35
280
     0
102
RTVSPost2010PropOp35
 70
     1
102
RTVSPost2010Prop36
280
     0
102
RTVSPost2010PropOp36
 70
     1
102
RTVSPost2010Prop37
 90
       50
102
RTVSPost2010PropOp37
 70
     1
102
RTVSPost2010Prop38
140
0.0
102
RTVSPost2010PropOp38
 70
     1
102
RTVSPost2010Prop39
140
1.0
102
RTVSPost2010PropOp39
 70
     1
102
RTVSPost2010Prop40
 90
        0
102
RTVSPost2010PropOp40
 70
     1
102
RTVSPost2010Prop41ColorIndex
 90
       18
102
RTVSPost2010Prop41ColorRGB
 90
        0
102
RTVSPost2010PropOp41
 70
     1
102
RTVSPost2010Prop42
 90
       50
102
RTVSPost2010PropOp42
 70
     1
102
RTVSPost2010Prop43
 90
        3
102
RTVSPost2010PropOp43
 70
     1
102
RTVSPost2010Prop44ColorIndex
 90
        5
102
RTVSPost2010Prop44ColorRGB
 90
      255
102
RTVSPost2010PropOp44
 70
     1
102
RTVSPost2010Prop45
280
     0
102
RTVSPost2010PropOp45
 70
     1
102
RTVSPost2010Prop46
 90
       50
102
RTVSPost2010PropOp46
 70
     1
102
RTVSPost2010Prop47
 90
       50
102
RTVSPost2010PropOp47
 70
     1
102
RTVSPost2010Prop48
 90
       50
102
RTVSPost2010PropOp48
 70
     1
102
RTVSPost2010Prop49
280
     0
102
RTVSPost2010PropOp49
 70
     1
102
RTVSPost2010Prop50
 90
       50
102
RTVSPost2010PropOp50
 70
     1
102
RTVSPost2010Prop51ColorIndex
 90
      256
102
RTVSPost2010Prop51ColorRGB
 90
-16777216
102
RTVSPost2010PropOp51
 70
     0
102
RTVSPost2010Prop52
140
1.0
102
RTVSPost2010PropOp52
 70
     0
102
RTVSPost2010Prop53
 90
        2
102
RTVSPost2010PropOp53
 70
     1
102
RTVSPost2010Prop54
  1
strokes_ogs.tif
102
RTVSPost2010PropOp54
 70
     1
102
RTVSPost2010Prop55
280
     0
102
RTVSPost2010PropOp55
 70
     1
102
RTVSPost2010Prop56
140
1.0
102
RTVSPost2010PropOp56
 70
     1
102
RTVSPost2010Prop57
140
1.0
102
RTVSPost2010PropOp57
 70
     1
  0
XRECORD
  5
195
102
{ACAD_REACTORS
330
194
102
}
330
194
100
AcDbXrecord
280
     1
102
RTVSPost2010Prop28
280
     0
102
RTVSPost2010PropOp28
 70
     1
102
RTVSPost2010Prop29
280
     1
102
RTVSPost2010PropOp29
 70
     1
102
RTVSPost2010Prop30
280
     1
102
RTVSPost2010PropOp30
 70
     1
102
RTVSPost2010Prop31
280
     0
102
RTVSPost2010PropOp31
 70
     1
102
RTVSPost2010Prop32
280
     0
102
RTVSPost2010PropOp32
 70
     1
102
RTVSPost2010Prop33
280
     0
102
RTVSPost2010PropOp33
 70
     1
102
RTVSPost2010Prop34
280
     0
102
RTVSPost2010PropOp34
 70
     1
102
RTVSPost2010Prop35
280
     0
102
RTVSPost2010PropOp35
 70
     1
102
RTVSPost2010Prop36
280
     0
102
RTVSPost2010PropOp36
 70
     1
102
RTVSPost2010Prop37
 90
       50
102
RTVSPost2010PropOp37
 70
     1
102
RTVSPost2010Prop38
140
0.0
102
RTVSPost2010PropOp38
 70
     1
102
RTVSPost2010Prop39
140
1.0
102
RTVSPost2010PropOp39
 70
     1
102
RTVSPost2010Prop40
 90
        0
102
RTVSPost2010PropOp40
 70
     1
102
RTVSPost2010Prop41ColorIndex
 90
       18
102
RTVSPost2010Prop41ColorRGB
 90
        0
102
RTVSPost2010PropOp41
 70
     1
102
RTVSPost2010Prop42
 90
       50
102
RTVSPost2010PropOp42
 70
     1
102
RTVSPost2010Prop43
 90
        3
102
RTVSPost2010PropOp43
 70
     1
102
RTVSPost2010Prop44ColorIndex
 90
        5
102
RTVSPost2010Prop44ColorRGB
 90
      255
102
RTVSPost2010PropOp44
 70
     1
102
RTVSPost2010Prop45
280
     0
102
RTVSPost2010PropOp45
 70
     1
102
RTVSPost2010Prop46
 90
       50
102
RTVSPost2010PropOp46
 70
     1
102
RTVSPost2010Prop47
 90
       50
102
RTVSPost2010PropOp47
 70
     1
102
RTVSPost2010Prop48
 90
       50
102
RTVSPost2010PropOp48
 70
     1
102
RTVSPost2010Prop49
280
     0
102
RTVSPost2010PropOp49
 70
     1
102
RTVSPost2010Prop50
 90
       50
102
RTVSPost2010PropOp50
 70
     1
102
RTVSPost2010Prop51ColorIndex
 90
      256
102
RTVSPost2010Prop51ColorRGB
 90
-16777216
102
RTVSPost2010PropOp51
 70
     0
102
RTVSPost2010Prop52
140
1.0
102
RTVSPost2010PropOp52
 70
     0
102
RTVSPost2010Prop53
 90
        2
102
RTVSPost2010PropOp53
 70
     1
102
RTVSPost2010Prop54
  1
strokes_ogs.tif
102
RTVSPost2010PropOp54
 70
     1
102
RTVSPost2010Prop55
280
     0
102
RTVSPost2010PropOp55
 70
     1
102
RTVSPost2010Prop56
140
1.0
102
RTVSPost2010PropOp56
 70
     1
102
RTVSPost2010Prop57
140
1.0
102
RTVSPost2010PropOp57
 70
     1
  0
XRECORD
  5
187
102
{ACAD_REACTORS
330
186
102
}
330
186
100
AcDbXrecord
280
     1
102
RTVSPost2010Prop28
280
     0
102
RTVSPost2010PropOp28
 70
     1
102
RTVSPost2010Prop29
280
     1
102
RTVSPost2010PropOp29
 70
     1
102
RTVSPost2010Prop30
280
     1
102
RTVSPost2010PropOp30
 70
     1
102
RTVSPost2010Prop31
280
     0
102
RTVSPost2010PropOp31
 70
     1
102
RTVSPost2010Prop32
280
     0
102
RTVSPost2010PropOp32
 70
     1
102
RTVSPost2010Prop33
280
     0
102
RTVSPost2010PropOp33
 70
     1
102
RTVSPost2010Prop34
280
     0
102
RTVSPost2010PropOp34
 70
     1
102
RTVSPost2010Prop35
280
     0
102
RTVSPost2010PropOp35
 70
     1
102
RTVSPost2010Prop36
280
     0
102
RTVSPost2010PropOp36
 70
     1
102
RTVSPost2010Prop37
 90
       50
102
RTVSPost2010PropOp37
 70
     1
102
RTVSPost2010Prop38
140
0.0
102
RTVSPost2010PropOp38
 70
     1
102
RTVSPost2010Prop39
140
1.0
102
RTVSPost2010PropOp39
 70
     1
102
RTVSPost2010Prop40
 90
        0
102
RTVSPost2010PropOp40
 70
     1
102
RTVSPost2010Prop41ColorIndex
 90
       18
102
RTVSPost2010Prop41ColorRGB
 90
        0
102
RTVSPost2010PropOp41
 70
     1
102
RTVSPost2010Prop42
 90
       50
102
RTVSPost2010PropOp42
 70
     1
102
RTVSPost2010Prop43
 90
        3
102
RTVSPost2010PropOp43
 70
     1
102
RTVSPost2010Prop44ColorIndex
 90
        5
102
RTVSPost2010Prop44ColorRGB
 90
      255
102
RTVSPost2010PropOp44
 70
     1
102
RTVSPost2010Prop45
280
     0
102
RTVSPost2010PropOp45
 70
     1
102
RTVSPost2010Prop46
 90
       50
102
RTVSPost2010PropOp46
 70
     1
102
RTVSPost2010Prop47
 90
       50
102
RTVSPost2010PropOp47
 70
     1
102
RTVSPost2010Prop48
 90
       50
102
RTVSPost2010PropOp48
 70
     1
102
RTVSPost2010Prop49
280
     0
102
RTVSPost2010PropOp49
 70
     1
102
RTVSPost2010Prop50
 90
       50
102
RTVSPost2010PropOp50
 70
     1
102
RTVSPost2010Prop51ColorIndex
 90
      256
102
RTVSPost2010Prop51ColorRGB
 90
-16777216
102
RTVSPost2010PropOp51
 70
     0
102
RTVSPost2010Prop52
140
1.0
102
RTVSPost2010PropOp52
 70
     0
102
RTVSPost2010Prop53
 90
        2
102
RTVSPost2010PropOp53
 70
     1
102
RTVSPost2010Prop54
  1
strokes_ogs.tif
102
RTVSPost2010PropOp54
 70
     1
102
RTVSPost2010Prop55
280
     0
102
RTVSPost2010PropOp55
 70
     1
102
RTVSPost2010Prop56
140
1.0
102
RTVSPost2010PropOp56
 70
     1
102
RTVSPost2010Prop57
140
1.0
102
RTVSPost2010PropOp57
 70
     1
  0
XRECORD
  5
1A7
102
{ACAD_REACTORS
330
1A6
102
}
330
1A6
100
AcDbXrecord
280
     1
102
RTVSPost2010Prop28
280
     0
102
RTVSPost2010PropOp28
 70
     1
102
RTVSPost2010Prop29
280
     1
102
RTVSPost2010PropOp29
 70
     1
102
RTVSPost2010Prop30
280
     1
102
RTVSPost2010PropOp30
 70
     1
102
RTVSPost2010Prop31
280
     0
102
RTVSPost2010PropOp31
 70
     1
102
RTVSPost2010Prop32
280
     0
102
RTVSPost2010PropOp32
 70
     1
102
RTVSPost2010Prop33
280
     0
102
RTVSPost2010PropOp33
 70
     1
102
RTVSPost2010Prop34
280
     0
102
RTVSPost2010PropOp34
 70
     1
102
RTVSPost2010Prop35
280
     0
102
RTVSPost2010PropOp35
 70
     1
102
RTVSPost2010Prop36
280
     0
102
RTVSPost2010PropOp36
 70
     1
102
RTVSPost2010Prop37
 90
       50
102
RTVSPost2010PropOp37
 70
     1
102
RTVSPost2010Prop38
140
0.0
102
RTVSPost2010PropOp38
 70
     1
102
RTVSPost2010Prop39
140
1.0
102
RTVSPost2010PropOp39
 70
     1
102
RTVSPost2010Prop40
 90
        0
102
RTVSPost2010PropOp40
 70
     1
102
RTVSPost2010Prop41ColorIndex
 90
       18
102
RTVSPost2010Prop41ColorRGB
 90
        0
102
RTVSPost2010PropOp41
 70
     1
102
RTVSPost2010Prop42
 90
       50
102
RTVSPost2010PropOp42
 70
     1
102
RTVSPost2010Prop43
 90
        3
102
RTVSPost2010PropOp43
 70
     1
102
RTVSPost2010Prop44ColorIndex
 90
        5
102
RTVSPost2010Prop44ColorRGB
 90
      255
102
RTVSPost2010PropOp44
 70
     1
102
RTVSPost2010Prop45
280
     0
102
RTVSPost2010PropOp45
 70
     1
102
RTVSPost2010Prop46
 90
       50
102
RTVSPost2010PropOp46
 70
     1
102
RTVSPost2010Prop47
 90
       50
102
RTVSPost2010PropOp47
 70
     1
102
RTVSPost2010Prop48
 90
       50
102
RTVSPost2010PropOp48
 70
     1
102
RTVSPost2010Prop49
280
     0
102
RTVSPost2010PropOp49
 70
     1
102
RTVSPost2010Prop50
 90
       50
102
RTVSPost2010PropOp50
 70
     1
102
RTVSPost2010Prop51ColorIndex
 90
      256
102
RTVSPost2010Prop51ColorRGB
 90
-16777216
102
RTVSPost2010PropOp51
 70
     0
102
RTVSPost2010Prop52
140
1.0
102
RTVSPost2010PropOp52
 70
     0
102
RTVSPost2010Prop53
 90
        2
102
RTVSPost2010PropOp53
 70
     1
102
RTVSPost2010Prop54
  1
strokes_ogs.tif
102
RTVSPost2010PropOp54
 70
     1
102
RTVSPost2010Prop55
280
     0
102
RTVSPost2010PropOp55
 70
     1
102
RTVSPost2010Prop56
140
1.0
102
RTVSPost2010PropOp56
 70
     1
102
RTVSPost2010Prop57
140
1.0
102
RTVSPost2010PropOp57
 70
     1
  0
ENDSEC
  0
EOF