0
SECTION
  2
HEADER
  9
$ACADVER
  1
AC1024
  9
$ACADMAINTVER
 70
     6
  9
$DWGCODEPAGE
  3
ANSI_1252
  9
$LASTSAVEDBY
  1
BirnerR
  9
$INSBASE
 10
0.0
 20
0.0
 30
0.0
  9
$EXTMIN
 10
7.382607
 20
3.563845
 30
7.382607
  9
$EXTMAX
 10
8.432607
 20
5.04883
 30
8.432607
  9
$LIMMIN
 10
7.382607
 20
3.563845
  9
$LIMMAX
 10
8.432607
 20
5.04883
  9
$ORTHOMODE
 70
     0
  9
$REGENMODE
 70
     1
  9
$FILLMODE
 70
     1
  9
$QTEXTMODE
 70
     0
  9
$MIRRTEXT
 70
     1
  9
$LTSCALE
 40
1.0
  9
$ATTMODE
 70
     1
  9
$TEXTSIZE
 40
0.2
  9
$TRACEWID
 40
0.05
  9
$TEXTSTYLE
  7
Standard
  9
$CLAYER
  8
0
  9
$CELTYPE
  6
ByLayer
  9
$CECOLOR
 62
   256
  9
$CELTSCALE
 40
1.0
  9
$DISPSILH
 70
     0
  9
$DIMSCALE
 40
1.0
  9
$DIMASZ
 40
0.18
  9
$DIMEXO
 40
0.0625
  9
$DIMDLI
 40
0.38
  9
$DIMRND
 40
0.0
  9
$DIMDLE
 40
0.0
  9
$DIMEXE
 40
0.18
  9
$DIMTP
 40
0.0
  9
$DIMTM
 40
0.0
  9
$DIMTXT
 40
0.18
  9
$DIMCEN
 40
0.09
  9
$DIMTSZ
 40
0.0
  9
$DIMTOL
 70
     0
  9
$DIMLIM
 70
     0
  9
$DIMTIH
 70
     1
  9
$DIMTOH
 70
     1
  9
$DIMSE1
 70
     0
  9
$DIMSE2
 70
     0
  9
$DIMTAD
 70
     0
  9
$DIMZIN
 70
     0
  9
$DIMBLK
  1

  9
$DIMASO
 70
     1
  9
$DIMSHO
 70
     1
  9
$DIMPOST
  1

  9
$DIMAPOST
  1

  9
$DIMALT
 70
     0
  9
$DIMALTD
 70
     2
  9
$DIMALTF
 40
25.4
  9
$DIMLFAC
 40
1.0
  9
$DIMTOFL
 70
     0
  9
$DIMTVP
 40
0.0
  9
$DIMTIX
 70
     0
  9
$DIMSOXD
 70
     0
  9
$DIMSAH
 70
     0
  9
$DIMBLK1
  1

  9
$DIMBLK2
  1

  9
$DIMSTYLE
  2
Standard
  9
$DIMCLRD
 70
     0
  9
$DIMCLRE
 70
     0
  9
$DIMCLRT
 70
     0
  9
$DIMTFAC
 40
1.0
  9
$DIMGAP
 40
0.09
  9
$DIMJUST
 70
     0
  9
$DIMSD1
 70
     0
  9
$DIMSD2
 70
     0
  9
$DIMTOLJ
 70
     1
  9
$DIMTZIN
 70
     0
  9
$DIMALTZ
 70
     0
  9
$DIMALTTZ
 70
     0
  9
$DIMUPT
 70
     0
  9
$DIMDEC
 70
     4
  9
$DIMTDEC
 70
     4
  9
$DIMALTU
 70
     2
  9
$DIMALTTD
 70
     2
  9
$DIMTXSTY
  7
Standard
  9
$DIMAUNIT
 70
     0
  9
$DIMADEC
 70
     0
  9
$DIMALTRND
 40
0.0
  9
$DIMAZIN
 70
     0
  9
$DIMDSEP
 70
    46
  9
$DIMATFIT
 70
     3
  9
$DIMFRAC
 70
     0
  9
$DIMLDRBLK
  1

  9
$DIMLUNIT
 70
     2
  9
$DIMLWD
 70
    -2
  9
$DIMLWE
 70
    -2
  9
$DIMTMOVE
 70
     0
  9
$DIMFXL
 40
1.0
  9
$DIMFXLON
 70
     0
  9
$DIMJOGANG
 40
0.785398
  9
$DIMTFILL
 70
     0
  9
$DIMTFILLCLR
 70
     0
  9
$DIMARCSYM
 70
     0
  9
$DIMLTYPE
  6

  9
$DIMLTEX1
  6

  9
$DIMLTEX2
  6

  9
$DIMTXTDIRECTION
 70
     0
  9
$LUNITS
 70
     2
  9
$LUPREC
 70
     4
  9
$SKETCHINC
 40
0.1
  9
$FILLETRAD
 40
0.5
  9
$AUNITS
 70
     0
  9
$AUPREC
 70
     0
  9
$MENU
  1
.
  9
$ELEVATION
 40
0.0
  9
$PELEVATION
 40
0.0
  9
$THICKNESS
 40
0.0
  9
$LIMCHECK
 70
     0
  9
$CHAMFERA
 40
0.0
  9
$CHAMFERB
 40
0.0
  9
$CHAMFERC
 40
0.0
  9
$CHAMFERD
 40
0.0
  9
$SKPOLY
 70
     0
  9
$TDCREATE
 40
2459144.5900939
  9
$TDUCREATE
 40
2459144.506760567
  9
$TDUPDATE
 40
2459144.590104387
  9
$TDUUPDATE
 40
2459144.506771053
  9
$TDINDWG
 40
0.0000000116
  9
$TDUSRTIMER
 40
0.0000000116
  9
$USRTIMER
 70
     1
  9
$ANGBASE
 50
0.0
  9
$ANGDIR
 70
     0
  9
$PDMODE
 70
    65
  9
$PDSIZE
 40
0.0
  9
$PLINEWID
 40
0.0
  9
$SPLFRAME
 70
     0
  9
$SPLINETYPE
 70
     6
  9
$SPLINESEGS
 70
     8
  9
$HANDSEED
  5
176
  9
$SURFTAB1
 70
     6
  9
$SURFTAB2
 70
     6
  9
$SURFTYPE
 70
     6
  9
$SURFU
 70
     6
  9
$SURFV
 70
     6
  9
$UCSBASE
  2

  9
$UCSNAME
  2

  9
$UCSORG
 10
0.0
 20
0.0
 30
0.0
  9
$UCSXDIR
 10
1.0
 20
0.0
 30
0.0
  9
$UCSYDIR
 10
0.0
 20
1.0
 30
0.0
  9
$UCSORTHOREF
  2

  9
$UCSORTHOVIEW
 70
     0
  9
$UCSORGTOP
 10
0.0
 20
0.0
 30
0.0
  9
$UCSORGBOTTOM
 10
0.0
 20
0.0
 30
0.0
  9
$UCSORGLEFT
 10
0.0
 20
0.0
 30
0.0
  9
$UCSORGRIGHT
 10
0.0
 20
0.0
 30
0.0
  9
$UCSORGFRONT
 10
0.0
 20
0.0
 30
0.0
  9
$UCSORGBACK
 10
0.0
 20
0.0
 30
0.0
  9
$PUCSBASE
  2

  9
$PUCSNAME
  2

  9
$PUCSORG
 10
0.0
 20
0.0
 30
0.0
  9
$PUCSXDIR
 10
1.0
 20
0.0
 30
0.0
  9
$PUCSYDIR
 10
0.0
 20
1.0
 30
0.0
  9
$PUCSORTHOREF
  2

  9
$PUCSORTHOVIEW
 70
     0
  9
$PUCSORGTOP
 10
0.0
 20
0.0
 30
0.0
  9
$PUCSORGBOTTOM
 10
0.0
 20
0.0
 30
0.0
  9
$PUCSORGLEFT
 10
0.0
 20
0.0
 30
0.0
  9
$PUCSORGRIGHT
 10
0.0
 20
0.0
 30
0.0
  9
$PUCSORGFRONT
 10
0.0
 20
0.0
 30
0.0
  9
$PUCSORGBACK
 10
0.0
 20
0.0
 30
0.0
  9
$USERI1
 70
     0
  9
$USERI2
 70
     0
  9
$USERI3
 70
     0
  9
$USERI4
 70
     0
  9
$USERI5
 70
     0
  9
$USERR1
 40
0.0
  9
$USERR2
 40
0.0
  9
$USERR3
 40
0.0
  9
$USERR4
 40
0.0
  9
$USERR5
 40
0.0
  9
$WORLDVIEW
 70
     1
  9
$SHADEDGE
 70
     3
  9
$SHADEDIF
 70
    70
  9
$TILEMODE
 70
     0
  9
$MAXACTVP
 70
    64
  9
$PINSBASE
 10
0.0
 20
0.0
 30
0.0
  9
$PLIMCHECK
 70
     0
  9
$PEXTMIN
 10
-0.0001
 20
-0.0001
 30
0.0
  9
$PEXTMAX
 10
0.2101
 20
0.297097
 30
0.0
  9
$PLIMMIN
 10
-0.0001
 20
-0.0001
  9
$PLIMMAX
 10
0.2101
 20
0.297097
  9
$UNITMODE
 70
     0
  9
$VISRETAIN
 70
     1
  9
$PLINEGEN
 70
     0
  9
$PSLTSCALE
 70
     0
  9
$TREEDEPTH
 70
  3020
  9
$CMLSTYLE
  2
Standard
  9
$CMLJUST
 70
     0
  9
$CMLSCALE
 40
1.0
  9
$PROXYGRAPHICS
 70
     1
  9
$MEASUREMENT
 70
     1
  9
$CELWEIGHT
370
    -1
  9
$ENDCAPS
280
     0
  9
$JOINSTYLE
280
     0
  9
$LWDISPLAY
290
     0
  9
$INSUNITS
 70
     6
  9
$HYPERLINKBASE
  1

  9
$STYLESHEET
  1

  9
$XEDIT
290
     1
  9
$CEPSNTYPE
380
     0
  9
$PSTYLEMODE
290
     1
  9
$FINGERPRINTGUID
  2
{991df398-3f4b-434c-a3f0-2753266b2ec6}
  9
$VERSIONGUID
  2
{FAEB1C32-E019-11D5-929B-00C0DF256EC4}
  9
$EXTNAMES
290
     1
  9
$PSVPSCALE
 40
0.0
  9
$OLESTARTUP
290
     0
  9
$SORTENTS
280
   127
  9
$INDEXCTL
280
     0
  9
$HIDETEXT
280
     1
  9
$XCLIPFRAME
280
     2
  9
$HALOGAP
280
     0
  9
$OBSCOLOR
 70
   257
  9
$OBSLTYPE
280
     0
  9
$INTERSECTIONDISPLAY
280
     0
  9
$INTERSECTIONCOLOR
 70
   257
  9
$DIMASSOC
280
     2
  9
$PROJECTNAME
  1

  9
$CAMERADISPLAY
290
     0
  9
$LENSLENGTH
 40
50.0
  9
$CAMERAHEIGHT
 40
0.0
  9
$STEPSPERSEC
 40
2.0
  9
$STEPSIZE
 40
6.0
  9
$3DDWFPREC
 40
2.0
  9
$PSOLWIDTH
 40
0.25
  9
$PSOLHEIGHT
 40
4.0
  9
$LOFTANG1
 40
1.570796
  9
$LOFTANG2
 40
1.570796
  9
$LOFTMAG1
 40
0.0
  9
$LOFTMAG2
 40
0.0
  9
$LOFTPARAM
 70
     7
  9
$LOFTNORMALS
280
     1
  9
$LATITUDE
 40
37.795
  9
$LONGITUDE
 40
-122.394
  9
$NORTHDIRECTION
 40
0.0
  9
$TIMEZONE
 70
 -8000
  9
$LIGHTGLYPHDISPLAY
280
     1
  9
$TILEMODELIGHTSYNCH
280
     1
  9
$CMATERIAL
347
44
  9
$SOLIDHIST
280
     0
  9
$SHOWHIST
280
     1
  9
$DWFFRAME
280
     2
  9
$DGNFRAME
280
     2
  9
$REALWORLDSCALE
290
     1
  9
$INTERFERECOLOR
 62
   256
  9
$CSHADOW
280
     0
  9
$SHADOWPLANELOCATION
 40
0.0
  0
ENDSEC
  0
SECTION
  2
CLASSES
  0
CLASS
  1
ACDBDICTIONARYWDFLT
  2
AcDbDictionaryWithDefault
  3
ObjectDBX Classes
 90
        0
 91
        3
280
     0
281
     0
  0
CLASS
  1
VISUALSTYLE
  2
AcDbVisualStyle
  3
ObjectDBX Classes
 90
     4095
 91
        3
280
     0
281
     0
  0
CLASS
  1
MATERIAL
  2
AcDbMaterial
  3
ObjectDBX Classes
 90
     1153
 91
        3
280
     0
281
     0
  0
CLASS
  1
SCALE
  2
AcDbScale
  3
ObjectDBX Classes
 90
     1153
 91
        3
280
     0
281
     0
  0
CLASS
  1
TABLESTYLE
  2
AcDbTableStyle
  3
ObjectDBX Classes
 90
     4095
 91
        3
280
     0
281
     0
  0
CLASS
  1
MLEADERSTYLE
  2
AcDbMLeaderStyle
  3
ACDB_MLEADERSTYLE_CLASS
 90
     4095
 91
        3
280
     0
281
     0
  0
CLASS
  1
SUN
  2
AcDbSun
  3
SCENEOE
 90
     1153
 91
        3
280
     0
281
     0
  0
CLASS
  1
SORTENTSTABLE
  2
AcDbSortentsTable
  3
ObjectDBX Classes
 90
        0
 91
        3
280
     0
281
     0
  0
CLASS
  1
DICTIONARYVAR
  2
AcDbDictionaryVar
  3
ObjectDBX Classes
 90
        0
 91
        3
280
     0
281
     0
  0
CLASS
  1
CELLSTYLEMAP
  2
AcDbCellStyleMap
  3
ObjectDBX Classes
 90
     1152
 91
        3
280
     0
281
     0
  0
ENDSEC
  0
SECTION
  2
TABLES
  0
TABLE
  2
VPORT
  5
8
330
0
100
AcDbSymbolTable
 70
     1
  0
VPORT
  5
29
330
8
100
AcDbSymbolTableRecord
100
AcDbViewportTableRecord
  2
*Active
 70
     0
 10
0.0
 20
0.0
 11
1.0
 21
1.0
 12
7.907607
 22
4.306338
 13
0.0
 23
0.0
 14
0.5
 24
0.5
 15
0.5
 25
0.5
 16
0.0
 26
0.0
 36
1.0
 17
0.0
 27
0.0
 37
0.0
 40
1.781982
 41
0.848493
 42
50.0
 43
0.0
 44
0.0
 50
0.0
 51
0.0
 71
     0
 72
   100
 73
     1
 74
     3
 75
     0
 76
     0
 77
     0
 78
     0
281
     0
 65
     1
110
0.0
120
0.0
130
0.0
111
1.0
121
0.0
131
0.0
112
0.0
122
1.0
132
0.0
 79
     0
146
0.0
348
2F
 60
     3
 61
     5
292
     1
282
     1
141
0.0
142
0.0
 63
   250
361
6D
  0
ENDTAB
  0
TABLE
  2
LTYPE
  5
5
330
0
100
AcDbSymbolTable
 70
     4
  0
LTYPE
  5
14
330
5
100
AcDbSymbolTableRecord
100
AcDbLinetypeTableRecord
  2
ByBlock
 70
     0
  3

 72
    65
 73
     0
 40
0.0
  0
LTYPE
  5
15
330
5
100
AcDbSymbolTableRecord
100
AcDbLinetypeTableRecord
  2
ByLayer
 70
     0
  3

 72
    65
 73
     0
 40
0.0
  0
LTYPE
  5
16
330
5
100
AcDbSymbolTableRecord
100
AcDbLinetypeTableRecord
  2
Continuous
 70
     0
  3
Solid line
 72
    65
 73
     0
 40
0.0
  0
LTYPE
  5
74
330
5
100
AcDbSymbolTableRecord
100
AcDbLinetypeTableRecord
  2
AUSGEZOGEN
 70
     0
  3
durchgezogene Linie
 72
    65
 73
     0
 40
0.0
  0
LTYPE
  5
7A
330
5
100
AcDbSymbolTableRecord
100
AcDbLinetypeTableRecord
  2
STRICHPUNKT2_S5
 70
     0
  3
Lang eng gestrichelt bzw. punktiert
 72
    65
 73
     4
 40
0.05
 49
0.035
 74
     0
 49
-0.005
 74
     0
 49
0.005
 74
     0
 49
-0.005
 74
     0
  0
LTYPE
  5
7B
330
5
100
AcDbSymbolTableRecord
100
AcDbLinetypeTableRecord
  2
VERDECKT2_S2
 70
     0
  3
Kurzgestrichelt
 72
    65
 73
     2
 40
0.015
 49
0.01
 74
     0
 49
-0.005
 74
     0
  0
ENDTAB
  0
TABLE
  2
LAYER
  5
2
330
0
100
AcDbSymbolTable
 70
     4
  0
LAYER
  5
10
330
2
100
AcDbSymbolTableRecord
100
AcDbLayerTableRecord
  2
0
 70
     0
 62
     7
  6
Continuous
370
    -3
390
F
347
46
  0
LAYER
  5
76
330
2
100
AcDbSymbolTableRecord
100
AcDbLayerTableRecord
  2
PLAN_1412
 70
     0
 62
     7
  6
AUSGEZOGEN
370
    -3
390
F
347
46
1001
AcCmTransparency
1071
 33554687
1001
AcAecLayerStandard
1000

1000
Dokument-Layer
  0
LAYER
  5
78
330
2
100
AcDbSymbolTableRecord
100
AcDbLayerTableRecord
  2
TB_1412
 70
     0
 62
     7
  6
AUSGEZOGEN
370
    -3
390
F
347
46
1001
AcCmTransparency
1071
 33554687
1001
AcAecLayerStandard
1000

1000
Dokument-Layer
  0
LAYER
  5
7C
330
2
100
AcDbSymbolTableRecord
100
AcDbLayerTableRecord
  2
XR$1$TB_1412_1
 70
     0
 62
     7
  6
AUSGEZOGEN
370
    -3
390
F
347
46
1001
AcCmTransparency
1071
 33554687
1001
AcAecLayerStandard
1000

1000
Dokument-Layer
  0
ENDTAB
  0
TABLE
  2
STYLE
  5
3
330
0
100
AcDbSymbolTable
 70
     2
  0
STYLE
  5
11
330
3
100
AcDbSymbolTableRecord
100
AcDbTextStyleTableRecord
  2
Standard
 70
     0
 40
0.0
 41
1.0
 50
0.0
 71
     0
 42
0.2
  3
txt
  4

  0
STYLE
  5
79
330
3
100
AcDbSymbolTableRecord
100
AcDbTextStyleTableRecord
  2
ARIAL
 70
     0
 40
0.0
 41
1.0
 50
0.0
 71
     0
 42
0.2
  3
ARIAL.TTF
  4

1001
ACAD
1000
Arial
1071
       34
  0
ENDTAB
  0
TABLE
  2
VIEW
  5
6
330
0
100
AcDbSymbolTable
 70
     0
  0
ENDTAB
  0
TABLE
  2
UCS
  5
7
330
0
100
AcDbSymbolTable
 70
     0
  0
ENDTAB
  0
TABLE
  2
APPID
  5
9
330
0
100
AcDbSymbolTable
 70
     4
  0
APPID
  5
12
330
9
100
AcDbSymbolTableRecord
100
AcDbRegAppTableRecord
  2
ACAD
 70
     0
  0
APPID
  5
75
330
9
100
AcDbSymbolTableRecord
100
AcDbRegAppTableRecord
  2
AcCmTransparency
 70
     0
  0
APPID
  5
77
330
9
100
AcDbSymbolTableRecord
100
AcDbRegAppTableRecord
  2
AcAecLayerStandard
 70
     0
  0
APPID
  5
95
330
9
100
AcDbSymbolTableRecord
100
AcDbRegAppTableRecord
  2
NEM_ODX
 70
     0
  0
ENDTAB
  0
TABLE
  2
DIMSTYLE
  5
A
330
0
100
AcDbSymbolTable
 70
     1
100
AcDbDimStyleTable
  0
DIMSTYLE
105
27
330
A
100
AcDbSymbolTableRecord
100
AcDbDimStyleTableRecord
  2
Standard
 70
     0
178
     0
340
11
  0
ENDTAB
  0
TABLE
  2
BLOCK_RECORD
  5
1
330
0
100
AcDbSymbolTable
 70
     0
  0
BLOCK_RECORD
  5
1F
102
{ACAD_XDICTIONARY
360
139
102
}
330
1
100
AcDbSymbolTableRecord
100
AcDbBlockTableRecord
  2
*Model_Space
340
22
 70
     0
280
     1
281
     0
  0
BLOCK_RECORD
  5
6E
330
1
100
AcDbSymbolTableRecord
100
AcDbBlockTableRecord
  2
*Paper_Space
340
6F
 70
     0
280
     1
281
     0
  0
ENDTAB
  0
ENDSEC
  0
SECTION
  2
BLOCKS
  0
BLOCK
  5
20
330
1F
100
AcDbEntity
  8
0
100
AcDbBlockBegin
  2
*Model_Space
 70
     0
 10
0.0
 20
0.0
 30
0.0
  3
*Model_Space
  1

  0
ENDBLK
  5
21
330
1F
100
AcDbEntity
  8
0
100
AcDbBlockEnd
  0
BLOCK
  5
70
330
6E
100
AcDbEntity
 67
     1
  8
0
100
AcDbBlockBegin
  2
*Paper_Space
 70
     0
 10
0.0
 20
0.0
 30
0.0
  3
*Paper_Space
  1

  0
ENDBLK
  5
71
330
6E
100
AcDbEntity
 67
     1
  8
0
100
AcDbBlockEnd
  0
ENDSEC
  0
SECTION
  2
ENTITIES
  0
HATCH
  5
7D
330
1F
100
AcDbEntity
  8
XR$1$TB_1412_1
  6
AUSGEZOGEN
 62
    18
420
        0
440
 33554687
370
    35
100
AcDbHatch
 10
0.0
 20
0.0
 30
0.0
210
0.0
220
0.0
230
1.0
  2
SOLID
 70
     1
 71
     0
 91
       18
 92
        3
 72
     0
 73
     1
 93
       27
 10
7.501862637697319
 20
3.701846930763919
 10
7.505856381158261
 20
3.701846930763919
 10
7.506433507548812
 20
3.701874327144731
 10
7.506964492666422
 20
3.701956876765866
 10
7.507459429914536
 20
3.702085207181253
 10
7.507908225889699
 20
3.702268330358273
 10
7.508320253037986
 20
3.702488222362172
 10
7.508686499392017
 20
3.702762907127693
 10
7.509318779022891
 20
3.703413210693308
 10
7.509566067407606
 20
3.703788829493411
 10
7.509785959411492
 20
3.704200856641694
 10
7.510124809384713
 20
3.70509880907072
 10
7.510316944529102
 20
3.70609697457694
 10
7.510381109736795
 20
3.70716867773691
 10
7.510316944529102
 20
3.70831391855065
 10
7.510124809384713
 20
3.709348852883743
 10
7.509969082588515
 20
3.709816033272348
 10
7.509785959411492
 20
3.710255456801449
 10
7.509566067407606
 20
3.710658832461055
 10
7.509318779022891
 20
3.711025078815083
 10
7.508686499392017
 20
3.711647985999893
 10
7.508320253037986
 20
3.711895274384601
 10
7.507908225889699
 20
3.712105793942423
 10
7.507459429914536
 20
3.712270893184703
 10
7.506964492666422
 20
3.712389851154025
 10
7.505856381158261
 20
3.712490785188602
 10
7.501862637697319
 20
3.712490785188602
 97
        0
 92
        3
 72
     0
 73
     1
 93
       12
 10
7.513568822835911
 20
3.701846930763919
 10
7.521290636959624
 20
3.701846930763919
 10
7.521290636959624
 20
3.703175294754672
 10
7.515171871592182
 20
3.703175294754672
 10
7.515171871592182
 20
3.706637692619306
 10
7.52021893379965
 20
3.706637692619306
 10
7.52021893379965
 20
3.707965696131363
 10
7.515171871592182
 20
3.707965696131363
 10
7.515171871592182
 20
3.711162421197844
 10
7.521024964161472
 20
3.711162421197844
 10
7.521024964161472
 20
3.712490785188602
 10
7.513568822835911
 20
3.712490785188602
 97
        0
 92
        3
 72
     0
 73
     1
 93
       38
 10
7.530862427745637
 20
3.712490785188602
 10
7.530862427745637
 20
3.705575001426701
 10
7.530825658918752
 20
3.704924697861085
 10
7.530716073395507
 20
3.70437496785134
 10
7.530514205326355
 20
3.703907787462733
 10
7.53023050859345
 20
3.703541541108696
 10
7.529863901760727
 20
3.703266856343174
 10
7.529406093818187
 20
3.703065348752721
 10
7.528856363808449
 20
3.702946030304702
 10
7.528206060242828
 20
3.70290962195652
 10
7.527555756677204
 20
3.702946030304702
 10
7.527006026667467
 20
3.703065348752721
 10
7.526548218724922
 20
3.703266856343174
 10
7.526172599924827
 20
3.703541541108696
 10
7.525897915159297
 20
3.703907787462733
 10
7.525696407568845
 20
3.70437496785134
 10
7.525586461566898
 20
3.704924697861085
 10
7.525540680772643
 20
3.705575001426701
 10
7.525540680772643
 20
3.712490785188602
 10
7.524212316781897
 20
3.712490785188602
 10
7.524212316781897
 20
3.705309328628555
 10
7.524285854435664
 20
3.704457517472476
 10
7.524496373993487
 20
3.703715652318348
 10
7.524844596412764
 20
3.703074360720099
 10
7.525311776801373
 20
3.702543015123791
 10
7.52588854271323
 20
3.702130987975512
 10
7.526575615105736
 20
3.701828546350482
 10
7.527345237119378
 20
3.701645423173463
 10
7.528206060242828
 20
3.701581257965767
 10
7.529067243844977
 20
3.701645423173463
 10
7.52983650537991
 20
3.701828546350482
 10
7.53052357777242
 20
3.702130987975512
 10
7.531100704162971
 20
3.702543015123791
 10
7.531567884551583
 20
3.703074360720099
 10
7.531906734524804
 20
3.703715652318348
 10
7.532126626528695
 20
3.704457517472476
 10
7.532199803703759
 20
3.705309328628555
 10
7.532199803703759
 20
3.712490785188602
 97
        0
 92
        3
 72
     0
 73
     1
 93
        8
 10
7.534856171206571
 20
3.712490785188602
 10
7.534856171206571
 20
3.711162421197844
 10
7.538052896273054
 20
3.711162421197844
 10
7.538052896273054
 20
3.701846930763919
 10
7.539380899785108
 20
3.701846930763919
 10
7.539380899785108
 20
3.711162421197844
 10
7.542568612884221
 20
3.711162421197844
 10
7.542568612884221
 20
3.712490785188602
 97
        0
 92
        3
 72
     0
 73
     1
 93
       96
 10
7.545573202806314
 20
3.708927453289394
 10
7.545783722364137
 20
3.708405480139156
 10
7.546113560369984
 20
3.707993092512174
 10
7.546534959964345
 20
3.707654242538958
 10
7.547038548701134
 20
3.707388569740813
 10
7.547606663124319
 20
3.707187062150351
 10
7.548824720634432
 20
3.706866596590573
 10
7.550043138623227
 20
3.706591551346364
 10
7.550610892567715
 20
3.706436185028846
 10
7.551114841783209
 20
3.706234677438391
 10
7.551535880898861
 20
3.705987028574991
 10
7.551865718904708
 20
3.705666563015213
 10
7.552076598941232
 20
3.705272559801668
 10
7.552149776116301
 20
3.704777983032249
 10
7.552094622875972
 20
3.704310802643644
 10
7.551920872145031
 20
3.703926171876174
 10
7.551655199346872
 20
3.703596333870328
 10
7.551316349373665
 20
3.703340033518247
 10
7.550913334192749
 20
3.70314753789516
 10
7.55046417773889
 20
3.703019567958467
 10
7.549987985382908
 20
3.702937018337336
 10
7.549493408613492
 20
3.70290962195652
 10
7.548824720634432
 20
3.702946030304702
 10
7.548238582276499
 20
3.703065348752721
 10
7.547734633061013
 20
3.703266856343174
 10
7.547295209531913
 20
3.703541541108696
 10
7.546937975145254
 20
3.703907787462733
 10
7.546644545487598
 20
3.70437496785134
 10
7.546434025929768
 20
3.704924697861085
 10
7.546296683547004
 20
3.705575001426701
 10
7.544968319556254
 20
3.705309328628555
 10
7.545060241623454
 20
3.704384340297405
 10
7.545179199592785
 20
3.70397195267043
 10
7.545334926388984
 20
3.703605706316395
 10
7.545536433979436
 20
3.703266856343174
 10
7.545765337950703
 20
3.702955402750773
 10
7.546333452373888
 20
3.702442441567912
 10
7.547001779874259
 20
3.702057810800445
 10
7.547771401887898
 20
3.701792138002293
 10
7.548604828630534
 20
3.701636411206089
 10
7.549493408613492
 20
3.701581257965767
 10
7.550272042594497
 20
3.701636411206089
 10
7.551013907748635
 20
3.701782765556225
 10
7.551691607695069
 20
3.702048438354372
 10
7.552287118499062
 20
3.702415045187099
 10
7.552781695268477
 20
3.702891237543079
 10
7.55315731406858
 20
3.703486748347073
 10
7.553294656451348
 20
3.703834610287666
 10
7.553395590485911
 20
3.704200856641694
 10
7.55347777962836
 20
3.705043655830403
 10
7.553404602453295
 20
3.705767497049785
 10
7.553194082895465
 20
3.706362647375086
 10
7.552864244889617
 20
3.706839200209766
 10
7.552442845295256
 20
3.707214458531167
 10
7.551938896079777
 20
3.707507527710131
 10
7.551380154102662
 20
3.707736792160087
 10
7.550153084625173
 20
3.70806663016594
 10
7.548934666636375
 20
3.708331942485394
 10
7.548375924659267
 20
3.708487669281594
 10
7.547871975443777
 20
3.708671152937308
 10
7.54744156388205
 20
3.708909068875952
 10
7.54711172587621
 20
3.70921151050098
 10
7.546901206318373
 20
3.709605153235823
 10
7.546828029143311
 20
3.710100090483938
 10
7.546892194351003
 20
3.710457324870597
 10
7.547056933114571
 20
3.710750394049561
 10
7.547304221499286
 20
3.710988309988203
 10
7.547624687059062
 20
3.711162421197844
 10
7.548000305859165
 20
3.711281379167171
 10
7.548403321040071
 20
3.711363928788304
 10
7.54922773581534
 20
3.711428093995997
 10
7.549795850238523
 20
3.711400697615185
 10
7.550308450942688
 20
3.71131814799405
 10
7.550766619363923
 20
3.711171433165224
 10
7.551151250131385
 20
3.710960913607387
 10
7.551462703723796
 20
3.710667844428424
 10
7.551691607695069
 20
3.710301598074395
 10
7.55183832252389
 20
3.709843429653159
 10
7.551884103318149
 20
3.709293699643422
 10
7.55347777962836
 20
3.709293699643422
 10
7.553230491243645
 20
3.710136498832127
 10
7.552891641270431
 20
3.710850967605444
 10
7.552461229708697
 20
3.711446478409436
 10
7.551948268525841
 20
3.711922670765418
 10
7.551362130167916
 20
3.712289277598144
 10
7.550711826602292
 20
3.712554589917598
 10
7.549997357828979
 20
3.712701304746422
 10
7.54922773581534
 20
3.712756097508052
 10
7.548531651455469
 20
3.712710316713803
 10
7.547853951509027
 20
3.712554589917598
 10
7.547231044324217
 20
3.712307301532884
 10
7.546662929901035
 20
3.711959439592298
 10
7.54618673754506
 20
3.71151064361713
 10
7.545820491191022
 20
3.710960913607387
 10
7.545582214773691
 20
3.710310610041761
 10
7.545499665152551
 20
3.709559372441569
 97
        0
 92
        3
 72
     0
 73
     1
 93
       78
 10
7.557801361095138
 20
3.708038873306432
 10
7.557984484272151
 20
3.708844903668254
 10
7.558295937864558
 20
3.709568744887642
 10
7.558735721872348
 20
3.71019165207245
 10
7.559294463849467
 20
3.710713625222679
 10
7.559981175763271
 20
3.711098255990148
 10
7.560796578571168
 20
3.711336532407491
 10
7.561730939348378
 20
3.711428093995997
 10
7.562234528085166
 20
3.711391325169114
 10
7.562747489268033
 20
3.711272367199792
 10
7.56325143848352
 20
3.711089244022782
 10
7.56372763083949
 20
3.710823571224622
 10
7.564149030433851
 20
3.710493733218782
 10
7.56449725285314
 20
3.710081706070496
 10
7.564762565172594
 20
3.70959614126845
 10
7.564918291968799
 20
3.709028387323959
 10
7.566255667926915
 20
3.709293699643422
 10
7.565989995128766
 20
3.710136498832127
 10
7.565623748774735
 20
3.710850967605444
 10
7.565147556418753
 20
3.711446478409436
 10
7.564588814441639
 20
3.711922670765418
 10
7.563956534810765
 20
3.712289277598144
 10
7.563260450450885
 20
3.712554589917598
 10
7.562509573329383
 20
3.712701304746422
 10
7.561730939348378
 20
3.712756097508052
 10
7.561098659717507
 20
3.712728701127246
 10
7.560503509392206
 20
3.712646511984804
 10
7.55995377938246
 20
3.712518181569418
 10
7.559440818199594
 20
3.712335058392398
 10
7.558964625843626
 20
3.712105793942423
 10
7.558524841835814
 20
3.711831109176905
 10
7.558131199100979
 20
3.71151064361713
 10
7.557773964714328
 20
3.711162421197844
 10
7.557453138675854
 20
3.710768417984303
 10
7.557178453910328
 20
3.710338006422584
 10
7.556949549939058
 20
3.70988019848004
 10
7.556757054315975
 20
3.709385621710622
 10
7.556491381517834
 20
3.708322930518016
 10
7.556409192375388
 20
3.70716867773691
 10
7.556491381517834
 20
3.7060147854345
 10
7.556757054315975
 20
3.704952094241891
 10
7.556949549939058
 20
3.704457517472476
 10
7.557178453910328
 20
3.703999349051244
 10
7.557453138675854
 20
3.703568937489512
 10
7.557773964714328
 20
3.703175294754672
 10
7.558131199100979
 20
3.702827072335393
 10
7.558524841835814
 20
3.702506606775604
 10
7.558964625843626
 20
3.702231561531393
 10
7.559440818199594
 20
3.70200265756012
 10
7.55995377938246
 20
3.701819534383105
 10
7.560503509392206
 20
3.701691203967719
 10
7.561098659717507
 20
3.701608654346582
 10
7.561730939348378
 20
3.701581257965767
 10
7.562527597264128
 20
3.701654795619526
 10
7.563297219277771
 20
3.701874327144731
 10
7.564039084431901
 20
3.702222549564014
 10
7.564726156824399
 20
3.702708114366058
 10
7.565330679595765
 20
3.703321649104806
 10
7.565843640778632
 20
3.704054502291569
 10
7.566246655959545
 20
3.704887929034201
 10
7.566521340725063
 20
3.705840674224854
 10
7.564918291968799
 20
3.705840674224854
 10
7.564771937618658
 20
3.705180998213162
 10
7.564533661201324
 20
3.704594859855237
 10
7.564213195641547
 20
3.704091271118441
 10
7.563828564874078
 20
3.703678883491468
 10
7.563370396452836
 20
3.703349045485613
 10
7.562866807716044
 20
3.703111129546969
 10
7.562317077706306
 20
3.702964414718152
 10
7.561730939348378
 20
3.70290962195652
 10
7.560796578571168
 20
3.702991811098962
 10
7.559981175763271
 20
3.703239099483673
 10
7.559294463849467
 20
3.703624090729836
 10
7.558735721872348
 20
3.704146063880069
 10
7.558295937864558
 20
3.704768971064883
 10
7.557984484272151
 20
3.705492451805571
 10
7.557801361095138
 20
3.706298482167389
 10
7.557737195887443
 20
3.70716867773691
 97
        0
 92
        3
 72
     0
 73
     1
 93
       12
 10
7.569709053824183
 20
3.701846930763919
 10
7.571037057336242
 20
3.701846930763919
 10
7.571037057336242
 20
3.706637692619306
 10
7.57662447710738
 20
3.706637692619306
 10
7.57662447710738
 20
3.701846930763919
 10
7.578227525863658
 20
3.701846930763919
 10
7.578227525863658
 20
3.712490785188602
 10
7.57662447710738
 20
3.712490785188602
 10
7.57662447710738
 20
3.707965696131363
 10
7.571037057336242
 20
3.707965696131363
 10
7.571037057336242
 20
3.712490785188602
 10
7.569709053824183
 20
3.712490785188602
 97
        0
 92
        3
 72
     0
 73
     1
 93
       12
 10
7.58168091176092
 20
3.701846930763919
 10
7.58913669260779
 20
3.701846930763919
 10
7.58913669260779
 20
3.703175294754672
 10
7.583018287719031
 20
3.703175294754672
 10
7.583018287719031
 20
3.706637692619306
 10
7.58833066224596
 20
3.706637692619306
 10
7.58833066224596
 20
3.707965696131363
 10
7.583018287719031
 20
3.707965696131363
 10
7.583018287719031
 20
3.711162421197844
 10
7.58913669260779
 20
3.711162421197844
 10
7.58913669260779
 20
3.712490785188602
 10
7.58168091176092
 20
3.712490785188602
 97
        0
 92
        3
 72
     0
 73
     1
 93
       90
 10
7.504390674784747
 20
3.694280843436402
 10
7.5040885936384
 20
3.694574273094058
 10
7.504015055984644
 20
3.694739011857633
 10
7.503997032049894
 20
3.694931507480717
 10
7.504042812844149
 20
3.695206192246244
 10
7.50417078278085
 20
3.695435096217512
 10
7.504354266436552
 20
3.695618219394524
 10
7.504592182375196
 20
3.69576493422336
 10
7.505114516004127
 20
3.695939045432993
 10
7.505590708360102
 20
3.695993838194632
 10
7.506378354308486
 20
3.695902276606126
 10
7.506762985075962
 20
3.695783318636792
 10
7.507120219462625
 20
3.695627591840597
 10
7.507761511060864
 20
3.695206192246244
 10
7.50824707586291
 20
3.69466583468257
 10
7.510381109736795
 20
3.695993838194632
 10
7.509868148553938
 20
3.696470030550605
 10
7.509337163436332
 20
3.69689143014496
 10
7.50878743342659
 20
3.697248664531611
 10
7.508219679482107
 20
3.697560118124022
 10
7.507633180645477
 20
3.697798394541358
 10
7.507047042287555
 20
3.697981517718374
 10
7.506451531483563
 20
3.698082451752953
 10
7.505856381158261
 20
3.698118860101137
 10
7.504986185588747
 20
3.698073079306878
 10
7.504180155226917
 20
3.697917352510674
 10
7.503456314007534
 20
3.697661052158594
 10
7.502833406822716
 20
3.69729444532587
 10
7.502311433672494
 20
3.696809241002518
 10
7.501926802905022
 20
3.696213730198519
 10
7.501789460522261
 20
3.695874880225307
 10
7.501679514520307
 20
3.695499261425208
 10
7.501596964899181
 20
3.69466583468257
 10
7.501652118139496
 20
3.694088708292007
 10
7.501807844935699
 20
3.693566374663087
 10
7.502055133320413
 20
3.693099554753173
 10
7.502393983293616
 20
3.692687167126196
 10
7.502815382887977
 20
3.692339305185604
 10
7.503318971624766
 20
3.692064259941388
 10
7.503905109982697
 20
3.691853740383553
 10
7.504546401580941
 20
3.691716398000794
 10
7.50668079593352
 20
3.691276613993005
 10
7.507147976322125
 20
3.691166667991054
 10
7.507468441881906
 20
3.690992556781413
 10
7.507660937504989
 20
3.690754640842766
 10
7.507715730266616
 20
3.690406418423483
 10
7.507669949472358
 20
3.690122361211894
 10
7.507541619056978
 20
3.689866060859811
 10
7.507340111466511
 20
3.689637156888546
 10
7.50708381111443
 20
3.689444661265454
 10
7.506799753902841
 20
3.68928893446925
 10
7.506479288343064
 20
3.689169976499937
 10
7.505856381158261
 20
3.689078414911422
 10
7.504949416761854
 20
3.689169976499937
 10
7.504555774027017
 20
3.68928893446925
 10
7.504189167194287
 20
3.689444661265454
 10
7.503538863628673
 20
3.689866060859811
 10
7.502925328889924
 20
3.690406418423483
 10
7.500799946504721
 20
3.689343727230882
 10
7.501386445341341
 20
3.688794357699837
 10
7.501963571731889
 20
3.688336189278605
 10
7.502522313709011
 20
3.687969942924568
 10
7.503099079620864
 20
3.6876768737456
 10
7.503676206011423
 20
3.68746599370908
 10
7.504280728782793
 20
3.687319639358948
 10
7.504913008413671
 20
3.687237089737815
 10
7.505590708360102
 20
3.687209693356999
 10
7.506332573514243
 20
3.687246462183879
 10
7.507120219462625
 20
3.687347035739762
 10
7.507926249824439
 20
3.68754854333022
 10
7.508686499392017
 20
3.687878381336062
 10
7.509034721811302
 20
3.688098273339961
 10
7.509355187371079
 20
3.688354573692042
 10
7.509639244582668
 20
3.688657015317074
 10
7.509895905413447
 20
3.689014249703727
 10
7.5100974130039
 20
3.689407892438576
 10
7.510253139800097
 20
3.689866060859811
 10
7.510344701388615
 20
3.690369649596603
 10
7.510381109736795
 20
3.690937764019784
 10
7.510344701388615
 20
3.691368175581509
 10
7.510243767354034
 20
3.691752806348986
 10
7.510088040557824
 20
3.69208264435483
 10
7.509886532967376
 20
3.692375713533786
 10
7.509630232615288
 20
3.692632374364568
 10
7.509346175403706
 20
3.692851905889769
 10
7.508668475457271
 20
3.693200128309056
 10
7.507908225889699
 20
3.693438404726394
 10
7.507102195527867
 20
3.69361251593604
 10
7.505590708360102
 20
3.693868816288121
 10
7.504894624000234
 20
3.694051939465133
 97
        0
 92
        3
 72
     0
 73
     1
 93
        8
 10
7.516765547902389
 20
3.695728165396476
 10
7.519421915405197
 20
3.695728165396476
 10
7.519421915405197
 20
3.697853187302988
 10
7.511443800929403
 20
3.697853187302988
 10
7.511443800929403
 20
3.695728165396476
 10
7.514100168432204
 20
3.695728165396476
 10
7.514100168432204
 20
3.687484378122523
 10
7.516765547902389
 20
3.687484378122523
 97
        0
 92
        3
 72
     0
 73
     1
 93
       12
 10
7.521290636959624
 20
3.687484378122523
 10
7.529268751435426
 20
3.687484378122523
 10
7.529268751435426
 20
3.689343727230882
 10
7.523681331664288
 20
3.689343727230882
 10
7.523681331664288
 20
3.691734421935545
 10
7.528471733040977
 20
3.691734421935545
 10
7.528471733040977
 20
3.693868816288121
 10
7.523681331664288
 20
3.693868816288121
 10
7.523681331664288
 20
3.695728165396476
 10
7.528737405839129
 20
3.695728165396476
 10
7.528737405839129
 20
3.697853187302988
 10
7.521290636959624
 20
3.697853187302988
 97
        0
 92
        3
 72
     0
 73
     1
 93
        4
 10
7.531128100543786
 20
3.687484378122523
 10
7.533793480013967
 20
3.687484378122523
 10
7.533793480013967
 20
3.697853187302988
 10
7.531128100543786
 20
3.697853187302988
 97
        0
 92
        3
 72
     0
 73
     1
 93
       10
 10
7.538584241869358
 20
3.687484378122523
 10
7.538584241869358
 20
3.693868816288121
 10
7.542302940086069
 20
3.687484378122523
 10
7.544968319556254
 20
3.687484378122523
 10
7.544968319556254
 20
3.697853187302988
 10
7.542568612884221
 20
3.697853187302988
 10
7.542568612884221
 20
3.69120343681793
 10
7.53884991466751
 20
3.697853187302988
 10
7.53618417471863
 20
3.697853187302988
 10
7.53618417471863
 20
3.687484378122523
 97
        0
 92
        3
 72
     0
 73
     1
 93
       10
 10
7.555877846779087
 20
3.695728165396476
 10
7.555877846779087
 20
3.697853187302988
 10
7.547359014260917
 20
3.697853187302988
 10
7.547359014260917
 20
3.695728165396476
 10
7.552681121712598
 20
3.695728165396476
 10
7.547093701941456
 20
3.689343727230882
 10
7.547093701941456
 20
3.687484378122523
 10
7.555877846779087
 20
3.687484378122523
 10
7.555877846779087
 20
3.689343727230882
 10
7.550290427007934
 20
3.689343727230882
 97
        0
 92
        3
 72
     0
 73
     1
 93
       12
 10
7.558002868685591
 20
3.687484378122523
 10
7.565989995128766
 20
3.687484378122523
 10
7.565989995128766
 20
3.689343727230882
 10
7.56066824815578
 20
3.689343727230882
 10
7.56066824815578
 20
3.691734421935545
 10
7.56518396476694
 20
3.691734421935545
 10
7.56518396476694
 20
3.693868816288121
 10
7.56066824815578
 20
3.693868816288121
 10
7.56066824815578
 20
3.695728165396476
 10
7.565715310363244
 20
3.695728165396476
 10
7.565715310363244
 20
3.697853187302988
 10
7.558002868685591
 20
3.697853187302988
 97
        0
 92
        3
 72
     0
 73
     1
 93
       42
 10
7.570506072218635
 20
3.697853187302988
 10
7.567849704715827
 20
3.697853187302988
 10
7.567849704715827
 20
3.690937764019784
 10
7.567877101096631
 20
3.690461211185113
 10
7.567959650717763
 20
3.690012415209945
 10
7.568087620654464
 20
3.689609400029031
 10
7.568252719896729
 20
3.689234141707626
 10
7.568719900285334
 20
3.688592850109379
 10
7.569315050610643
 20
3.688079888926521
 10
7.570002123003149
 20
3.68769525815905
 10
7.570762372570717
 20
3.687420212914827
 10
7.571568402932535
 20
3.687264486118631
 10
7.572374433294361
 20
3.687209693356999
 10
7.57308890206767
 20
3.687264486118631
 10
7.573821755254437
 20
3.687420212914827
 10
7.574536224027754
 20
3.68769525815905
 10
7.57519553956074
 20
3.688079888926521
 10
7.575772665951306
 20
3.688592850109379
 10
7.576221461926467
 20
3.689234141707626
 10
7.576395573136113
 20
3.689609400029031
 10
7.576523903551493
 20
3.690012415209945
 10
7.576597080726573
 20
3.690461211185113
 10
7.57662447710738
 20
3.690937764019784
 10
7.57662447710738
 20
3.697853187302988
 10
7.574233782402716
 20
3.697853187302988
 10
7.574233782402716
 20
3.69120343681793
 10
7.574206386021906
 20
3.690809433604396
 10
7.574133208846837
 20
3.69042480283692
 10
7.573995866464077
 20
3.69006756845027
 10
7.573803370840997
 20
3.689737730444425
 10
7.573547070488909
 20
3.689472057646273
 10
7.573226244450438
 20
3.68926153808844
 10
7.572832601715596
 20
3.689124195705683
 10
7.572374433294361
 20
3.689078414911422
 10
7.571907252905752
 20
3.689124195705683
 10
7.571522622138287
 20
3.68926153808844
 10
7.571202156578503
 20
3.689472057646273
 10
7.570945495747728
 20
3.689737730444425
 10
7.570743988157275
 20
3.69006756845027
 10
7.570615657741881
 20
3.69042480283692
 10
7.570533468599439
 20
3.690809433604396
 10
7.570506072218635
 20
3.69120343681793
 97
        0
 92
        3
 72
     0
 73
     1
 93
       75
 10
7.578832048635024
 20
3.691386559994951
 10
7.579051940638921
 20
3.690360637629232
 10
7.57922605184856
 20
3.68988444527325
 10
7.579427559439017
 20
3.689444661265454
 10
7.579674847823732
 20
3.689041646084546
 10
7.579958905035317
 20
3.688675399730515
 10
7.580627593014386
 20
3.688052492545709
 10
7.581021235749228
 20
3.687805204160999
 10
7.581451647310955
 20
3.687594324124473
 10
7.581918827699552
 20
3.687429585360898
 10
7.582422776915045
 20
3.687310266912879
 10
7.583549272836641
 20
3.687209693356999
 10
7.584493006059922
 20
3.687264486118631
 10
7.585308048389117
 20
3.687447969774341
 10
7.585665282775786
 20
3.687594324124473
 10
7.585976736368186
 20
3.687777447301494
 10
7.586251421133711
 20
3.68800671175145
 10
7.586471313137612
 20
3.688281396516975
 10
7.586471313137612
 20
3.687484378122523
 10
7.58860570749018
 20
3.687484378122523
 10
7.58860570749018
 20
3.693071797893668
 10
7.584080618432949
 20
3.693071797893668
 10
7.584080618432949
 20
3.69120343681793
 10
7.586205640339453
 20
3.69120343681793
 10
7.586150847577828
 20
3.690745268396699
 10
7.585985748335559
 20
3.690351625661859
 10
7.585747832396908
 20
3.690030799623388
 10
7.58544539077189
 20
3.6897744992713
 10
7.585106540798668
 20
3.689582003648224
 10
7.584749306412017
 20
3.689444661265454
 10
7.584080618432949
 20
3.689343727230882
 10
7.583430314867321
 20
3.689398880471205
 10
7.58288058485758
 20
3.689582003648224
 10
7.582413764947677
 20
3.689866060859811
 10
7.582047158114951
 20
3.690241679659906
 10
7.581772473349425
 20
3.690708860048517
 10
7.581570965758962
 20
3.691249217612187
 10
7.581451647310955
 20
3.691862752350933
 10
7.581415238962763
 20
3.692531440329989
 10
7.581470031724391
 20
3.693374239518698
 10
7.581607374107152
 20
3.694088708292007
 10
7.581836638557128
 20
3.694683858617313
 10
7.58214809214952
 20
3.695160411451992
 10
7.582532722916993
 20
3.695526657806018
 10
7.58299053085953
 20
3.69579233060417
 10
7.583503492042386
 20
3.695948057400372
 10
7.584080618432949
 20
3.695993838194632
 10
7.584822483587075
 20
3.695902276606126
 10
7.585161694038995
 20
3.695783318636792
 10
7.5854727871527
 20
3.695627591840597
 10
7.586022517162437
 20
3.695206192246244
 10
7.586471313137612
 20
3.69466583468257
 10
7.58860570749018
 20
3.695462492598324
 10
7.588174935449766
 20
3.696112796163947
 10
7.587698743093781
 20
3.696662526173692
 10
7.587176769943548
 20
3.697120694594923
 10
7.586608655520362
 20
3.697486940948953
 10
7.585985748335559
 20
3.697770998160538
 10
7.585308048389117
 20
3.697972505750999
 10
7.584584567648442
 20
3.698082451752953
 10
7.5838149456348
 20
3.698118860101137
 10
7.583183026482613
 20
3.698091463720321
 10
7.582605900092058
 20
3.698008914099181
 10
7.582065542528388
 20
3.697880944162493
 10
7.581561593312897
 20
3.697697460506788
 10
7.581103785370357
 20
3.69746855653551
 10
7.580691397743379
 20
3.697193871769992
 10
7.580316139421982
 20
3.69688241817758
 10
7.579986301416142
 20
3.696525183790929
 10
7.579693232237169
 20
3.696131180577389
 10
7.579445943852454
 20
3.695709780983039
 10
7.579235063815934
 20
3.695242961073121
 10
7.579060952606291
 20
3.694757396271076
 10
7.578832048635024
 20
3.693694705078475
 10
7.578758871459955
 20
3.692531440329989
 97
        0
 92
       18
 72
     0
 73
     1
 93
       19
 10
7.505590708360102
 20
3.711162421197844
 10
7.506424135102741
 20
3.711089244022782
 10
7.507138603876061
 20
3.710869352018881
 10
7.507734114680061
 20
3.710530502045664
 10
7.508219679482107
 20
3.710063321657055
 10
7.508585925836138
 20
3.709486195266507
 10
7.508842226188212
 20
3.708799122873998
 10
7.508997952984417
 20
3.708029861339061
 10
7.509043733778675
 20
3.70716867773691
 10
7.508997952984417
 20
3.706307854613466
 10
7.508842226188212
 20
3.705538232599816
 10
7.508585925836138
 20
3.704851520686009
 10
7.508219679482107
 20
3.704274394295461
 10
7.507734114680061
 20
3.703807213906854
 10
7.507138603876061
 20
3.703468363933634
 10
7.506424135102741
 20
3.703248471929741
 10
7.505590708360102
 20
3.703175294754672
 10
7.503190641209385
 20
3.703175294754672
 10
7.503190641209385
 20
3.711162421197844
 97
        0
 75
     0
 76
     1
 98
        0
  0
HATCH
  5
7E
330
1F
100
AcDbEntity
  8
XR$1$TB_1412_1
  6
AUSGEZOGEN
 62
    18
420
        0
440
 33554687
370
    35
100
AcDbHatch
 10
0.0
 20
0.0
 30
0.0
210
0.0
220
0.0
230
1.0
  2
SOLID
 70
     1
 71
     0
 91
       20
 92
        3
 72
     0
 73
     1
 93
        8
 10
7.634899102448228
 20
3.712225112390445
 10
7.625052266417995
 20
3.687484378122523
 10
7.627442961122652
 20
3.687484378122523
 10
7.630374013390989
 20
3.694931507480717
 10
7.641283540613818
 20
3.694931507480717
 10
7.643939908116627
 20
3.687484378122523
 10
7.646605287586812
 20
3.687484378122523
 10
7.637024124354732
 20
3.712225112390445
 97
        0
 92
        3
 72
     0
 73
     1
 93
      116
 10
7.649527327887776
 20
3.699721908857415
 10
7.64956373623596
 20
3.700674654048065
 10
7.649655297824469
 20
3.701636411206089
 10
7.649811024620667
 20
3.702607180331494
 10
7.650040289070628
 20
3.703559925522146
 10
7.650333358249594
 20
3.70448491385329
 10
7.650690592636253
 20
3.70539187824969
 10
7.65112100419798
 20
3.706252701373143
 10
7.651624953413473
 20
3.707068104181033
 10
7.652201719325324
 20
3.707818981302527
 10
7.652843010923575
 20
3.708506053695033
 10
7.653557479696883
 20
3.709119948912468
 10
7.654354498091346
 20
3.709632910095328
 10
7.655224693660864
 20
3.710053949210987
 10
7.656177078372824
 20
3.710365402803393
 10
7.65720300073854
 20
3.710557898426476
 10
7.6583114727254
 20
3.710631075601545
 10
7.659630464270078
 20
3.710548886459103
 10
7.660812113432002
 20
3.710319622009136
 10
7.661352470995681
 20
3.710145871278195
 10
7.661856059732476
 20
3.709925979274294
 10
7.662323240121074
 20
3.709669318443519
 10
7.662763024128871
 20
3.709367237297183
 10
7.66355067007726
 20
3.708625372143053
 10
7.664219358056311
 20
3.707709395779282
 10
7.664778100033432
 20
3.706600923792428
 10
7.665226896008597
 20
3.705309328628555
 10
7.667617590713253
 20
3.706637692619306
 10
7.66687572555913
 20
3.708048245752499
 10
7.666014902435673
 20
3.709275675708674
 10
7.665053145277649
 20
3.710328994455211
 10
7.664521799681345
 20
3.710786802397748
 10
7.663963057704226
 20
3.711189817578665
 10
7.663376919346312
 20
3.711556424411387
 10
7.662754012161491
 20
3.711867878003783
 10
7.662094336149803
 20
3.712142562769315
 10
7.661407263757301
 20
3.712362454773209
 10
7.659932545416417
 20
3.712655523952171
 10
7.6583114727254
 20
3.712756097508052
 10
7.656909931559574
 20
3.712682920332985
 10
7.655618336395706
 20
3.712472400775159
 10
7.654409290852968
 20
3.712124178355872
 10
7.653310191312187
 20
3.711656997967266
 10
7.652302653359905
 20
3.711070859609336
 10
7.651386676996128
 20
3.710383787216835
 10
7.650562262220869
 20
3.709605153235823
 10
7.649829409034108
 20
3.708734957666306
 10
7.649188117435854
 20
3.707782572954346
 10
7.648638747904814
 20
3.706765662555996
 10
7.648171567516205
 20
3.705693959396023
 10
7.64779594871611
 20
3.704558091028359
 10
7.647502879537154
 20
3.703394826279875
 10
7.647301371946687
 20
3.702185780737133
 10
7.647173041531307
 20
3.700958350780957
 10
7.647136633183113
 20
3.699721908857415
 10
7.647173041531307
 20
3.698384532899289
 10
7.647301371946687
 20
3.69709293773542
 10
7.647502879537154
 20
3.695847483844491
 10
7.647786936748729
 20
3.694647450269129
 10
7.64815318310276
 20
3.693511581901459
 10
7.648611351524
 20
3.692439878741483
 10
7.649142336641598
 20
3.691432340789208
 10
7.649765243826416
 20
3.690507352458057
 10
7.650461328186291
 20
3.689664553269349
 10
7.651249334613364
 20
3.688913315669155
 10
7.652128542150258
 20
3.688263012103531
 10
7.653081287340909
 20
3.687704270126424
 10
7.654125233641374
 20
3.687273858564693
 10
7.655261102009049
 20
3.686944020558853
 10
7.656470147551783
 20
3.686751524935767
 10
7.657780127129103
 20
3.6866783477607
 10
7.658879226669888
 20
3.686742512968396
 10
7.65998769865674
 20
3.686935008591476
 10
7.661068413784087
 20
3.687255474151256
 10
7.662103708595871
 20
3.687713282093786
 10
7.663056093307831
 20
3.688308792897786
 10
7.663917276909983
 20
3.689041646084546
 10
7.66465013009674
 20
3.689911841654057
 10
7.664952211243079
 20
3.690406418423483
 10
7.665226896008597
 20
3.690937764019784
 10
7.665226896008597
 20
3.687484378122523
 10
7.667351917915112
 20
3.687484378122523
 10
7.667351917915112
 20
3.700253254453712
 10
7.656177078372824
 20
3.700253254453712
 10
7.656177078372824
 20
3.698118860101137
 10
7.665226896008597
 20
3.698118860101137
 10
7.665226896008597
 20
3.696790856589081
 10
7.665126322452718
 20
3.695453480630951
 10
7.664814868860311
 20
3.694088708292007
 10
7.664567580475599
 20
3.693411008345578
 10
7.66427451129664
 20
3.692751332333888
 10
7.663917276909983
 20
3.692110040735641
 10
7.663495877315629
 20
3.691505517964275
 10
7.663019684959643
 20
3.690937764019784
 10
7.662469954949909
 20
3.69042480283692
 10
7.661865432178536
 20
3.689966634415689
 10
7.661187732232105
 20
3.689572991680847
 10
7.660445506599277
 20
3.689252165642376
 10
7.65962109182401
 20
3.689014249703727
 10
7.658741884287119
 20
3.688858522907531
 10
7.657780127129103
 20
3.688812742113276
 10
7.656717435936498
 20
3.688876907320968
 10
7.655746666811098
 20
3.689069042465359
 10
7.654839702414687
 20
3.689380496057764
 10
7.654015648118126
 20
3.689801895652112
 10
7.653273422485309
 20
3.69032386880235
 10
7.65259572253886
 20
3.69092839157372
 10
7.651991199767501
 20
3.691615463966218
 10
7.6514598541712
 20
3.692366701566414
 10
7.650992673782592
 20
3.693181743895615
 10
7.650599031047746
 20
3.694042927497764
 10
7.650259820595828
 20
3.69494953141547
 10
7.649994508276373
 20
3.695883892192682
 10
7.649793000685928
 20
3.696836637383325
 10
7.649646285857096
 20
3.697798394541358
 10
7.649554724268579
 20
3.698760151699384
 97
        0
 92
        3
 72
     0
 73
     1
 93
       37
 10
7.670814315779738
 20
3.687484378122523
 10
7.673205010484402
 20
3.687484378122523
 10
7.673205010484402
 20
3.698384532899289
 10
7.678792790734239
 20
3.698384532899289
 10
7.686779917177406
 20
3.687484378122523
 10
7.689701957478377
 20
3.687484378122523
 10
7.681723843002572
 20
3.698384532899289
 10
7.683326891758843
 20
3.698586040489743
 10
7.684068756912977
 20
3.698760151699384
 10
7.684755468826785
 20
3.698980043703281
 10
7.685396760425032
 20
3.699254728468806
 10
7.685982898782968
 20
3.699575194028583
 10
7.686523616825332
 20
3.699941800861307
 10
7.687008821148677
 20
3.700353828009591
 10
7.687448605156471
 20
3.700811996430824
 10
7.687824223956573
 20
3.701315585167618
 10
7.688154061962421
 20
3.701865315177362
 10
7.688419374281875
 20
3.702469837948729
 10
7.688630254318396
 20
3.703111129546969
 10
7.688785981114598
 20
3.703797841460786
 10
7.688877542703104
 20
3.704530694647543
 10
7.688904939083914
 20
3.705309328628555
 10
7.688804365528035
 20
3.706600923792428
 10
7.688492911935635
 20
3.707846738162041
 10
7.688254635518301
 20
3.708441888487347
 10
7.687970578306704
 20
3.709019014877895
 10
7.68761334392005
 20
3.709559372441569
 10
7.68721032873914
 20
3.710063321657055
 10
7.686743148350535
 20
3.710530502045664
 10
7.686221175200295
 20
3.71094252919395
 10
7.685625664396302
 20
3.71131814799405
 10
7.684975360830679
 20
3.71162960158645
 10
7.684260892057362
 20
3.711885901938536
 10
7.683482258076354
 20
3.712069385594245
 10
7.682639819366348
 20
3.712188343563563
 10
7.681723843002572
 20
3.712225112390445
 10
7.670814315779738
 20
3.712225112390445
 97
        0
 92
        3
 72
     0
 73
     1
 93
       64
 10
7.690663714636401
 20
3.697248664531611
 10
7.690874234194223
 20
3.696048991434949
 10
7.691158291405824
 20
3.694876354240396
 10
7.691533910205911
 20
3.693749858318799
 10
7.691991718148453
 20
3.692668782712754
 10
7.692532436190825
 20
3.691652232793098
 10
7.693164355343001
 20
3.690708860048517
 10
7.693878824116321
 20
3.689838664478999
 10
7.694684854478147
 20
3.689050658051918
 10
7.695582446428475
 20
3.68836394613811
 10
7.696562587999947
 20
3.687786819747557
 10
7.697643303127301
 20
3.687319639358948
 10
7.698806567875774
 20
3.686971416939667
 10
7.700061754691458
 20
3.686751524935767
 10
7.701398409692196
 20
3.6866783477607
 10
7.702708389269505
 20
3.686751524935767
 10
7.703926807258307
 20
3.686971416939667
 10
7.705053303179914
 20
3.687319639358948
 10
7.70609760995907
 20
3.687786819747557
 10
7.707049994671038
 20
3.68836394613811
 10
7.707929562686616
 20
3.689050658051918
 10
7.708717208635004
 20
3.689838664478999
 10
7.70941329299488
 20
3.690708860048517
 10
7.710036200179679
 20
3.691652232793098
 10
7.71056754577599
 20
3.692668782712754
 10
7.711025353718528
 20
3.693749858318799
 10
7.711391960551253
 20
3.694876354240396
 10
7.711675657284148
 20
3.696048991434949
 10
7.711886537320669
 20
3.697248664531611
 10
7.712005495289988
 20
3.698476094487787
 10
7.71204226411687
 20
3.699721908857415
 10
7.712005495289988
 20
3.700958350780957
 10
7.711886537320669
 20
3.702185780737133
 10
7.711675657284148
 20
3.703394826279875
 10
7.711391960551253
 20
3.704558091028359
 10
7.711025353718528
 20
3.705693959396023
 10
7.71056754577599
 20
3.706765662555996
 10
7.710036200179679
 20
3.707782572954346
 10
7.70941329299488
 20
3.708734957666306
 10
7.708717208635004
 20
3.709605153235823
 10
7.707929562686616
 20
3.710383787216835
 10
7.707049994671038
 20
3.711070859609336
 10
7.70609760995907
 20
3.711656997967266
 10
7.705053303179914
 20
3.712124178355872
 10
7.703926807258307
 20
3.712472400775159
 10
7.702708389269505
 20
3.712682920332985
 10
7.701398409692196
 20
3.712756097508052
 10
7.700061754691458
 20
3.712682920332985
 10
7.698806567875774
 20
3.712472400775159
 10
7.697643303127301
 20
3.712124178355872
 10
7.696562587999947
 20
3.711656997967266
 10
7.695582446428475
 20
3.711070859609336
 10
7.694684854478147
 20
3.710383787216835
 10
7.693878824116321
 20
3.709605153235823
 10
7.693164355343001
 20
3.708734957666306
 10
7.692532436190825
 20
3.707782572954346
 10
7.691991718148453
 20
3.706765662555996
 10
7.691533910205911
 20
3.705693959396023
 10
7.691158291405824
 20
3.704558091028359
 10
7.690874234194223
 20
3.703394826279875
 10
7.690663714636401
 20
3.702185780737133
 10
7.690544756667077
 20
3.700958350780957
 10
7.690507987840192
 20
3.699721908857415
 10
7.690544756667077
 20
3.698476094487787
 97
        0
 92
        3
 72
     0
 73
     1
 93
       57
 10
7.725882483129339
 20
3.687484378122523
 10
7.726890021081617
 20
3.687521146949404
 10
7.727824381858831
 20
3.687621720505283
 10
7.728694577428352
 20
3.68779583171493
 10
7.729482583855439
 20
3.688034108132268
 10
7.730206064596118
 20
3.68832717731123
 10
7.730865380129119
 20
3.688675399730515
 10
7.731451878965734
 20
3.689069042465359
 10
7.731964840148601
 20
3.689508826473149
 10
7.732422648091139
 20
3.689994391275197
 10
7.732807278858615
 20
3.690507352458057
 10
7.733137116864455
 20
3.691056721989107
 10
7.733402789662611
 20
3.691633848379657
 10
7.73360429725306
 20
3.692229359183655
 10
7.733751012081888
 20
3.692851905889769
 10
7.733833201224323
 20
3.693484185520644
 10
7.733860597605148
 20
3.694134489086266
 10
7.733787420430075
 20
3.695389315423259
 10
7.733558516458805
 20
3.69655258017174
 10
7.733375393281796
 20
3.697102310181486
 10
7.733164513245262
 20
3.697615271364346
 10
7.732898840447113
 20
3.698100475687692
 10
7.732596759300781
 20
3.698558644108927
 10
7.732248536881499
 20
3.698970671257212
 10
7.731863906114028
 20
3.699355662503376
 10
7.73142412210623
 20
3.69970352444397
 10
7.730947929750251
 20
3.700005966069004
 10
7.730416584153944
 20
3.700271638867149
 10
7.729839457763392
 20
3.700482158424986
 10
7.729216911057283
 20
3.700656269634619
 10
7.728538850632147
 20
3.700784600050016
 10
7.729656334586376
 20
3.701040900402097
 10
7.730141899388422
 20
3.701224023579114
 10
7.730590695363589
 20
3.70143490361564
 10
7.731378341311971
 20
3.701938492352425
 10
7.732001248496785
 20
3.702579783950678
 10
7.732477801331454
 20
3.703340033518247
 10
7.732660924508473
 20
3.703770445079974
 10
7.732807278858615
 20
3.704228613501202
 10
7.732999774481698
 20
3.705236151453486
 10
7.73306393968939
 20
3.706372019821156
 10
7.733018158895135
 20
3.707003938973336
 10
7.732835035718122
 20
3.707846738162041
 10
7.732679308921914
 20
3.70831391855065
 10
7.732459416918013
 20
3.708808495320072
 10
7.732184371673804
 20
3.709303072089486
 10
7.731836509733203
 20
3.70979764885891
 10
7.731406098171483
 20
3.710273841214888
 10
7.730893136988623
 20
3.710722637190056
 10
7.730288614217261
 20
3.711135024817033
 10
7.729583157411311
 20
3.711492259203691
 10
7.728768115082119
 20
3.71179434035003
 10
7.727842766272276
 20
3.712023604799995
 10
7.726798459493112
 20
3.712169959150122
 10
7.725616810331194
 20
3.712225112390445
 10
7.714973316385207
 20
3.712225112390445
 10
7.714973316385207
 20
3.687484378122523
 97
        0
 92
        3
 72
     0
 73
     1
 93
       56
 10
7.741848084527013
 20
3.687484378122523
 10
7.753022924069294
 20
3.687484378122523
 10
7.75528528835857
 20
3.687566927743657
 10
7.756320583170364
 20
3.687685885712983
 10
7.757291352295746
 20
3.687850984955249
 10
7.758188944246085
 20
3.688070516480451
 10
7.75902273146742
 20
3.688336189278605
 10
7.759782981034987
 20
3.688657015317074
 10
7.760470053427489
 20
3.689041646084546
 10
7.761083588166235
 20
3.689481430092337
 10
7.761614933762536
 20
3.689985018829133
 10
7.762072741705073
 20
3.690553133252315
 10
7.762448360505172
 20
3.691185052404498
 10
7.762741429684135
 20
3.691881136764372
 10
7.762952309720665
 20
3.692650398299316
 10
7.763089652103423
 20
3.693484185520644
 10
7.763126060451603
 20
3.694400161884421
 10
7.763098664070792
 20
3.695068849863481
 10
7.763007102482287
 20
3.695700769015666
 10
7.762860748132145
 20
3.696277895406214
 10
7.7626592405417
 20
3.696809241002518
 10
7.762411591678294
 20
3.69729444532587
 10
7.762118522499325
 20
3.697734229333659
 10
7.761779672526111
 20
3.6981282325472
 10
7.761404053726008
 20
3.698485466933862
 10
7.760982654131654
 20
3.698805932493633
 10
7.760533858156498
 20
3.699080617259164
 10
7.760048653833143
 20
3.699318893676496
 10
7.759535692650279
 20
3.699520401266955
 10
7.758445605076864
 20
3.699822842891981
 10
7.757272967882309
 20
3.699987581655563
 10
7.757272967882309
 20
3.700253254453712
 10
7.758408836249982
 20
3.700592104426929
 10
7.759416374202265
 20
3.701013504021277
 10
7.760277557804409
 20
3.70152646520414
 10
7.761001038545092
 20
3.702149372388951
 10
7.761569152968278
 20
3.702881865097015
 10
7.761798056939548
 20
3.703284880277923
 10
7.761990552562631
 20
3.703734036731783
 10
7.762246852914719
 20
3.70471381782456
 10
7.762329402535852
 20
3.705840674224854
 10
7.762292633708977
 20
3.706655716554051
 10
7.762173675739651
 20
3.707406954154247
 10
7.761981180116567
 20
3.708103038514126
 10
7.761715507318415
 20
3.708744330112373
 10
7.761386029791265
 20
3.709321456502927
 10
7.760982654131654
 20
3.709843429653159
 10
7.760524846189117
 20
3.710310610041761
 10
7.760002873038891
 20
3.710722637190056
 10
7.759425746648329
 20
3.711089244022782
 10
7.758793827496152
 20
3.711400697615185
 10
7.758115767071017
 20
3.711656997967266
 10
7.757392286330334
 20
3.71185850555772
 10
7.755816633954874
 20
3.71213355080194
 10
7.754085615261895
 20
3.712225112390445
 10
7.741848084527013
 20
3.712225112390445
 97
        0
 92
        3
 72
     0
 73
     1
 93
       58
 10
7.76738547671069
 20
3.695993838194632
 10
7.767449641918385
 20
3.694793804619259
 10
7.767632765095405
 20
3.693685693111102
 10
7.767935206720431
 20
3.692668782712754
 10
7.768338221901351
 20
3.691734421935545
 10
7.768832798670767
 20
3.690882610779465
 10
7.769409925061322
 20
3.690122361211894
 10
7.770060228626946
 20
3.689444661265454
 10
7.770774697400259
 20
3.688840138494093
 10
7.771553331381271
 20
3.688318165343853
 10
7.772377746156534
 20
3.687878381336062
 10
7.773229557312603
 20
3.68750276253596
 10
7.774117776816874
 20
3.687200681389633
 10
7.775024741213281
 20
3.686971416939667
 10
7.775940717577054
 20
3.686806678176088
 10
7.776856693940823
 20
3.686715116587582
 10
7.777763658337222
 20
3.6866783477607
 10
7.778670262254924
 20
3.686715116587582
 10
7.7795862386187
 20
3.686806678176088
 10
7.780502214982469
 20
3.686971416939667
 10
7.781399806932801
 20
3.687200681389633
 10
7.782288386915759
 20
3.68750276253596
 10
7.783149570517912
 20
3.687878381336062
 10
7.783973985293182
 20
3.688318165343853
 10
7.784743246828111
 20
3.688840138494093
 10
7.785466727568808
 20
3.689444661265454
 10
7.786117391613127
 20
3.690122361211894
 10
7.78669415752498
 20
3.690882610779465
 10
7.787189094773094
 20
3.691734421935545
 10
7.78759210995401
 20
3.692668782712754
 10
7.787894191100349
 20
3.693685693111102
 10
7.788077314277362
 20
3.694793804619259
 10
7.788141479485054
 20
3.695993838194632
 10
7.788141479485054
 20
3.712225112390445
 10
7.782022714117615
 20
3.712225112390445
 10
7.782022714117615
 20
3.696525183790929
 10
7.781967921355983
 20
3.695554054186838
 10
7.781802822113717
 20
3.694656462236499
 10
7.781519125380812
 20
3.693841419907301
 10
7.781088353340397
 20
3.693135963101355
 10
7.780511587428537
 20
3.692549824743435
 10
7.780163365009249
 20
3.692311548326099
 10
7.779778734241787
 20
3.692110040735641
 10
7.779338950233993
 20
3.691954313939439
 10
7.778862757878007
 20
3.691835355970115
 10
7.777763658337222
 20
3.691734421935545
 10
7.77666419831774
 20
3.691835355970115
 10
7.776188005961754
 20
3.691954313939439
 10
7.775748221953967
 20
3.692110040735641
 10
7.775363591186491
 20
3.692311548326099
 10
7.775015729245897
 20
3.692549824743435
 10
7.77443860285535
 20
3.693135963101355
 10
7.774008191293629
 20
3.693841419907301
 10
7.77372413408203
 20
3.694656462236499
 10
7.773559034839771
 20
3.695554054186838
 10
7.77350424207814
 20
3.696525183790929
 10
7.77350424207814
 20
3.712225112390445
 10
7.76738547671069
 20
3.712225112390445
 97
        0
 92
        3
 72
     0
 73
     1
 93
      105
 10
7.798519661111587
 20
3.699721908857415
 10
7.7985470574924
 20
3.700729446809692
 10
7.798638619080899
 20
3.7016638075869
 10
7.798785333909731
 20
3.702534003156417
 10
7.798986841500188
 20
3.703321649104806
 10
7.799234129884902
 20
3.70404549032419
 10
7.799536211031242
 20
3.704695793889807
 10
7.799884433450527
 20
3.705281932247735
 10
7.800278076185372
 20
3.705803905397976
 10
7.800708848225797
 20
3.706262073819207
 10
7.801176028614394
 20
3.706646704586681
 10
7.801679617351184
 20
3.706976542592527
 10
7.802219974914861
 20
3.707242215390675
 10
7.802788089338042
 20
3.707443722981134
 10
7.803383239663352
 20
3.707590077331262
 10
7.803997134880778
 20
3.707672626952399
 10
7.804638426479025
 20
3.707700023333217
 10
7.805435084394784
 20
3.707626846158142
 10
7.806213718375798
 20
3.707415966121616
 10
7.806955583529918
 20
3.707086488594472
 10
7.807661040335868
 20
3.706637692619306
 10
7.808302331934112
 20
3.706087962609565
 10
7.808861073911234
 20
3.705456043457378
 10
7.809327893821137
 20
3.704750586651442
 10
7.809694500653866
 20
3.70397195267043
 10
7.814741562861346
 20
3.706372019821156
 10
7.813807202084129
 20
3.707791584921724
 10
7.812790291685775
 20
3.70905578370478
 10
7.811672807731553
 20
3.710145871278195
 10
7.811077657406251
 20
3.710622063634175
 10
7.810454750221441
 20
3.711061847641964
 10
7.809804446655817
 20
3.711446478409436
 10
7.809126386230684
 20
3.711785328382657
 10
7.808411917457365
 20
3.71207839756162
 10
7.807670052303249
 20
3.712316673978957
 10
7.806900790768293
 20
3.712508809123343
 10
7.806094760406467
 20
3.712646511984804
 10
7.805251961217775
 20
3.712728701127246
 10
7.80437275368088
 20
3.712756097508052
 10
7.802962200547685
 20
3.712682920332985
 10
7.801642848524302
 20
3.712481412742531
 10
7.800397394633387
 20
3.712142562769315
 10
7.799243141852275
 20
3.711693766794151
 10
7.798171438692305
 20
3.711125652370965
 10
7.797191297120833
 20
3.710457324870597
 10
7.796293705170497
 20
3.709687702856963
 10
7.795487674808668
 20
3.708835891700883
 10
7.794773206035353
 20
3.707892518956292
 10
7.794150298850549
 20
3.706884981004014
 10
7.793618953254248
 20
3.705803905397976
 10
7.793179529725156
 20
3.704677409476369
 10
7.792840319273241
 20
3.703486748347073
 10
7.792593030888526
 20
3.702268330358273
 10
7.792446676538392
 20
3.701004131575215
 10
7.792391523298069
 20
3.699721908857415
 10
7.792446676538392
 20
3.698430313693541
 10
7.792602403334593
 20
3.697175487356546
 10
7.792868076132748
 20
3.695948057400372
 10
7.793225310519407
 20
3.694766408238449
 10
7.793692490908009
 20
3.693630539870779
 10
7.794251232885133
 20
3.692549824743435
 10
7.794901536450754
 20
3.691542286791155
 10
7.795652413572251
 20
3.690607926013936
 10
7.796504224728327
 20
3.689747102890493
 10
7.797438585505541
 20
3.688986492844222
 10
7.798464507871261
 20
3.688308792897786
 10
7.799581991825489
 20
3.687750050920675
 10
7.800782025400855
 20
3.687292242978136
 10
7.802073620564727
 20
3.68696240497229
 10
7.803447404871033
 20
3.686751524935767
 10
7.804903738798487
 20
3.6866783477607
 10
7.805645964431307
 20
3.686705744141511
 10
7.80637845713937
 20
3.686788293762647
 10
7.807825779099443
 20
3.687118131768493
 10
7.808521863459323
 20
3.687356047707135
 10
7.809208935851824
 20
3.687649477364797
 10
7.809877623830879
 20
3.687988327338013
 10
7.810518915429133
 20
3.688381970072855
 10
7.811746345385316
 20
3.68928893446925
 10
7.812872841306915
 20
3.690388034010041
 10
7.813871367291824
 20
3.691642860347032
 10
7.814329175234358
 20
3.692339305185604
 10
7.814741562861346
 20
3.693071797893668
 10
7.809960173452018
 20
3.695462492598324
 10
7.809502005030794
 20
3.69462906585569
 10
7.808943263053676
 20
3.69391459708237
 10
7.808311343901496
 20
3.693319086278374
 10
7.807624271508983
 20
3.692833881955028
 10
7.806919175181738
 20
3.692467275122302
 10
7.806213718375798
 20
3.692210974770218
 10
7.805536018429357
 20
3.692055247974015
 10
7.804903738798487
 20
3.69200009473369
 10
7.803997134880778
 20
3.692055247974015
 10
7.803172720105515
 20
3.692192590356774
 10
7.802430854951381
 20
3.692421494328046
 10
7.801771178939696
 20
3.692723935953074
 10
7.801176028614394
 20
3.693099554753173
 10
7.800663067431532
 20
3.6935299663149
 10
7.8002048990103
 20
3.694024543084323
 10
7.79981089579676
 20
3.694564900647993
 10
7.799481418269614
 20
3.69514202703855
 10
7.799206373025394
 20
3.695755561777291
 10
7.798977469054123
 20
3.69639685337554
 10
7.798803357844478
 20
3.697056529387226
 10
7.798583826319279
 20
3.698393905345349
 97
        0
 92
        3
 72
     0
 73
     1
 93
       12
 10
7.818203960725972
 20
3.687484378122523
 10
7.824322726093414
 20
3.687484378122523
 10
7.824322726093414
 20
3.697853187302988
 10
7.833638216527342
 20
3.697853187302988
 10
7.833638216527342
 20
3.687484378122523
 10
7.839756621416087
 20
3.687484378122523
 10
7.839756621416087
 20
3.712225112390445
 10
7.833638216527342
 20
3.712225112390445
 10
7.833638216527342
 20
3.703175294754672
 10
7.824322726093414
 20
3.703175294754672
 10
7.824322726093414
 20
3.712225112390445
 10
7.818203960725972
 20
3.712225112390445
 97
        0
 92
        3
 72
     0
 73
     1
 93
        8
 10
7.855722222813769
 20
3.707434350535061
 10
7.862106660979353
 20
3.707434350535061
 10
7.862106660979353
 20
3.712225112390445
 10
7.842944334515203
 20
3.712225112390445
 10
7.842944334515203
 20
3.707434350535061
 10
7.849603457446319
 20
3.707434350535061
 10
7.849603457446319
 20
3.687484378122523
 10
7.855722222813769
 20
3.687484378122523
 97
        0
 92
        3
 72
     0
 73
     1
 93
        8
 10
7.86023793942493
 20
3.687484378122523
 10
7.866897062356049
 20
3.687484378122523
 10
7.868225426346791
 20
3.69120343681793
 10
7.877265871536507
 20
3.69120343681793
 10
7.87860324749463
 20
3.687484378122523
 10
7.885253358458373
 20
3.687484378122523
 10
7.875937868024455
 20
3.712225112390445
 10
7.869553429858861
 20
3.712225112390445
 97
        0
 92
        3
 72
     0
 73
     1
 93
        6
 10
7.887909725961185
 20
3.687484378122523
 10
7.903874966880164
 20
3.687484378122523
 10
7.903874966880164
 20
3.692531440329989
 10
7.894294164126783
 20
3.692531440329989
 10
7.894294164126783
 20
3.712225112390445
 10
7.887909725961185
 20
3.712225112390445
 97
        0
 92
       18
 72
     0
 73
     1
 93
        3
 10
7.635961433162138
 20
3.709028387323959
 10
7.640486522219362
 20
3.696790856589081
 10
7.631171031785438
 20
3.696790856589081
 97
        0
 92
       18
 72
     0
 73
     1
 93
       29
 10
7.680926824608123
 20
3.709825045239723
 10
7.682401542949003
 20
3.709751868064654
 10
7.683637984872552
 20
3.709531976060762
 10
7.684169330468853
 20
3.709367237297183
 10
7.684645883303529
 20
3.709165729706731
 10
7.685076294865255
 20
3.70893646525676
 10
7.685451913665355
 20
3.708661780491237
 10
7.685772379225131
 20
3.708359699344908
 10
7.686047063990649
 20
3.708020488892986
 10
7.686276328440617
 20
3.707654242538958
 10
7.686459451617633
 20
3.70725122735805
 10
7.68669736755628
 20
3.706344262961649
 10
7.686779917177406
 20
3.705309328628555
 10
7.686715751969722
 20
3.704411736678221
 10
7.68649585996582
 20
3.703550553076075
 10
7.686322109234872
 20
3.703138525927788
 10
7.686102217230979
 20
3.702735510746881
 10
7.685836544432827
 20
3.702359891946779
 10
7.685516078873047
 20
3.70201166952749
 10
7.685140460072959
 20
3.701691203967719
 10
7.684700676065154
 20
3.701398134788755
 10
7.684196726849663
 20
3.701141834436674
 10
7.683637984872552
 20
3.70093095440015
 10
7.683006065720368
 20
3.700756843190504
 10
7.682300969393124
 20
3.700628873253811
 10
7.681512962966044
 20
3.700546323632674
 10
7.680661151809963
 20
3.700518927251856
 10
7.673205010484402
 20
3.700518927251856
 10
7.673205010484402
 20
3.709825045239723
 97
        0
 92
       18
 72
     0
 73
     1
 93
       64
 10
7.692926078925666
 20
3.700674654048065
 10
7.693027012960247
 20
3.701636411206089
 10
7.693182739756448
 20
3.702607180331494
 10
7.693402631760343
 20
3.703559925522146
 10
7.693695700939308
 20
3.70448491385329
 10
7.69405293532597
 20
3.70539187824969
 10
7.694473974441622
 20
3.706252701373143
 10
7.694959539243664
 20
3.707068104181033
 10
7.695518281220783
 20
3.707818981302527
 10
7.696150560851664
 20
3.708506053695033
 10
7.696846645211532
 20
3.709119948912468
 10
7.697615906746476
 20
3.709632910095328
 10
7.698449333489116
 20
3.710053949210987
 10
7.699365309852888
 20
3.710365402803393
 10
7.700345090945655
 20
3.710557898426476
 10
7.701398409692196
 20
3.710631075601545
 10
7.702461100884793
 20
3.710557898426476
 10
7.703441242456262
 20
3.710365402803393
 10
7.70433883440659
 20
3.710053949210987
 10
7.70516324918186
 20
3.709632910095328
 10
7.705905114335986
 20
3.709119948912468
 10
7.706583174761116
 20
3.708506053695033
 10
7.707187697532489
 20
3.707818981302527
 10
7.707718682650098
 20
3.707068104181033
 10
7.708185863038696
 20
3.706252701373143
 10
7.708579866252236
 20
3.70539187824969
 10
7.708918716225453
 20
3.70448491385329
 10
7.709184389023613
 20
3.703559925522146
 10
7.709394908581435
 20
3.702607180331494
 10
7.70953261144289
 20
3.701636411206089
 10
7.7096241730314
 20
3.700674654048065
 10
7.709651569412213
 20
3.699721908857415
 10
7.7096241730314
 20
3.698760151699384
 10
7.70953261144289
 20
3.697798394541358
 10
7.709394908581435
 20
3.696836637383325
 10
7.709184389023613
 20
3.695883892192682
 10
7.708918716225453
 20
3.69494953141547
 10
7.708579866252236
 20
3.694042927497764
 10
7.708185863038696
 20
3.693181743895615
 10
7.707718682650098
 20
3.692366701566414
 10
7.707187697532489
 20
3.691615463966218
 10
7.706583174761116
 20
3.69092839157372
 10
7.705905114335986
 20
3.69032386880235
 10
7.70516324918186
 20
3.689801895652112
 10
7.70433883440659
 20
3.689380496057764
 10
7.703441242456262
 20
3.689069042465359
 10
7.702461100884793
 20
3.688876907320968
 10
7.701398409692196
 20
3.688812742113276
 10
7.700345090945655
 20
3.688876907320968
 10
7.699365309852888
 20
3.689069042465359
 10
7.698449333489116
 20
3.689380496057764
 10
7.697615906746476
 20
3.689801895652112
 10
7.696846645211532
 20
3.69032386880235
 10
7.696150560851664
 20
3.69092839157372
 10
7.695518281220783
 20
3.691615463966218
 10
7.694959539243664
 20
3.692366701566414
 10
7.694473974441622
 20
3.693181743895615
 10
7.69405293532597
 20
3.694042927497764
 10
7.693695700939308
 20
3.69494953141547
 10
7.693402631760343
 20
3.695883892192682
 10
7.693182739756448
 20
3.696836637383325
 10
7.693027012960247
 20
3.697798394541358
 10
7.692926078925666
 20
3.698760151699384
 10
7.692898682544856
 20
3.699721908857415
 97
        0
 92
       18
 72
     0
 73
     1
 93
       26
 10
7.725085825213577
 20
3.709825045239723
 10
7.726395444312202
 20
3.709788636891533
 10
7.727522300712495
 20
3.709650934030075
 10
7.72848405787053
 20
3.709413018091438
 10
7.728905457464884
 20
3.709238906881792
 10
7.729271703818908
 20
3.709028387323959
 10
7.729601541824755
 20
3.708790110906623
 10
7.729885599036337
 20
3.708506053695033
 10
7.730123514974985
 20
3.708176215689191
 10
7.730316010598064
 20
3.707809969335162
 10
7.73047173739427
 20
3.707388569740813
 10
7.730581683396228
 20
3.706930761798271
 10
7.730673244984733
 20
3.705840674224854
 10
7.730572310950149
 20
3.704887929034201
 10
7.730453352980833
 20
3.704457517472476
 10
7.730279241771183
 20
3.704054502291569
 10
7.730068722213357
 20
3.703669871524095
 10
7.729812061382578
 20
3.703321649104806
 10
7.729171130263029
 20
3.702708114366058
 10
7.728374111868568
 20
3.702222549564014
 10
7.727906931479971
 20
3.702030053940931
 10
7.727412354710541
 20
3.701874327144731
 10
7.72631325516976
 20
3.701654795619526
 10
7.725085825213577
 20
3.701581257965767
 10
7.71736401108986
 20
3.701581257965767
 10
7.71736401108986
 20
3.709825045239723
 97
        0
 92
       18
 72
     0
 73
     1
 93
       28
 10
7.725085825213577
 20
3.699456236059255
 10
7.726578927967916
 20
3.699355662503376
 10
7.727879535099157
 20
3.699071605291787
 10
7.728447289043637
 20
3.698860725255263
 10
7.728969622672572
 20
3.698613436870553
 10
7.729445815028554
 20
3.698320367691593
 10
7.7298672146229
 20
3.697990890164441
 10
7.730242833422995
 20
3.697624283331714
 10
7.730572310950149
 20
3.697221268150801
 10
7.730847356194369
 20
3.696781484143004
 10
7.731066887719572
 20
3.696314303754405
 10
7.731240998929217
 20
3.695810715017609
 10
7.731369329344605
 20
3.695279369421312
 10
7.731469902900477
 20
3.694134489086266
 10
7.731387713758046
 20
3.693328458724442
 10
7.731158809786775
 20
3.692531440329989
 10
7.730755434127161
 20
3.691762178795047
 10
7.730169295769239
 20
3.691075106402548
 10
7.729812061382578
 20
3.690763652810141
 10
7.729400034234299
 20
3.690479595598552
 10
7.728941865813067
 20
3.690232307213839
 10
7.728438277076272
 20
3.690012415209945
 10
7.727879535099157
 20
3.68984767644637
 10
7.727265639881727
 20
3.689719346030985
 10
7.726596951902655
 20
3.689637156888546
 10
7.725882483129339
 20
3.689609400029031
 10
7.71736401108986
 20
3.689609400029031
 10
7.71736401108986
 20
3.699456236059255
 97
        0
 92
       18
 72
     0
 73
     1
 93
       19
 10
7.753022924069294
 20
3.707434350535061
 10
7.753691612048359
 20
3.707406954154247
 10
7.754305507265795
 20
3.707324404533114
 10
7.754845864829469
 20
3.70716867773691
 10
7.755313045218074
 20
3.706939773765646
 10
7.755688664018177
 20
3.706619308205866
 10
7.755972360751075
 20
3.706197908611512
 10
7.756146471960718
 20
3.705675574982581
 10
7.75621063716841
 20
3.705043655830403
 10
7.756146471960718
 20
3.704393352264784
 10
7.755972360751075
 20
3.703834610287666
 10
7.755688664018177
 20
3.703376802345127
 10
7.755313045218074
 20
3.703010195512399
 10
7.754845864829469
 20
3.702726138300814
 10
7.754305507265795
 20
3.702534003156417
 10
7.753691612048359
 20
3.702415045187099
 10
7.753022924069294
 20
3.70237827636022
 10
7.747701177096311
 20
3.70237827636022
 10
7.747701177096311
 20
3.707434350535061
 97
        0
 92
       18
 72
     0
 73
     1
 93
       19
 10
7.754085615261895
 20
3.697853187302988
 10
7.754818468448655
 20
3.697807406508731
 10
7.75544101515476
 20
3.697661052158594
 10
7.755944964370254
 20
3.697422775741261
 10
7.756347979551167
 20
3.69709293773542
 10
7.756641048730129
 20
3.696671538141061
 10
7.75685192876666
 20
3.696176961371644
 10
7.75697088673597
 20
3.695590823013712
 10
7.757007655562855
 20
3.694931507480717
 10
7.75697088673597
 20
3.694345008644101
 10
7.756833544353213
 20
3.693795639113048
 10
7.756586255968508
 20
3.693301062343629
 10
7.75621063716841
 20
3.69287029030321
 10
7.755688664018177
 20
3.692504043949179
 10
7.75499221917961
 20
3.692238371151026
 10
7.754103999675339
 20
3.692064259941388
 10
7.753022924069294
 20
3.69200009473369
 10
7.74796684989446
 20
3.69200009473369
 10
7.74796684989446
 20
3.697853187302988
 97
        0
 92
       18
 72
     0
 73
     1
 93
        3
 10
7.872750154925339
 20
3.706106347023006
 10
7.8756721952263
 20
3.695728165396476
 10
7.869553429858861
 20
3.695728165396476
 97
        0
 75
     0
 76
     1
 98
        0
  0
HATCH
  5
80
102
{ACAD_REACTORS
330
7F
102
}
330
1F
100
AcDbEntity
  8
XR$1$TB_1412_1
  6
AUSGEZOGEN
 62
     3
440
 33554687
370
    35
100
AcDbHatch
 10
0.0
 20
0.0
 30
0.0
210
0.0
220
0.0
230
1.0
  2
SOLID
 70
     1
 71
     0
 91
        1
 92
        3
 72
     0
 73
     1
 93
       22
 10
7.596052476369685
 20
3.687209693356999
 10
7.611221059372903
 20
3.687209693356999
 10
7.6099388366551
 20
3.688052492545709
 10
7.608693022285486
 20
3.688968468909477
 10
7.607492988710113
 20
3.689976006861756
 10
7.60635712034244
 20
3.691075106402548
 10
7.605303801595921
 20
3.692265767531842
 10
7.604333032470517
 20
3.693575747109155
 10
7.603462836901002
 20
3.694995312209719
 10
7.602702587333428
 20
3.696525183790929
 10
7.602235406944823
 20
3.697523709775831
 10
7.60183239176391
 20
3.69853124772811
 10
7.601484169344614
 20
3.699538785680395
 10
7.601191100165662
 20
3.700546323632674
 10
7.60078808498475
 20
3.702570771983299
 10
7.600604961807723
 20
3.704576475441796
 10
7.600641370155921
 20
3.706555142998172
 10
7.600870634605883
 20
3.708497041727667
 10
7.601292034200236
 20
3.710393159662903
 10
7.601575730933138
 20
3.71131814799405
 10
7.601905568938975
 20
3.712225112390445
 10
7.596052476369685
 20
3.712225112390445
 97
        0
 75
     0
 76
     1
 98
        0
  0
HATCH
  5
81
102
{ACAD_REACTORS
330
7F
102
}
330
1F
100
AcDbEntity
  8
XR$1$TB_1412_1
  6
AUSGEZOGEN
 62
     3
440
 33554687
370
    35
100
AcDbHatch
 10
0.0
 20
0.0
 30
0.0
210
0.0
220
0.0
230
1.0
  2
SOLID
 70
     1
 71
     0
 91
        1
 92
        3
 72
     0
 73
     1
 93
       24
 10
7.60861984511041
 20
3.69092839157372
 10
7.609828890653145
 20
3.689810907619491
 10
7.611156894165208
 20
3.688803369667208
 10
7.612594843679217
 20
3.687942546543762
 10
7.614143099673868
 20
3.687209693356999
 10
7.621058522957072
 20
3.687209693356999
 10
7.621058522957072
 20
3.712225112390445
 10
7.607492988710113
 20
3.712225112390445
 10
7.606934246733003
 20
3.711583820792197
 10
7.606458054377028
 20
3.710860340051508
 10
7.605633639601762
 20
3.709293699643422
 10
7.605258020801666
 20
3.708497041727667
 10
7.604928182795819
 20
3.707681638919769
 10
7.6046534980303
 20
3.706866596590573
 10
7.604424594059023
 20
3.706042181815314
 10
7.604103768020548
 20
3.704393352264784
 10
7.603966425637788
 20
3.702744522714253
 10
7.604003194464672
 20
3.701095693163716
 10
7.604204702055125
 20
3.699483632440075
 10
7.604570948409161
 20
3.697898968097237
 10
7.605093282038085
 20
3.696360445027354
 10
7.605770981984526
 20
3.694885726686464
 10
7.606586384792412
 20
3.693474813074576
 10
7.607538769504369
 20
3.692155821529894
 97
        0
 75
     0
 76
     1
 98
        0
  0
MTEXT
  5
82
330
1F
100
AcDbEntity
  8
XR$1$TB_1412_1
  6
AUSGEZOGEN
 62
     7
440
 33554687
370
    -3
100
AcDbMText
 10
7.502668
 20
4.970459
 30
0.0
 40
0.025
 41
0.405443
 46
0.0
 71
     7
 72
     5
  1
\W1.00;BAUKERAMIKFASSADE
  7
ARIAL
 73
     1
 44
1.0
  0
MTEXT
  5
83
330
1F
100
AcDbEntity
  8
XR$1$TB_1412_1
  6
AUSGEZOGEN
 62
     7
440
 33554687
370
    -3
100
AcDbMText
 10
7.501601
 20
4.912892
 30
0.0
 40
0.0175
 41
0.434598
 46
0.0
 71
     7
 72
     5
  1
\W1.00;FACADE CERAMIQUE DE BATIMENT
  7
ARIAL
 73
     1
 44
1.0
  0
MTEXT
  5
84
330
1F
100
AcDbEntity
  8
XR$1$TB_1412_1
  6
AUSGEZOGEN
 62
     7
440
 33554687
370
    -3
100
AcDbMText
 10
7.501601
 20
4.939142
 30
0.0
 40
0.0175
 41
0.457071
 46
0.0
 71
     7
 72
     5
  1
\W1.00;ARCHITECTURAL CERAMICS FACADE
  7
ARIAL
 73
     1
 44
1.0
  0
MTEXT
  5
85
330
1F
100
AcDbEntity
  8
XR$1$TB_1412_1
  6
AUSGEZOGEN
 62
     7
440
 33554687
370
    -3
100
AcDbMText
 10
7.500773
 20
4.852544
 30
0.0
 40
0.025
 41
0.292519
 46
0.0
 71
     7
 72
     5
  1
\W1.00;FENSTERSTURZ
  7
ARIAL
 73
     1
 44
1.0
  0
MTEXT
  5
86
330
1F
100
AcDbEntity
  8
XR$1$TB_1412_1
  6
AUSGEZOGEN
 62
     7
440
 33554687
370
    -3
100
AcDbMText
 10
7.500773
 20
4.823889
 30
0.0
 40
0.0175
 41
0.205921
 46
0.0
 71
     7
 72
     5
  1
\W1.00;WINDOW LINTEL
  7
ARIAL
 73
     1
 44
1.0
  0
MTEXT
  5
87
330
1F
100
AcDbEntity
  8
XR$1$TB_1412_1
  6
AUSGEZOGEN
 62
     7
440
 33554687
370
    -3
100
AcDbMText
 10
7.500773
 20
4.797639
 30
0.0
 40
0.0175
 41
0.310933
 46
0.0
 71
     7
 72
     5
  1
\W1.00;LINTEAU DE LA FENETRE
  7
ARIAL
 73
     1
 44
1.0
  0
MTEXT
  5
88
330
1F
100
AcDbEntity
  8
XR$1$TB_1412_1
  6
AUSGEZOGEN
 62
     7
440
 33554687
370
    -3
100
AcDbMText
 10
7.500223
 20
3.80549
 30
0.0
 40
0.0175
 41
0.743802
 46
0.0
 71
     7
 72
     5
  1
\W1.01;Die Verlegevorschriften des Klebemittelherstellers sind einzuhalten!
  7
ARIAL
 73
     1
 44
1.0
  0
MTEXT
  5
89
330
1F
100
AcDbEntity
  8
XR$1$TB_1412_1
  6
AUSGEZOGEN
 62
     7
440
 33554687
370
    -3
100
AcDbMText
 10
7.500223
 20
3.776102
 30
0.0
 40
0.0175
 41
0.766251
 46
0.0
 71
     7
 72
     5
  1
\W1.00;The laying instructions of the adhesive producer have to be observed!
  7
ARIAL
 73
     1
 44
1.0
  0
MTEXT
  5
8A
330
1F
100
AcDbEntity
  8
XR$1$TB_1412_1
  6
AUSGEZOGEN
 62
     7
440
 33554687
370
    -3
100
AcDbMText
 10
7.500223
 20
3.746714
 30
0.0
 40
0.0175
 41
0.832461
 46
0.0
 71
     7
 72
     5
  1
\W1.01;Les instructions de pose du fabricant de l'adzhésive doivent être observées!
  7
ARIAL
 73
     1
 44
1.0
  0
LINE
  5
8B
330
1F
100
AcDbEntity
  8
XR$1$TB_1412_1
  6
AUSGEZOGEN
 62
     1
440
 33554687
370
    70
100
AcDbLine
 10
7.382607
 20
3.563845
 30
0.0
 11
8.432607
 21
3.563845
 31
0.0
  0
MTEXT
  5
8C
330
1F
100
AcDbEntity
  8
XR$1$TB_1412_1
  6
AUSGEZOGEN
 62
     7
440
 33554687
370
    -3
100
AcDbMText
 10
7.500415
 20
3.631224
 30
0.0
 40
0.009
 41
0.89646
 46
0.0
 71
     7
 72
     5
  1
\W0.85;THESE ARE NOT BINDING CONSTRUCTION PROPOSALS WHICH HAVE TO BE VERIFIED FOR EACH INDIVIDUAL PROJECT AS REGARDS APPLICABILITY AND CORRECTNESS.
  7
ARIAL
 73
     1
 44
1.0
  0
MTEXT
  5
8D
330
1F
100
AcDbEntity
  8
XR$1$TB_1412_1
  6
AUSGEZOGEN
 62
     7
440
 33554687
370
    -3
100
AcDbMText
 10
7.500415
 20
3.649223
 30
0.0
 40
0.009
 41
0.8975
 46
0.0
 71
     7
 72
     5
  1
\W0.91;DIES SIND UNVERBINDLICHE KONSTRUKTIONSVORSCHLÄGE, DIE FÜR JEDES PROJEKT AUF ANWENDBARKEIT UND RICHTIGKEIT GEPRÜFT WERDEN MÜSSEN.
  7
ARIAL
 73
     1
 44
1.0
  0
MTEXT
  5
8E
330
1F
100
AcDbEntity
  8
XR$1$TB_1412_1
  6
AUSGEZOGEN
 62
     7
440
 33554687
370
    -3
100
AcDbMText
 10
7.500415
 20
3.613224
 30
0.0
 40
0.009
 41
0.895804
 46
0.0
 71
     7
 72
     5
  1
\W0.80;IL S' AGIT DE PROPOSITIONS DE CONSTRUCTION SANS ENGAGEMENT DE NOTRE PART QUI DOIVENT ETRE VERIFIEES POUR CHAQUE PROJET A LEUR EXACTITUDE ET FAISABILITE.
  7
ARIAL
 73
     1
 44
1.0
  0
MTEXT
  5
8F
330
1F
100
AcDbEntity
  8
XR$1$TB_1412_1
  6
AUSGEZOGEN
 62
     7
440
 33554687
370
    -3
100
AcDbMText
 10
7.915075
 20
3.687152
 30
0.0
 40
0.009
 41
0.348436
 46
0.0
 71
     7
 72
     5
  1
\W0.92;Tel. 09435 / 391 3238   e-mail: as.fassade@deutsche-steinzeug.de
  7
ARIAL
 73
     1
 44
1.0
  0
LINE
  5
90
330
1F
100
AcDbEntity
  8
XR$1$TB_1412_1
  6
AUSGEZOGEN
 62
    52
440
 33554687
370
    70
100
AcDbLine
 10
7.382607
 20
5.04883
 30
0.0
 11
7.382607
 21
3.563845
 31
0.0
  0
LINE
  5
91
330
1F
100
AcDbEntity
  8
XR$1$TB_1412_1
  6
AUSGEZOGEN
 62
    52
440
 33554687
370
    70
100
AcDbLine
 10
8.432596
 20
3.563845
 30
0.0
 11
8.432596
 21
5.04883
 31
0.0
  0
LINE
  5
92
330
1F
100
AcDbEntity
  8
XR$1$TB_1412_1
  6
AUSGEZOGEN
 62
    52
440
 33554687
370
    70
100
AcDbLine
 10
8.432596
 20
5.04883
 30
0.0
 11
7.382607
 21
5.04883
 31
0.0
  0
MTEXT
  5
93
330
1F
100
AcDbEntity
  8
XR$1$TB_1412_1
  6
AUSGEZOGEN
 62
     7
440
 33554687
370
    -3
100
AcDbMText
 10
7.914624
 20
3.703394
 30
0.0
 40
0.009
 41
0.418059
 46
0.0
 71
     7
 72
     5
  1
\W1.00;AGROB BUCHTAL GmbH   Architektenservice   D - 92521 Schwarzenfeld
  7
ARIAL
 73
     1
 44
1.0
  0
HATCH
  5
96
102
{ACAD_REACTORS
330
94
102
}
330
1F
100
AcDbEntity
  8
XR$1$TB_1412_1
  6
AUSGEZOGEN
 62
    14
440
 33554687
370
    -3
100
AcDbHatch
 10
0.0
 20
0.0
 30
0.0
210
0.0
220
0.0
230
1.0
  2
_USER
 70
     0
 71
     0
 91
        1
 92
        0
 93
        8
 72
     1
 10
7.67044533763665
 20
4.137781533260587
 11
7.664232153248998
 21
4.137767079640077
 72
     1
 10
7.664232153248998
 20
4.137767079640077
 11
8.024157556407312
 21
4.137767079640076
 72
     1
 10
8.024157556407312
 20
4.137767079640076
 11
8.024157564275617
 21
4.182767079640077
 72
     1
 10
8.024157564275617
 20
4.182767079640077
 11
7.715430895142909
 21
4.182767079640076
 72
     1
 10
7.715430895142908
 20
4.182767079640076
 11
7.712878468933676
 21
4.180214653430843
 72
     1
 10
7.712878468933676
 20
4.180214653430843
 11
7.712864766652852
 21
4.18020095115002
 72
     1
 10
7.712864766652851
 20
4.18020095115002
 11
7.67179143073679
 21
4.13912761523396
 72
     1
 10
7.67179143073679
 20
4.13912761523396
 11
7.67044533763665
 21
4.137781533260587
 97
        0
 75
     0
 76
     0
 52
90.0
 41
0.06
 77
     1
 78
     2
 53
90.00000000000001
 43
0.0
 44
0.0
 45
-0.06
 46
0.0
 79
     0
 53
180.0
 43
0.0
 44
0.0
 45
0.0
 46
-0.06
 79
     0
 98
        0
1001
ACAD
1010
0.0
1020
0.0
1030
0.0
1001
NEM_ODX
1002
{
1000
BZM_DEPEND
1070
     1
1000
BZM_SCALE
1040
5.0
1000
MUSTER_415
1002
}
  0
HATCH
  5
97
102
{ACAD_REACTORS
330
94
102
}
330
1F
100
AcDbEntity
  8
XR$1$TB_1412_1
  6
AUSGEZOGEN
 62
    14
440
 33554687
370
    -3
100
AcDbHatch
 10
0.0
 20
0.0
 30
0.0
210
0.0
220
0.0
230
1.0
  2
_USER
 70
     0
 71
     0
 91
        1
 92
        0
 93
        3
 72
     1
 10
7.664217691707312
 20
4.137767079640077
 11
7.664232153248804
 21
4.137767079640077
 72
     1
 10
7.664232153248803
 20
4.137767079640077
 11
7.665602125088248
 21
4.139151513021012
 72
     1
 10
7.665602125088248
 20
4.139151513021013
 11
7.664217691707312
 21
4.137767079640078
 97
        0
 75
     0
 76
     0
 52
90.0
 41
0.06
 77
     1
 78
     2
 53
90.00000000000001
 43
0.0
 44
0.0
 45
-0.06
 46
0.0
 79
     0
 53
180.0
 43
0.0
 44
0.0
 45
0.0
 46
-0.06
 79
     0
 98
        0
1001
ACAD
1010
0.0
1020
0.0
1030
0.0
1001
NEM_ODX
1002
{
1000
BZM_DEPEND
1070
     1
1000
BZM_SCALE
1040
5.0
1000
MUSTER_415
1002
}
  0
HATCH
  5
98
330
1F
100
AcDbEntity
  8
XR$1$TB_1412_1
  6
AUSGEZOGEN
 62
    14
440
 33554687
370
    -3
100
AcDbHatch
 10
0.0
 20
0.0
 30
0.0
210
0.0
220
0.0
230
1.0
  2
_USER
 70
     0
 71
     0
 91
        1
 92
        0
 93
        4
 72
     1
 10
7.649217691707312
 20
4.713610377040077
 11
7.649217691707312
 21
4.158980283075673
 72
     1
 10
7.649217691707312
 20
4.158980283075674
 11
7.694217691707312
 21
4.203980283075674
 72
     1
 10
7.694217691707312
 20
4.203980283075674
 11
7.694217691707312
 21
4.713610377040077
 72
     1
 10
7.694217691707312
 20
4.713610377040077
 11
7.649217691707312
 21
4.713610377040077
 97
        0
 75
     0
 76
     0
 52
90.0
 41
0.06
 77
     1
 78
     2
 53
90.00000000000001
 43
0.0
 44
0.0
 45
-0.06
 46
0.0
 79
     0
 53
180.0
 43
0.0
 44
0.0
 45
0.0
 46
-0.06
 79
     0
 98
        0
1001
ACAD
1010
0.0
1020
0.0
1030
0.0
1001
NEM_ODX
1002
{
1000
BZM_DEPEND
1070
     1
1000
BZM_SCALE
1040
5.0
1000
MUSTER_415
1002
}
  0
HATCH
  5
99
330
1F
100
AcDbEntity
  8
XR$1$TB_1412_1
  6
AUSGEZOGEN
 62
     7
440
 33554687
370
    -3
100
AcDbHatch
 10
0.0
 20
0.0
 30
0.0
210
0.0
220
0.0
230
1.0
  2
SCHRAFFUR_12
 70
     0
 71
     0
 91
        1
 92
        0
 93
       89
 72
     1
 10
7.666634390902527
 20
4.105444524661179
 11
7.666393147768821
 21
4.106144000183422
 72
     1
 10
7.666393147768821
 20
4.106144000183422
 11
7.66624982051537
 21
4.106266413222294
 72
     1
 10
7.66624982051537
 20
4.106266413222294
 11
7.66611040907174
 21
4.106393267875548
 72
     1
 10
7.66611040907174
 20
4.106393267875548
 11
7.665975051020193
 21
4.106524438952958
 72
     1
 10
7.665975051020193
 20
4.106524438952958
 11
7.665843879942783
 21
4.106659797004504
 72
     1
 10
7.665843879942783
 20
4.106659797004504
 11
7.665717025289529
 21
4.106799208448135
 72
     1
 10
7.665717025289529
 20
4.106799208448135
 11
7.665594612250658
 21
4.106942535701585
 72
     1
 10
7.665594612250658
 20
4.106942535701585
 11
7.665476761633059
 21
4.107089637318158
 72
     1
 10
7.665476761633059
 20
4.107089637318158
 11
7.665363589741063
 21
4.107240368126322
 72
     1
 10
7.665363589741062
 20
4.107240368126322
 11
7.665255208261665
 21
4.107394579372964
 72
     1
 10
7.665255208261665
 20
4.107394579372964
 11
7.6651517241543
 21
4.107552118870203
 72
     1
 10
7.6651517241543
 20
4.107552118870203
 11
7.665053239545289
 21
4.107712831145575
 72
     1
 10
7.665053239545289
 20
4.107712831145575
 11
7.664959851627049
 21
4.107876557595466
 72
     1
 10
7.664959851627049
 20
4.107876557595466
 11
7.664871652562183
 21
4.10804313664164
 72
     1
 10
7.664871652562183
 20
4.10804313664164
 11
7.664793564281559
 21
4.108202154364521
 72
     1
 10
7.664793564281559
 20
4.108202154364521
 11
7.664788729392517
 21
4.108212403890686
 72
     1
 10
7.664788729392516
 20
4.108212403890686
 11
7.664711163953209
 21
4.108384192296268
 72
     1
 10
7.664711163953209
 20
4.108384192296268
 11
7.664639032791983
 21
4.108558332323969
 72
     1
 10
7.664639032791983
 20
4.108558332323968
 11
7.664572407093587
 21
4.108734652118605
 72
     1
 10
7.664572407093587
 20
4.108734652118605
 11
7.664511352609542
 21
4.108912977673826
 72
     1
 10
7.664511352609542
 20
4.108912977673826
 11
7.66445592959325
 21
4.109093133003841
 72
     1
 10
7.66445592959325
 20
4.109093133003841
 11
7.66440619274054
 21
4.109274940317087
 72
     1
 10
7.66440619274054
 20
4.109274940317087
 11
7.66436219113568
 21
4.109458220191699
 72
     1
 10
7.664362191135679
 20
4.109458220191699
 11
7.66432396820294
 21
4.109642791752564
 72
     1
 10
7.66432396820294
 20
4.109642791752563
 11
7.664291561663741
 21
4.109828472849834
 72
     1
 10
7.664291561663741
 20
4.109828472849835
 11
7.664265003499424
 21
4.110015080238691
 72
     1
 10
7.664265003499424
 20
4.110015080238691
 11
7.664244319919693
 21
4.110202429760166
 72
     1
 10
7.664244319919693
 20
4.110202429760165
 11
7.664229531336742
 21
4.110390336522902
 72
     1
 10
7.664229531336742
 20
4.110390336522902
 11
7.664220652345118
 21
4.110578615085608
 72
     1
 10
7.664220652345118
 20
4.110578615085608
 11
7.664217691707312
 21
4.110767079640076
 72
     1
 10
7.664217691707313
 20
4.110767079640076
 11
7.664217691707313
 21
4.122767079640077
 72
     1
 10
7.664217691707313
 20
4.122767079640077
 11
7.663602206619272
 21
4.122306969971463
 72
     1
 10
7.663602206619272
 20
4.122306969971463
 11
7.662972617787362
 21
4.1218663559641
 72
     1
 10
7.662972617787362
 20
4.1218663559641
 11
7.662329542511483
 21
4.121445669631657
 72
     1
 10
7.662329542511484
 20
4.121445669631657
 11
7.66167361131474
 21
4.121045323449101
 72
     1
 10
7.661673611314739
 20
4.121045323449102
 11
7.661005467325218
 21
4.120665709948265
 72
     1
 10
7.661005467325218
 20
4.120665709948265
 11
7.660325765645421
 21
4.120307201332984
 72
     1
 10
7.660325765645422
 20
4.120307201332984
 11
7.659635172709947
 21
4.119970149114147
 72
     1
 10
7.659635172709947
 20
4.119970149114148
 11
7.65893436563206
 21
4.119654883765063
 72
     1
 10
7.65893436563206
 20
4.119654883765063
 11
7.658224031539802
 21
4.119361714397417
 72
     1
 10
7.658224031539802
 20
4.119361714397417
 11
7.657504866902267
 21
4.119090928458216
 72
     1
 10
7.657504866902267
 20
4.119090928458216
 11
7.656777576846733
 21
4.11884279144793
 72
     1
 10
7.656777576846733
 20
4.11884279144793
 11
7.656042874467301
 21
4.118617546660191
 72
     1
 10
7.6560428744673
 20
4.118617546660191
 11
7.655301480125703
 21
4.118415414943237
 72
     1
 10
7.655301480125703
 20
4.118415414943236
 11
7.654554120745026
 21
4.118236594483379
 72
     1
 10
7.654554120745026
 20
4.11823659448338
 11
7.653801529096956
 21
4.118081260610689
 72
     1
 10
7.653801529096955
 20
4.118081260610689
 11
7.653044443083321
 21
4.117949565627076
 72
     1
 10
7.653044443083321
 20
4.117949565627075
 11
7.652283605012589
 21
4.117841638656973
 72
     1
 10
7.652283605012589
 20
4.117841638656974
 11
7.651519760872049
 21
4.117757585520727
 72
     1
 10
7.651519760872049
 20
4.117757585520727
 11
7.650753659596383
 21
4.117697488630844
 72
     1
 10
7.650753659596383
 20
4.117697488630844
 11
7.649986052333354
 21
4.117661406911182
 72
     1
 10
7.649986052333354
 20
4.117661406911182
 11
7.649217691707312
 21
4.117649375739182
 72
     1
 10
7.649217691707312
 20
4.117649375739182
 11
7.64844933108127
 21
4.117661406911182
 72
     1
 10
7.64844933108127
 20
4.117661406911182
 11
7.64768172381824
 21
4.117697488630844
 72
     1
 10
7.64768172381824
 20
4.117697488630844
 11
7.646915622542575
 21
4.117757585520728
 72
     1
 10
7.646915622542575
 20
4.117757585520728
 11
7.646151778402035
 21
4.117841638656974
 72
     1
 10
7.646151778402035
 20
4.117841638656974
 11
7.645390940331303
 21
4.117949565627076
 72
     1
 10
7.645390940331303
 20
4.117949565627075
 11
7.644633854317669
 21
4.118081260610688
 72
     1
 10
7.644633854317669
 20
4.118081260610689
 11
7.643881262669599
 21
4.11823659448338
 72
     1
 10
7.643881262669599
 20
4.11823659448338
 11
7.643133903288921
 21
4.118415414943237
 72
     1
 10
7.64313390328892
 20
4.118415414943236
 11
7.642392508947324
 21
4.11861754666019
 72
     1
 10
7.642392508947324
 20
4.118617546660191
 11
7.641657806567891
 21
4.11884279144793
 72
     1
 10
7.641657806567891
 20
4.11884279144793
 11
7.640930516512358
 21
4.119090928458216
 72
     1
 10
7.640930516512358
 20
4.119090928458216
 11
7.640211351874823
 21
4.119361714397417
 72
     1
 10
7.640211351874823
 20
4.119361714397417
 11
7.639501017782565
 21
4.119654883765063
 72
     1
 10
7.639501017782565
 20
4.119654883765063
 11
7.638800210704678
 21
4.119970149114148
 72
     1
 10
7.638800210704678
 20
4.119970149114148
 11
7.638109617769202
 21
4.120307201332984
 72
     1
 10
7.638109617769203
 20
4.120307201332984
 11
7.637429916089405
 21
4.120665709948266
 72
     1
 10
7.637429916089405
 20
4.120665709948266
 11
7.636761772099885
 21
4.121045323449101
 72
     1
 10
7.636761772099885
 20
4.121045323449102
 11
7.636105840903141
 21
4.121445669631659
 72
     1
 10
7.636105840903141
 20
4.121445669631658
 11
7.635462765627262
 21
4.1218663559641
 72
     1
 10
7.635462765627262
 20
4.1218663559641
 11
7.634833176795351
 21
4.122306969971463
 72
     1
 10
7.634833176795351
 20
4.122306969971463
 11
7.634217691707311
 21
4.122767079640076
 72
     1
 10
7.634217691707312
 20
4.122767079640076
 11
7.634217691707312
 21
4.104767079640077
 72
     1
 10
7.634217691707312
 20
4.104767079640077
 11
7.636336504249594
 21
4.105286513217464
 72
     1
 10
7.636336504249593
 20
4.105286513217463
 11
7.638470561562471
 21
4.105739257312942
 72
     1
 10
7.638470561562472
 20
4.105739257312943
 11
7.640617765141984
 21
4.106124866725129
 72
     1
 10
7.640617765141984
 20
4.106124866725129
 11
7.64277600355692
 21
4.106442962268857
 72
     1
 10
7.642776003556919
 20
4.106442962268857
 11
7.644943154525068
 21
4.106693231148044
 72
     1
 10
7.644943154525068
 20
4.106693231148043
 11
7.647117087000153
 21
4.106875427263289
 72
     1
 10
7.647117087000153
 20
4.106875427263289
 11
7.649295663267368
 21
4.10698937145386
 72
     1
 10
7.649295663267368
 20
4.10698937145386
 11
7.651476741045482
 21
4.107034951673874
 72
     1
 10
7.651476741045482
 20
4.107034951673874
 11
7.653658175593428
 21
4.107012123102473
 72
     1
 10
7.653658175593428
 20
4.107012123102473
 11
7.655837821819309
 21
4.10692090818791
 72
     1
 10
7.655837821819309
 20
4.106920908187911
 11
7.658013536389762
 21
4.10676139662546
 72
     1
 10
7.658013536389762
 20
4.106761396625459
 11
7.660183179837577
 21
4.106533745269222
 72
     1
 10
7.660183179837577
 20
4.106533745269222
 11
7.662344618665518
 21
4.106238177977889
 72
     1
 10
7.662344618665519
 20
4.106238177977889
 11
7.664495727444287
 21
4.105874985394606
 72
     1
 10
7.664495727444286
 20
4.105874985394607
 11
7.666634390902527
 21
4.105444524661179
 97
        0
 75
     0
 76
     2
 52
90.0
 41
0.001
 77
     0
 78
     2
 53
135.0
 43
0.0
 44
0.0
 45
-0.0017677669529664
 46
-0.0017677669529664
 79
     0
 53
225.0
 43
0.0
 44
0.0
 45
0.0017677669529664
 46
-0.0017677669529664
 79
     0
 98
        0
1001
ACAD
1010
0.0
1020
0.0
1030
0.0
1001
NEM_ODX
1002
{
1000
BZM_DEPEND
1070
     0
1000
SCHRAFFUR_12
1002
}
  0
HATCH
  5
9A
330
1F
100
AcDbEntity
  8
XR$1$TB_1412_1
  6
AUSGEZOGEN
 62
     7
440
 33554687
370
    -3
100
AcDbHatch
 10
0.0
 20
0.0
 30
0.0
210
0.0
220
0.0
230
1.0
  2
SCHRAFFUR_304
 70
     0
 71
     0
 91
        1
 92
        0
 93
      138
 72
     1
 10
7.664217691707313
 20
4.122767079640077
 11
7.664217691707313
 21
4.137767079640076
 72
     1
 10
7.664217691707313
 20
4.137767079640076
 11
7.664232153248803
 21
4.137767079640076
 72
     1
 10
7.664232153248802
 20
4.137767079640076
 11
7.664231012785176
 21
4.137967079640076
 72
     1
 10
7.664231012785176
 20
4.137967079640077
 11
7.664229583515214
 21
4.13805956741484
 72
     1
 10
7.664229583515214
 20
4.138059567414839
 11
7.664213588964229
 21
4.138527733782212
 72
     1
 10
7.664213588964229
 20
4.138527733782212
 11
7.664182983487009
 21
4.138995172417718
 72
     1
 10
7.664182983487009
 20
4.138995172417718
 11
7.66413779693214
 21
4.139461427442847
 72
     1
 10
7.66413779693214
 20
4.139461427442848
 11
7.664078073368671
 21
4.139926044133429
 72
     1
 10
7.664078073368672
 20
4.139926044133429
 11
7.66400387104316
 21
4.140388569363107
 72
     1
 10
7.66400387104316
 20
4.140388569363107
 11
7.663915262322848
 21
4.140848552045264
 72
     1
 10
7.663915262322847
 20
4.140848552045263
 11
7.663812333625091
 21
4.141305543572951
 72
     1
 10
7.663812333625091
 20
4.141305543572951
 11
7.663695185333082
 21
4.1417590982564
 72
     1
 10
7.663695185333082
 20
4.1417590982564
 11
7.66356393169794
 21
4.142208773757693
 72
     1
 10
7.663563931697941
 20
4.142208773757692
 11
7.6634187007273
 21
4.142654131522153
 72
     1
 10
7.663418700727299
 20
4.142654131522154
 11
7.66325963406045
 21
4.143094737206068
 72
     1
 10
7.66325963406045
 20
4.143094737206068
 11
7.663086886830221
 21
4.143530161100276
 72
     1
 10
7.663086886830221
 20
4.143530161100276
 11
7.66290062751166
 21
4.143959978549258
 72
     1
 10
7.66290062751166
 20
4.143959978549258
 11
7.662701037757754
 21
4.14438377036529
 72
     1
 10
7.662701037757754
 20
4.14438377036529
 11
7.662488312222239
 21
4.144801123237258
 72
     1
 10
7.662488312222239
 20
4.144801123237257
 11
7.662262658369785
 21
4.145211630133756
 72
     1
 10
7.662262658369785
 20
4.145211630133756
 11
7.662024296273646
 21
4.145614890700045
 72
     1
 10
7.662024296273647
 20
4.145614890700045
 11
7.661773458401037
 21
4.146010511648511
 72
     1
 10
7.661773458401037
 20
4.146010511648511
 11
7.661510389386411
 21
4.146398107142219
 72
     1
 10
7.661510389386411
 20
4.146398107142218
 11
7.661235345792881
 21
4.14677729917122
 72
     1
 10
7.661235345792881
 20
4.146777299171221
 11
7.660948595861996
 21
4.1471477179212
 72
     1
 10
7.660948595861997
 20
4.1471477179212
 11
7.660650419252136
 21
4.147509002134157
 72
     1
 10
7.660650419252136
 20
4.147509002134156
 11
7.660341106765768
 21
4.147860799460719
 72
     1
 10
7.660341106765768
 20
4.14786079946072
 11
7.660020960065837
 21
4.148202766803786
 72
     1
 10
7.660020960065837
 20
4.148202766803785
 11
7.659690291381565
 21
4.148534570653133
 72
     1
 10
7.659690291381565
 20
4.148534570653133
 11
7.65934942320394
 21
4.148855887410683
 72
     1
 10
7.65934942320394
 20
4.148855887410683
 11
7.6589986879712
 21
4.149166403706093
 72
     1
 10
7.6589986879712
 20
4.149166403706093
 11
7.658638427744623
 21
4.14946581670238
 72
     1
 10
7.658638427744624
 20
4.14946581670238
 11
7.658268993874913
 21
4.149753834391266
 72
     1
 10
7.658268993874913
 20
4.149753834391267
 11
7.657890746659554
 21
4.150030175877968
 72
     1
 10
7.657890746659554
 20
4.150030175877968
 11
7.657504054991407
 21
4.150294571655139
 72
     1
 10
7.657504054991407
 20
4.150294571655139
 11
7.657109295998952
 21
4.150546763865718
 72
     1
 10
7.657109295998952
 20
4.150546763865718
 11
7.656706854678484
 21
4.150786506554405
 72
     1
 10
7.656706854678484
 20
4.150786506554405
 11
7.65629712351863
 21
4.151013565907537
 72
     1
 10
7.65629712351863
 20
4.151013565907537
 11
7.656247751021067
 21
4.151039809199571
 72
     1
 10
7.656247751021067
 20
4.151039809199571
 11
7.655880502117579
 21
4.151227720481118
 72
     1
 10
7.655880502117579
 20
4.151227720481118
 11
7.655457396793357
 21
4.151428761416784
 72
     1
 10
7.655457396793357
 20
4.151428761416784
 11
7.655028220187558
 21
4.151616492645502
 72
     1
 10
7.655028220187558
 20
4.151616492645502
 11
7.654593390862916
 21
4.151790731078779
 72
     1
 10
7.654593390862917
 20
4.15179073107878
 11
7.654153332895086
 21
4.151951306787243
 72
     1
 10
7.654153332895086
 20
4.151951306787243
 11
7.653708475459053
 21
4.15209806316634
 72
     1
 10
7.653708475459053
 20
4.15209806316634
 11
7.653259252410582
 21
4.152230857089099
 72
     1
 10
7.653259252410582
 20
4.1522308570891
 11
7.65280610186308
 21
4.152349559045692
 72
     1
 10
7.65280610186308
 20
4.152349559045692
 11
7.652349465760327
 21
4.152454053269754
 72
     1
 10
7.652349465760327
 20
4.152454053269754
 11
7.651889789445456
 21
4.152544237851287
 72
     1
 10
7.651889789445456
 20
4.152544237851287
 11
7.651427521226625
 21
4.152620024836043
 72
     1
 10
7.651427521226625
 20
4.152620024836044
 11
7.650963111939795
 21
4.152681340311314
 72
     1
 10
7.650963111939795
 20
4.152681340311313
 11
7.650497014509051
 21
4.152728124477997
 72
     1
 10
7.650497014509051
 20
4.152728124477998
 11
7.650029683504864
 21
4.152760331708942
 72
     1
 10
7.650029683504864
 20
4.152760331708942
 11
7.649561574700776
 21
4.152777930593422
 72
     1
 10
7.649561574700776
 20
4.152777930593422
 11
7.649417691707312
 21
4.152780400717942
 72
     1
 10
7.649417691707312
 20
4.152780400717942
 11
7.649217691707313
 21
4.152781541181569
 72
     1
 10
7.649217691707312
 20
4.152781541181569
 11
7.649124933711171
 21
4.152781164903754
 72
     1
 10
7.649124933711171
 20
4.152781164903754
 11
7.648447120883142
 21
4.152760991180825
 72
     1
 10
7.648447120883142
 20
4.152760991180825
 11
7.64766423327772
 21
4.152699376590029
 72
     1
 10
7.647664233277721
 20
4.152699376590029
 11
7.646885643251134
 21
4.152596873268432
 72
     1
 10
7.646885643251134
 20
4.152596873268433
 11
7.646113484864466
 21
4.152453762170512
 72
     1
 10
7.646113484864466
 20
4.152453762170511
 11
7.645349874550203
 21
4.152270435553842
 72
     1
 10
7.645349874550203
 20
4.152270435553842
 11
7.644596905311123
 21
4.152047395903935
 72
     1
 10
7.644596905311122
 20
4.152047395903936
 11
7.643856640983562
 21
4.151785254556964
 72
     1
 10
7.643856640983563
 20
4.151785254556964
 11
7.643131110580605
 21
4.151484730024146
 72
     1
 10
7.643131110580605
 20
4.151484730024145
 11
7.642627462676073
 21
4.151249212035034
 72
     1
 10
7.642627462676073
 20
4.151249212035035
 11
7.641732160226741
 21
4.150771929216273
 72
     1
 10
7.641732160226741
 20
4.150771929216273
 11
7.641062574701518
 21
4.150361606678689
 72
     1
 10
7.641062574701518
 20
4.150361606678689
 11
7.640415381442343
 21
4.149916803075122
 72
     1
 10
7.640415381442343
 20
4.149916803075123
 11
7.639792354360999
 21
4.149438737581367
 72
     1
 10
7.639792354361
 20
4.149438737581366
 11
7.639195201131366
 21
4.148928720541675
 72
     1
 10
7.639195201131365
 20
4.148928720541675
 11
7.638625558508939
 21
4.148388149877302
 72
     1
 10
7.63862555850894
 20
4.148388149877302
 11
7.638084987844571
 21
4.147818507254879
 72
     1
 10
7.638084987844571
 20
4.14781850725488
 11
7.637574970804876
 21
4.147221354025243
 72
     1
 10
7.637574970804876
 20
4.147221354025242
 11
7.637096905311124
 21
4.146598326943906
 72
     1
 10
7.637096905311124
 20
4.146598326943906
 11
7.636652101707553
 21
4.145951133684723
 72
     1
 10
7.636652101707553
 20
4.145951133684723
 11
7.636241779169974
 21
4.145281548159507
 72
     1
 10
7.636241779169974
 20
4.145281548159506
 11
7.635867062363917
 21
4.144591405655603
 72
     1
 10
7.635867062363917
 20
4.144591405655603
 11
7.635658597096872
 21
4.144165777475522
 72
     1
 10
7.635658597096871
 20
4.144165777475522
 11
7.635643226729777
 21
4.144132995743728
 72
     1
 10
7.635643226729777
 20
4.144132995743728
 11
7.635451526080558
 21
4.143705577407331
 72
     1
 10
7.635451526080558
 20
4.143705577407331
 11
7.635273265259574
 21
4.143272381547583
 72
     1
 10
7.635273265259574
 20
4.143272381547584
 11
7.635108618119116
 21
4.142833830647074
 72
     1
 10
7.635108618119116
 20
4.142833830647074
 11
7.634957745234471
 21
4.142390352410991
 72
     1
 10
7.634957745234471
 20
4.142390352410991
 11
7.63482079374732
 21
4.141942379350008
 72
     1
 10
7.63482079374732
 20
4.141942379350009
 11
7.634697897222231
 21
4.141490348358459
 72
     1
 10
7.634697897222231
 20
4.141490348358459
 11
7.634589175516401
 21
4.141034700288253
 72
     1
 10
7.634589175516401
 20
4.141034700288253
 11
7.634494734662764
 21
4.140575879518928
 72
     1
 10
7.634494734662764
 20
4.140575879518929
 11
7.634414666766576
 21
4.140114333524254
 72
     1
 10
7.634414666766576
 20
4.140114333524254
 11
7.63434904991559
 21
4.139650512435831
 72
     1
 10
7.63434904991559
 20
4.139650512435831
 11
7.634297948103905
 21
4.139184868604085
 72
     1
 10
7.634297948103905
 20
4.139184868604085
 11
7.63426141116954
 21
4.138717856157114
 72
     1
 10
7.63426141116954
 20
4.138717856157114
 11
7.634239474745846
 21
4.138249930557777
 72
     1
 10
7.634239474745846
 20
4.138249930557777
 11
7.634232160226739
 21
4.137781548159506
 72
     1
 10
7.634232160226738
 20
4.137781548159506
 11
7.634217691707311
 21
4.137781548159506
 72
     1
 10
7.634217691707311
 20
4.137781548159506
 11
7.634217691707312
 21
4.122767079640076
 72
     1
 10
7.634217691707312
 20
4.122767079640076
 11
7.63483317679534
 21
4.122306969971472
 72
     1
 10
7.63483317679534
 20
4.122306969971471
 11
7.635462765627272
 21
4.121866355964092
 72
     1
 10
7.635462765627272
 20
4.121866355964092
 11
7.63610584090313
 21
4.121445669631664
 72
     1
 10
7.636105840903131
 20
4.121445669631664
 11
7.636761772099888
 21
4.121045323449101
 72
     1
 10
7.636761772099887
 20
4.121045323449102
 11
7.637429916089399
 21
4.120665709948272
 72
     1
 10
7.637429916089399
 20
4.120665709948271
 11
7.638109617769206
 21
4.120307201332983
 72
     1
 10
7.638109617769206
 20
4.120307201332983
 11
7.638800210704664
 21
4.119970149114155
 72
     1
 10
7.638800210704664
 20
4.119970149114155
 11
7.639501017782577
 21
4.119654883765056
 72
     1
 10
7.639501017782577
 20
4.119654883765056
 11
7.640211351874821
 21
4.119361714397419
 72
     1
 10
7.640211351874821
 20
4.119361714397419
 11
7.640930516512356
 21
4.119090928458216
 72
     1
 10
7.640930516512356
 20
4.119090928458216
 11
7.641657806567887
 21
4.118842791447931
 72
     1
 10
7.641657806567886
 20
4.118842791447931
 11
7.642392508947314
 21
4.118617546660193
 72
     1
 10
7.642392508947315
 20
4.118617546660193
 11
7.64313390328891
 21
4.11841541494324
 72
     1
 10
7.64313390328891
 20
4.118415414943239
 11
7.643881262669594
 21
4.118236594483379
 72
     1
 10
7.643881262669594
 20
4.11823659448338
 11
7.644633854317666
 21
4.118081260610689
 72
     1
 10
7.644633854317665
 20
4.118081260610689
 11
7.645390940331296
 21
4.117949565627076
 72
     1
 10
7.645390940331296
 20
4.117949565627075
 11
7.646151778402033
 21
4.117841638656973
 72
     1
 10
7.646151778402033
 20
4.117841638656974
 11
7.646915622542528
 21
4.117757585520731
 72
     1
 10
7.646915622542528
 20
4.117757585520731
 11
7.647681723818265
 21
4.117697488630843
 72
     1
 10
7.647681723818266
 20
4.117697488630843
 11
7.64844933108126
 21
4.117661406911182
 72
     1
 10
7.64844933108126
 20
4.117661406911182
 11
7.64921769170733
 21
4.117649375739182
 72
     1
 10
7.64921769170733
 20
4.117649375739182
 11
7.649986052333364
 21
4.117661406911182
 72
     1
 10
7.649986052333364
 20
4.117661406911182
 11
7.650753659596338
 21
4.11769748863084
 72
     1
 10
7.650753659596338
 20
4.11769748863084
 11
7.651519760872081
 21
4.117757585520731
 72
     1
 10
7.651519760872081
 20
4.117757585520731
 11
7.65228360501257
 21
4.117841638656971
 72
     1
 10
7.652283605012569
 20
4.117841638656971
 11
7.653044443083328
 21
4.117949565627076
 72
     1
 10
7.653044443083328
 20
4.117949565627075
 11
7.653801529096958
 21
4.118081260610688
 72
     1
 10
7.653801529096958
 20
4.118081260610689
 11
7.654554120745017
 21
4.118236594483379
 72
     1
 10
7.654554120745017
 20
4.118236594483379
 11
7.655301480125692
 21
4.118415414943235
 72
     1
 10
7.655301480125693
 20
4.118415414943234
 11
7.656042874467286
 21
4.118617546660187
 72
     1
 10
7.656042874467286
 20
4.118617546660187
 11
7.65677757684673
 21
4.118842791447928
 72
     1
 10
7.65677757684673
 20
4.118842791447929
 11
7.657504866902269
 21
4.119090928458216
 72
     1
 10
7.657504866902269
 20
4.119090928458216
 11
7.658224031539804
 21
4.119361714397419
 72
     1
 10
7.658224031539804
 20
4.119361714397419
 11
7.658934365632047
 21
4.119654883765056
 72
     1
 10
7.658934365632046
 20
4.119654883765056
 11
7.659635172709931
 21
4.119970149114142
 72
     1
 10
7.659635172709932
 20
4.119970149114142
 11
7.660325765645418
 21
4.120307201332983
 72
     1
 10
7.660325765645418
 20
4.120307201332982
 11
7.661005467325209
 21
4.120665709948262
 72
     1
 10
7.661005467325209
 20
4.120665709948262
 11
7.66167361131474
 21
4.121045323449104
 72
     1
 10
7.66167361131474
 20
4.121045323449104
 11
7.662329542511493
 21
4.121445669631665
 72
     1
 10
7.662329542511494
 20
4.121445669631664
 11
7.662972617787352
 21
4.121866355964092
 72
     1
 10
7.662972617787352
 20
4.121866355964092
 11
7.663602206619262
 21
4.122306969971456
 72
     1
 10
7.663602206619262
 20
4.122306969971456
 11
7.664217691707313
 21
4.122767079640077
 97
        0
 75
     0
 76
     2
 52
90.0
 41
0.005
 77
     0
 78
     2
 53
135.0
 43
0.0
 44
0.0
 45
-0.0053033008588991
 46
-0.0053033008588991
 79
     0
 53
225.0
 43
0.0
 44
0.0
 45
0.0053033008588991
 46
-0.0053033008588991
 79
     0
 98
        0
1001
ACAD
1010
0.0
1020
0.0
1030
0.0
1001
NEM_ODX
1002
{
1000
BZM_DEPEND
1070
     1
1000
BZM_SCALE
1040
5.0
1000
SCHRAFFUR_304
1002
}
  0
HATCH
  5
9B
330
1F
100
AcDbEntity
  8
XR$1$TB_1412_1
  6
AUSGEZOGEN
 62
     7
440
 33554687
370
    -3
100
AcDbHatch
 10
0.0
 20
0.0
 30
0.0
210
0.0
220
0.0
230
1.0
  2
SCHRAFFUR_12
 70
     0
 71
     0
 91
        1
 92
        0
 93
       59
 72
     1
 10
8.052912482487363
 20
4.121866355964101
 11
8.052269407211485
 21
4.121445669631658
 72
     1
 10
8.052269407211483
 20
4.121445669631658
 11
8.051613476014738
 21
4.121045323449102
 72
     1
 10
8.051613476014738
 20
4.121045323449103
 11
8.050945332025217
 21
4.120665709948266
 72
     1
 10
8.050945332025218
 20
4.120665709948266
 11
8.050265630345422
 21
4.120307201332984
 72
     1
 10
8.050265630345422
 20
4.120307201332984
 11
8.049575037409946
 21
4.119970149114148
 72
     1
 10
8.049575037409946
 20
4.119970149114149
 11
8.048874230332059
 21
4.119654883765063
 72
     1
 10
8.04887423033206
 20
4.119654883765063
 11
8.048163896239801
 21
4.119361714397418
 72
     1
 10
8.048163896239801
 20
4.119361714397418
 11
8.047444731602265
 21
4.119090928458216
 72
     1
 10
8.047444731602265
 20
4.119090928458216
 11
8.046717441546733
 21
4.118842791447931
 72
     1
 10
8.046717441546733
 20
4.118842791447931
 11
8.0459827391673
 21
4.118617546660191
 72
     1
 10
8.0459827391673
 20
4.118617546660191
 11
8.045241344825703
 21
4.118415414943237
 72
     1
 10
8.045241344825703
 20
4.118415414943236
 11
8.044493985445024
 21
4.118236594483379
 72
     1
 10
8.044493985445024
 20
4.11823659448338
 11
8.043741393796955
 21
4.118081260610689
 72
     1
 10
8.043741393796955
 20
4.118081260610689
 11
8.04298430778332
 21
4.117949565627076
 72
     1
 10
8.042984307783321
 20
4.117949565627075
 11
8.04222346971259
 21
4.117841638656973
 72
     1
 10
8.042223469712589
 20
4.117841638656974
 11
8.041459625572049
 21
4.117757585520728
 72
     1
 10
8.041459625572049
 20
4.117757585520728
 11
8.040693524296383
 21
4.117697488630844
 72
     1
 10
8.040693524296383
 20
4.117697488630844
 11
8.039925917033354
 21
4.117661406911182
 72
     1
 10
8.039925917033354
 20
4.117661406911182
 11
8.039157556407313
 21
4.117649375739183
 72
     1
 10
8.039157556407313
 20
4.117649375739183
 11
8.03838919578127
 21
4.117661406911182
 72
     1
 10
8.03838919578127
 20
4.117661406911182
 11
8.03762158851824
 21
4.117697488630844
 72
     1
 10
8.03762158851824
 20
4.117697488630844
 11
8.036855487242574
 21
4.117757585520729
 72
     1
 10
8.036855487242574
 20
4.117757585520729
 11
8.036091643102035
 21
4.117841638656974
 72
     1
 10
8.036091643102035
 20
4.117841638656974
 11
8.035330805031304
 21
4.117949565627076
 72
     1
 10
8.035330805031304
 20
4.117949565627075
 11
8.034573719017668
 21
4.118081260610688
 72
     1
 10
8.034573719017668
 20
4.118081260610689
 11
8.033821127369599
 21
4.11823659448338
 72
     1
 10
8.033821127369599
 20
4.11823659448338
 11
8.03307376798892
 21
4.118415414943238
 72
     1
 10
8.03307376798892
 20
4.118415414943237
 11
8.032332373647325
 21
4.11861754666019
 72
     1
 10
8.032332373647325
 20
4.118617546660191
 11
8.03159767126789
 21
4.118842791447931
 72
     1
 10
8.03159767126789
 20
4.118842791447931
 11
8.030870381212358
 21
4.119090928458216
 72
     1
 10
8.030870381212358
 20
4.119090928458216
 11
8.030151216574822
 21
4.119361714397418
 72
     1
 10
8.030151216574822
 20
4.119361714397418
 11
8.029440882482563
 21
4.119654883765063
 72
     1
 10
8.029440882482564
 20
4.119654883765063
 11
8.028740075404677
 21
4.119970149114149
 72
     1
 10
8.028740075404677
 20
4.119970149114149
 11
8.028049482469202
 21
4.120307201332985
 72
     1
 10
8.028049482469202
 20
4.120307201332984
 11
8.027369780789405
 21
4.120665709948267
 72
     1
 10
8.027369780789405
 20
4.120665709948267
 11
8.026701636799885
 21
4.121045323449102
 72
     1
 10
8.026701636799885
 20
4.121045323449103
 11
8.02604570560314
 21
4.12144566963166
 72
     1
 10
8.02604570560314
 20
4.121445669631659
 11
8.025402630327262
 21
4.121866355964101
 72
     1
 10
8.025402630327262
 20
4.121866355964101
 11
8.024773041495353
 21
4.122306969971463
 72
     1
 10
8.02477304149535
 20
4.122306969971463
 11
8.024157556407312
 21
4.122767079640077
 72
     1
 10
8.024157556407312
 20
4.122767079640077
 11
8.024157556407312
 21
4.104767079640077
 72
     1
 10
8.024157556407312
 20
4.104767079640077
 11
8.02630432223362
 21
4.105075057251361
 72
     1
 10
8.02630432223362
 20
4.10507505725136
 11
8.02845478424834
 21
4.105335206935142
 72
     1
 10
8.02845478424834
 20
4.105335206935142
 11
8.030608143652762
 21
4.105547596783769
 72
     1
 10
8.030608143652762
 20
4.10554759678377
 11
8.0327636049902
 21
4.105712294521307
 72
     1
 10
8.0327636049902
 20
4.105712294521306
 11
8.034883019225068
 21
4.105827745093356
 72
     1
 10
8.034883019225068
 20
4.105827745093356
 11
8.037077665908413
 21
4.105898883615176
 72
     1
 10
8.037077665908413
 20
4.105898883615176
 11
8.039235527967367
 21
4.105989371453861
 72
     1
 10
8.039235527967367
 20
4.105989371453862
 11
8.041390655014922
 21
4.105895514050578
 72
     1
 10
8.041390655014924
 20
4.105895514050577
 11
8.043598040293428
 21
4.10582036477938
 72
     1
 10
8.043598040293428
 20
4.10582036477938
 11
8.04577768651931
 21
4.105697255069082
 72
     1
 10
8.045777686519308
 20
4.105697255069082
 11
8.047953401089762
 21
4.105525719607873
 72
     1
 10
8.047953401089762
 20
4.105525719607873
 11
8.050123044537576
 21
4.105306006751051
 72
     1
 10
8.050123044537576
 20
4.105306006751051
 11
8.054157556407311
 21
4.104767079640077
 72
     1
 10
8.054157556407311
 20
4.104767079640077
 11
8.054160517045117
 21
4.110578615085609
 72
     1
 10
8.054160517045117
 20
4.110578615085609
 11
8.054157556407311
 21
4.110767079640077
 72
     1
 10
8.054157556407311
 20
4.110767079640077
 11
8.054157556407311
 21
4.122767079640078
 72
     1
 10
8.054157556407311
 20
4.122767079640078
 11
8.05354207131927
 21
4.122306969971463
 72
     1
 10
8.053542071319272
 20
4.122306969971463
 11
8.052912482487363
 21
4.121866355964101
 97
        0
 75
     0
 76
     2
 52
90.0
 41
0.001
 77
     0
 78
     2
 53
135.0
 43
0.0
 44
0.0
 45
-0.0017677669529664
 46
-0.0017677669529664
 79
     0
 53
225.0
 43
0.0
 44
0.0
 45
0.0017677669529664
 46
-0.0017677669529664
 79
     0
 98
        0
1001
ACAD
1010
0.0
1020
0.0
1030
0.0
1001
NEM_ODX
1002
{
1000
BZM_DEPEND
1070
     0
1000
SCHRAFFUR_12
1002
}
  0
HATCH
  5
9C
330
1F
100
AcDbEntity
  8
XR$1$TB_1412_1
  6
AUSGEZOGEN
 62
    14
440
 33554687
370
    -3
100
AcDbHatch
 10
0.0
 20
0.0
 30
0.0
210
0.0
220
0.0
230
1.0
  2
SCHRAFFUR_304
 70
     0
 71
     0
 91
        1
 92
        0
 93
       14
 72
     1
 10
8.039011453781296
 20
4.117769427996178
 11
8.04558310142173
 21
4.118472316473706
 72
     1
 10
8.04558310142173
 20
4.118472316473706
 11
8.050853153651007
 21
4.120441766222957
 72
     1
 10
8.050853153651007
 20
4.120441766222957
 11
8.053777811992168
 21
4.123287703567378
 72
     1
 10
8.053777811992168
 20
4.123287703567377
 11
8.053777811992168
 21
4.12644645571277
 72
     1
 10
8.053777811992168
 20
4.12644645571277
 11
8.050853153651007
 21
4.129292393057192
 72
     1
 10
8.050853153651007
 20
4.129292393057192
 11
8.04558310142173
 21
4.131261842806442
 72
     1
 10
8.04558310142173
 20
4.131261842806442
 11
8.039011453781296
 21
4.131964731283974
 72
     1
 10
8.039011453781296
 20
4.131964731283974
 11
8.03243980614086
 21
4.131261842806442
 72
     1
 10
8.03243980614086
 20
4.131261842806442
 11
8.027169753911584
 21
4.129292393057192
 72
     1
 10
8.027169753911584
 20
4.129292393057192
 11
8.024245095570423
 21
4.12644645571277
 72
     1
 10
8.024245095570423
 20
4.12644645571277
 11
8.024245095570421
 21
4.123287703567377
 72
     1
 10
8.024245095570423
 20
4.123287703567377
 11
8.027169753911586
 21
4.120441766222955
 72
     1
 10
8.027169753911584
 20
4.120441766222956
 11
8.03243980614086
 21
4.118472316473706
 72
     1
 10
8.03243980614086
 20
4.118472316473706
 11
8.039011453781296
 21
4.117769427996178
 97
        0
 75
     0
 76
     2
 52
90.0
 41
0.005
 77
     0
 78
     2
 53
135.0
 43
0.0
 44
0.0
 45
-0.0053033008588991
 46
-0.0053033008588991
 79
     0
 53
225.0
 43
0.0
 44
0.0
 45
0.0053033008588991
 46
-0.0053033008588991
 79
     0
 98
        0
1001
ACAD
1010
0.0
1020
0.0
1030
0.0
1001
NEM_ODX
1002
{
1000
BZM_DEPEND
1070
     1
1000
BZM_SCALE
1040
5.0
1000
SCHRAFFUR_304
1002
}
  0
HATCH
  5
9D
330
1F
100
AcDbEntity
  8
XR$1$TB_1412_1
  6
AUSGEZOGEN
 62
     7
440
 33554687
370
    -3
100
AcDbHatch
 10
0.0
 20
0.0
 30
0.0
210
0.0
220
0.0
230
1.0
  2
_USER
 70
     0
 71
     0
 91
        1
 92
        0
 93
        4
 72
     1
 10
8.134157556407311
 20
4.172767079640076
 11
8.134157556407311
 21
4.182767079640076
 72
     1
 10
8.134157556407311
 20
4.182767079640076
 11
8.054157556407311
 21
4.182767079640076
 72
     1
 10
8.054157556407311
 20
4.182767079640076
 11
8.054157556407311
 21
4.172767079640076
 72
     1
 10
8.054157556407311
 20
4.172767079640076
 11
8.134157556407311
 21
4.172767079640076
 97
        0
 75
     0
 76
     0
 52
90.0
 41
0.013
 77
     1
 78
     2
 53
90.00000000000001
 43
8.054157556407311
 44
4.182767079640076
 45
-0.013
 46
0.0
 79
     0
 53
180.0
 43
8.054157556407311
 44
4.182767079640076
 45
0.0
 46
-0.013
 79
     0
 98
        0
1001
ACAD
1010
8054.157556
1020
4182.76708
1030
0.0
1001
NEM_ODX
1002
{
1000
BZM_DEPEND
1070
     0
1000
MUSTER_447
1002
}
  0
HATCH
  5
9E
330
1F
100
AcDbEntity
  8
XR$1$TB_1412_1
  6
AUSGEZOGEN
 62
     9
440
 33554687
370
    -3
100
AcDbHatch
 10
0.0
 20
0.0
 30
0.0
210
0.0
220
0.0
230
1.0
  2
SOLID
 70
     1
 71
     0
 91
        1
 92
        3
 72
     0
 73
     1
 93
       34
 10
7.634217691707314
 20
4.104767079640077
 10
7.634217691707312
 20
4.713610377040077
 10
7.616217691707313
 20
4.713610377040077
 10
7.616217691707312
 20
4.110767079640077
 10
7.616225914498784
 20
4.110453063902617
 10
7.616250560335102
 20
4.110139908860467
 10
7.61629156166374
 20
4.109828472849826
 10
7.616348806102909
 20
4.109519609495167
 10
7.616422136749578
 20
4.109214165369456
 10
7.616511352609542
 20
4.108912977673826
 10
7.616616209148328
 20
4.108616871942797
 10
7.616736418961455
 20
4.108326659781617
 10
7.616871652562183
 20
4.108043136641637
 10
7.617021539284605
 20
4.107767079640078
 10
7.617185668299639
 20
4.107499245429986
 10
7.617363589741061
 20
4.107240368126317
 10
7.61755481593857
 20
4.106991157293777
 10
7.617758822754447
 20
4.106752296001917
 10
7.617975051020192
 20
4.106524438952957
 10
7.618202908069159
 20
4.106308210687207
 10
7.618441769361012
 20
4.106104203871327
 10
7.618690980193557
 20
4.105912977673826
 10
7.618949857497221
 20
4.105735056232397
 10
7.619217691707312
 20
4.105570927217366
 10
7.619493748708875
 20
4.105421040494948
 10
7.619777271848857
 20
4.105285806894217
 10
7.62006748401004
 20
4.105165597081087
 10
7.620363589741062
 20
4.105060740542307
 10
7.620664777436697
 20
4.104971524682338
 10
7.620970221562406
 20
4.104898194035666
 10
7.621279084917071
 20
4.104840949596507
 10
7.621590520927706
 20
4.104799948267867
 10
7.621903675969854
 20
4.104775302431547
 10
7.622217691707312
 20
4.104767079640077
 97
        0
 75
     0
 76
     1
 98
        0
  0
HATCH
  5
9F
330
1F
100
AcDbEntity
  8
XR$1$TB_1412_1
  6
AUSGEZOGEN
 62
     9
440
 33554687
370
    -3
100
AcDbHatch
 10
0.0
 20
0.0
 30
0.0
210
0.0
220
0.0
230
1.0
  2
SOLID
 70
     1
 71
     0
 91
        1
 92
        3
 72
     0
 73
     1
 93
       12
 10
7.664217691707312
 20
4.122767079640077
 10
7.664217691707312
 20
4.110767079640077
 10
7.664793564281565
 20
4.108202154364506
 10
7.666410638930394
 20
4.106129585796007
 10
7.668758506006876
 20
4.104947219066856
 10
7.668970221562406
 20
4.104898194035666
 10
7.66927908491707
 20
4.104840949596507
 10
7.669590520927706
 20
4.104799948267867
 10
7.669903675969853
 20
4.104775302431547
 10
7.670217691707311
 20
4.104767079640077
 10
8.024157556407312
 20
4.104767079640077
 10
8.024157556407312
 20
4.122767079640076
 97
        0
 75
     0
 76
     1
 98
        0
  0
LINE
  5
A0
330
1F
100
AcDbEntity
  8
XR$1$TB_1412_1
  6
STRICHPUNKT2_S5
 62
    14
440
 33554687
370
    -3
100
AcDbLine
 10
7.964218
 20
4.71361
 30
0.0
 11
7.556218
 21
4.71361
 31
0.0
  0
LINE
  5
A1
330
1F
100
AcDbEntity
  8
XR$1$TB_1412_1
  6
STRICHPUNKT2_S5
 62
    14
440
 33554687
370
    -3
100
AcDbLine
 10
8.323958
 20
4.452767
 30
0.0
 11
8.323958
 21
4.101767
 31
0.0
  0
LINE
  5
A2
330
1F
100
AcDbEntity
  8
XR$1$TB_1412_1
  6
AUSGEZOGEN
 62
    54
440
 33554687
370
    -3
100
AcDbLine
 10
7.664218
 20
4.122767
 30
0.0
 11
7.664218
 21
4.137767
 31
0.0
  0
ARC
  5
A3
330
1F
100
AcDbEntity
  8
XR$1$TB_1412_1
  6
AUSGEZOGEN
 62
    14
440
 33554687
370
    -3
100
AcDbCircle
 10
7.65184
 20
4.037467
 30
0.0
 40
0.0695687354119341
100
AcDbArc
 50
75.924657
 51
104.672963
  0
LINE
  5
A4
330
1F
100
AcDbEntity
  8
XR$1$TB_1412_1
  6
AUSGEZOGEN
 62
    14
440
 33554687
370
    -3
100
AcDbLine
 10
8.054158
 20
4.155767
 30
0.0
 11
8.054158
 21
4.182767
 31
0.0
  0
LINE
  5
A5
330
1F
100
AcDbEntity
  8
XR$1$TB_1412_1
  6
AUSGEZOGEN
 62
    14
440
 33554687
370
    -3
100
AcDbLine
 10
8.042158
 20
4.154267
 30
0.0
 11
8.036158
 21
4.158767
 31
0.0
  0
ARC
  5
A6
330
1F
100
AcDbEntity
  8
XR$1$TB_1412_1
  6
AUSGEZOGEN
 62
    14
440
 33554687
370
    -3
100
AcDbCircle
 10
8.046658
 20
4.160267
 30
0.0
 40
0.0074999978542328
100
AcDbArc
 50
270.0
 51
359.999895
  0
ARC
  5
A7
330
1F
100
AcDbEntity
  8
XR$1$TB_1412_1
  6
AUSGEZOGEN
 62
    14
440
 33554687
370
    -3
100
AcDbCircle
 10
8.046658
 20
4.160267
 30
0.0
 40
0.0074999978542328
100
AcDbArc
 50
233.130097
 51
270.0
  0
ARC
  5
A8
330
1F
100
AcDbEntity
  8
XR$1$TB_1412_1
  6
AUSGEZOGEN
 62
    14
440
 33554687
370
    -3
100
AcDbCircle
 10
8.031658
 20
4.152767
 30
0.0
 40
0.0074999978542328
100
AcDbArc
 50
53.130127
 51
180.000003
  0
LINE
  5
A9
330
1F
100
AcDbEntity
  8
XR$1$TB_1412_1
  6
AUSGEZOGEN
 62
    14
440
 33554687
370
    -3
100
AcDbLine
 10
8.042158
 20
4.166267
 30
0.0
 11
8.036158
 21
4.161767
 31
0.0
  0
LINE
  5
AA
330
1F
100
AcDbEntity
  8
XR$1$TB_1412_1
  6
AUSGEZOGEN
 62
    14
440
 33554687
370
    -3
100
AcDbLine
 10
8.042158
 20
4.169267
 30
0.0
 11
8.036158
 21
4.173767
 31
0.0
  0
ARC
  5
AB
330
1F
100
AcDbEntity
  8
XR$1$TB_1412_1
  6
AUSGEZOGEN
 62
    14
440
 33554687
370
    -3
100
AcDbCircle
 10
8.046658
 20
4.160267
 30
0.0
 40
0.0074999978542328
100
AcDbArc
 50
90.00003
 51
126.869904
  0
ARC
  5
AC
330
1F
100
AcDbEntity
  8
XR$1$TB_1412_1
  6
AUSGEZOGEN
 62
    14
440
 33554687
370
    -3
100
AcDbCircle
 10
8.046658
 20
4.160267
 30
0.0
 40
0.0074999978542328
100
AcDbArc
 50
359.999875
 51
90.00003
  0
ARC
  5
AD
330
1F
100
AcDbEntity
  8
XR$1$TB_1412_1
  6
AUSGEZOGEN
 62
    14
440
 33554687
370
    -3
100
AcDbCircle
 10
8.046658
 20
4.175267
 30
0.0
 40
0.0074999978542328
100
AcDbArc
 50
270.0
 51
126.86981
  0
ARC
  5
AE
330
1F
100
AcDbEntity
  8
XR$1$TB_1412_1
  6
AUSGEZOGEN
 62
    14
440
 33554687
370
    -3
100
AcDbCircle
 10
8.046658
 20
4.175267
 30
0.0
 40
0.0074999978542328
100
AcDbArc
 50
233.130097
 51
270.0
  0
ARC
  5
AF
330
1F
100
AcDbEntity
  8
XR$1$TB_1412_1
  6
AUSGEZOGEN
 62
    14
440
 33554687
370
    -3
100
AcDbCircle
 10
8.031658
 20
4.167767
 30
0.0
 40
0.0074999978542328
100
AcDbArc
 50
53.130127
 51
180.000003
  0
ARC
  5
B0
330
1F
100
AcDbEntity
  8
XR$1$TB_1412_1
  6
AUSGEZOGEN
 62
    14
440
 33554687
370
    -3
100
AcDbCircle
 10
8.031658
 20
4.167767
 30
0.0
 40
0.0074999978542328
100
AcDbArc
 50
180.000003
 51
306.869848
  0
LINE
  5
B1
330
1F
100
AcDbEntity
  8
XR$1$TB_1412_1
  6
AUSGEZOGEN
 62
    14
440
 33554687
370
    -3
100
AcDbLine
 10
8.042158
 20
4.181267
 30
0.0
 11
8.036158
 21
4.176767
 31
0.0
  0
ARC
  5
B2
330
1F
100
AcDbEntity
  8
XR$1$TB_1412_1
  6
AUSGEZOGEN
 62
    14
440
 33554687
370
    -3
100
AcDbCircle
 10
8.031658
 20
4.182767
 30
0.0
 40
0.0074999978542328
100
AcDbArc
 50
179.999344
 51
306.869848
  0
LINE
  5
B3
330
1F
100
AcDbEntity
  8
XR$1$TB_1412_1
  6
AUSGEZOGEN
 62
    14
440
 33554687
370
    -3
100
AcDbLine
 10
8.024158
 20
4.137767
 30
0.0
 11
8.024158
 21
4.179767
 31
0.0
  0
ARC
  5
B4
330
1F
100
AcDbEntity
  8
XR$1$TB_1412_1
  6
AUSGEZOGEN
 62
    14
440
 33554687
370
    -3
100
AcDbCircle
 10
8.039158
 20
4.007845
 30
0.0
 40
0.0980757128001628
100
AcDbArc
 50
81.20248
 51
98.79752
  0
ARC
  5
B5
330
1F
100
AcDbEntity
  8
XR$1$TB_1412_1
  6
AUSGEZOGEN
 62
    94
440
 33554687
370
    25
100
AcDbCircle
 10
7.622218
 20
4.110767
 30
0.0
 40
0.006
100
AcDbArc
 50
180.0
 51
270.0
  0
LINE
  5
B6
330
1F
100
AcDbEntity
  8
XR$1$TB_1412_1
  6
AUSGEZOGEN
 62
    94
440
 33554687
370
    25
100
AcDbLine
 10
7.634218
 20
4.104767
 30
0.0
 11
7.622218
 21
4.104767
 31
0.0
  0
LINE
  5
B7
330
1F
100
AcDbEntity
  8
XR$1$TB_1412_1
  6
AUSGEZOGEN
 62
    94
440
 33554687
370
    25
100
AcDbLine
 10
7.616218
 20
4.110767
 30
0.0
 11
7.616218
 21
4.71361
 31
0.0
  0
LINE
  5
B8
330
1F
100
AcDbEntity
  8
XR$1$TB_1412_1
  6
AUSGEZOGEN
 62
    94
440
 33554687
370
    25
100
AcDbLine
 10
7.634218
 20
4.104767
 30
0.0
 11
7.634218
 21
4.71361
 31
0.0
  0
ARC
  5
B9
330
1F
100
AcDbEntity
  8
XR$1$TB_1412_1
  6
AUSGEZOGEN
 62
    94
440
 33554687
370
    25
100
AcDbCircle
 10
7.670218
 20
4.110767
 30
0.0
 40
0.006
100
AcDbArc
 50
180.0
 51
270.0
  0
LINE
  5
BA
330
1F
100
AcDbEntity
  8
XR$1$TB_1412_1
  6
AUSGEZOGEN
 62
    94
440
 33554687
370
    25
100
AcDbLine
 10
8.024158
 20
4.104767
 30
0.0
 11
7.670218
 21
4.104767
 31
0.0
  0
LINE
  5
BB
330
1F
100
AcDbEntity
  8
XR$1$TB_1412_1
  6
AUSGEZOGEN
 62
    94
440
 33554687
370
    25
100
AcDbLine
 10
8.024158
 20
4.122767
 30
0.0
 11
7.664218
 21
4.122767
 31
0.0
  0
LINE
  5
BC
330
1F
100
AcDbEntity
  8
XR$1$TB_1412_1
  6
AUSGEZOGEN
 62
    94
440
 33554687
370
    25
100
AcDbLine
 10
8.024158
 20
4.122767
 30
0.0
 11
8.024158
 21
4.104767
 31
0.0
  0
LINE
  5
BD
330
1F
100
AcDbEntity
  8
XR$1$TB_1412_1
  6
AUSGEZOGEN
 62
   174
440
 33554687
370
    35
100
AcDbLine
 10
7.694218
 20
4.182767
 30
0.0
 11
7.694218
 21
4.71361
 31
0.0
  0
LINE
  5
BE
330
1F
100
AcDbEntity
  8
XR$1$TB_1412_1
  6
AUSGEZOGEN
 62
   174
440
 33554687
370
    35
100
AcDbLine
 10
8.323958
 20
4.182767
 30
0.0
 11
7.694218
 21
4.182767
 31
0.0
  0
LINE
  5
BF
330
1F
100
AcDbEntity
  8
XR$1$TB_1412_1
  6
AUSGEZOGEN
 62
     7
440
 33554687
370
    -3
100
AcDbLine
 10
8.054158
 20
3.887767
 30
0.0
 11
8.054158
 21
4.064767
 31
0.0
  0
LINE
  5
C0
330
1F
100
AcDbEntity
  8
XR$1$TB_1412_1
  6
AUSGEZOGEN
 62
     3
440
 33554687
370
    25
100
AcDbLine
 10
8.054158
 20
4.064767
 30
0.0
 11
8.054158
 21
4.182767
 31
0.0
  0
LINE
  5
C1
330
1F
100
AcDbEntity
  8
XR$1$TB_1412_1
  6
AUSGEZOGEN
 62
     7
440
 33554687
370
    -3
100
AcDbLine
 10
7.536355
 20
4.625568
 30
0.0
 11
7.756743
 21
4.625568
 31
0.0
  0
LINE
  5
C2
330
1F
100
AcDbEntity
  8
XR$1$TB_1412_1
  6
AUSGEZOGEN
 62
     7
440
 33554687
370
    -3
100
AcDbLine
 10
7.651513
 20
4.027285
 30
0.0
 11
7.651513
 21
4.114587
 31
0.0
  0
LINE
  5
C3
330
1F
100
AcDbEntity
  8
XR$1$TB_1412_1
  6
AUSGEZOGEN
 62
    54
440
 33554687
370
    -3
100
AcDbLine
 10
7.649218
 20
4.152782
 30
0.0
 11
7.649218
 21
4.71361
 31
0.0
  0
LINE
  5
C4
330
1F
100
AcDbEntity
  8
XR$1$TB_1412_1
  6
AUSGEZOGEN
 62
    54
440
 33554687
370
    -3
100
AcDbLine
 10
7.634232
 20
4.137767
 30
0.0
 11
7.634218
 21
4.137767
 31
0.0
  0
LINE
  5
C5
330
1F
100
AcDbEntity
  8
XR$1$TB_1412_1
  6
AUSGEZOGEN
 62
    54
440
 33554687
370
    -3
100
AcDbLine
 10
8.024158
 20
4.137767
 30
0.0
 11
7.670431
 21
4.137767
 31
0.0
  0
LINE
  5
C6
330
1F
100
AcDbEntity
  8
XR$1$TB_1412_1
  6
AUSGEZOGEN
 62
    54
440
 33554687
370
    -3
100
AcDbLine
 10
7.664232
 20
4.137767
 30
0.0
 11
7.664218
 21
4.137767
 31
0.0
  0
LINE
  5
C7
330
1F
100
AcDbEntity
  8
XR$1$TB_1412_1
  6
VERDECKT2_S2
 62
     7
440
 33554687
370
    50
100
AcDbLine
 10
7.649418
 20
4.152782
 30
0.0
 11
7.649418
 21
4.71361
 31
0.0
  0
LINE
  5
C8
330
1F
100
AcDbEntity
  8
XR$1$TB_1412_1
  6
AUSGEZOGEN
 62
    94
440
 33554687
370
    25
100
AcDbLine
 10
7.664218
 20
4.110767
 30
0.0
 11
7.664218
 21
4.122767
 31
0.0
  0
LINE
  5
C9
330
1F
100
AcDbEntity
  8
XR$1$TB_1412_1
  6
AUSGEZOGEN
 62
    14
440
 33554687
370
    -3
100
AcDbLine
 10
7.658778
 20
4.15157
 30
0.0
 11
7.666203
 21
4.150509
 31
0.0
  0
ARC
  5
CA
330
1F
100
AcDbEntity
  8
XR$1$TB_1412_1
  6
AUSGEZOGEN
 62
    14
440
 33554687
370
    -3
100
AcDbCircle
 10
7.649232
 20
4.148388
 30
0.0
 40
0.0074999978542328
100
AcDbArc
 50
20.704956
 51
45.0
  0
ARC
  5
CB
330
1F
100
AcDbEntity
  8
XR$1$TB_1412_1
  6
AUSGEZOGEN
 62
    14
440
 33554687
370
    -3
100
AcDbCircle
 10
7.659839
 20
4.158995
 30
0.0
 40
0.0074999978542328
100
AcDbArc
 50
135.000105
 51
225.000036
  0
ARC
  5
CC
330
1F
100
AcDbEntity
  8
XR$1$TB_1412_1
  6
AUSGEZOGEN
 62
    14
440
 33554687
370
    -3
100
AcDbCircle
 10
7.659839
 20
4.158995
 30
0.0
 40
0.0074999978542328
100
AcDbArc
 50
225.000036
 51
261.869903
  0
ARC
  5
CD
330
1F
100
AcDbEntity
  8
XR$1$TB_1412_1
  6
AUSGEZOGEN
 62
    14
440
 33554687
370
    -3
100
AcDbCircle
 10
7.665142
 20
4.143085
 30
0.0
 40
0.0074999978542328
100
AcDbArc
 50
314.999997
 51
81.869873
  0
ARC
  5
CE
330
1F
100
AcDbEntity
  8
XR$1$TB_1412_1
  6
AUSGEZOGEN
 62
    14
440
 33554687
370
    -3
100
AcDbCircle
 10
7.665142
 20
4.143085
 30
0.0
 40
0.0074999978542328
100
AcDbArc
 50
261.870064
 51
314.999997
  0
LINE
  5
CF
330
1F
100
AcDbEntity
  8
XR$1$TB_1412_1
  6
AUSGEZOGEN
 62
    14
440
 33554687
370
    -3
100
AcDbLine
 10
7.667263
 20
4.160055
 30
0.0
 11
7.668324
 21
4.152631
 31
0.0
  0
LINE
  5
D0
330
1F
100
AcDbEntity
  8
XR$1$TB_1412_1
  6
AUSGEZOGEN
 62
    14
440
 33554687
370
    -3
100
AcDbLine
 10
7.669385
 20
4.162177
 30
0.0
 11
7.676809
 21
4.161116
 31
0.0
  0
ARC
  5
D1
330
1F
100
AcDbEntity
  8
XR$1$TB_1412_1
  6
AUSGEZOGEN
 62
    14
440
 33554687
370
    -3
100
AcDbCircle
 10
7.659839
 20
4.158995
 30
0.0
 40
0.0074999978542328
100
AcDbArc
 50
8.130096
 51
45.0
  0
ARC
  5
D2
330
1F
100
AcDbEntity
  8
XR$1$TB_1412_1
  6
AUSGEZOGEN
 62
    14
440
 33554687
370
    -3
100
AcDbCircle
 10
7.659839
 20
4.158995
 30
0.0
 40
0.0074999978542328
100
AcDbArc
 50
45.0
 51
135.000125
  0
ARC
  5
D3
330
1F
100
AcDbEntity
  8
XR$1$TB_1412_1
  6
AUSGEZOGEN
 62
    14
440
 33554687
370
    -3
100
AcDbCircle
 10
7.670445
 20
4.169601
 30
0.0
 40
0.0074999978542328
100
AcDbArc
 50
225.000036
 51
261.869903
  0
ARC
  5
D4
330
1F
100
AcDbEntity
  8
XR$1$TB_1412_1
  6
AUSGEZOGEN
 62
    14
440
 33554687
370
    -3
100
AcDbCircle
 10
7.675749
 20
4.153691
 30
0.0
 40
0.0074999978542328
100
AcDbArc
 50
314.999997
 51
81.869873
  0
ARC
  5
D5
330
1F
100
AcDbEntity
  8
XR$1$TB_1412_1
  6
AUSGEZOGEN
 62
    14
440
 33554687
370
    -3
100
AcDbCircle
 10
7.675749
 20
4.153691
 30
0.0
 40
0.0074999978542328
100
AcDbArc
 50
188.130152
 51
314.999997
  0
LINE
  5
D6
330
1F
100
AcDbEntity
  8
XR$1$TB_1412_1
  6
AUSGEZOGEN
 62
    54
440
 33554687
370
    -3
100
AcDbLine
 10
7.649218
 20
4.15898
 30
0.0
 11
7.694218
 21
4.20398
 31
0.0
  0
LINE
  5
D7
330
1F
100
AcDbEntity
  8
XR$1$TB_1412_1
  6
AUSGEZOGEN
 62
    54
440
 33554687
370
    -3
100
AcDbLine
 10
7.664218
 20
4.131554
 30
0.0
 11
7.715431
 21
4.182767
 31
0.0
  0
ARC
  5
D8
330
1F
100
AcDbEntity
  8
XR$1$TB_1412_1
  6
AUSGEZOGEN
 62
    14
440
 33554687
370
    -3
100
AcDbCircle
 10
7.649232
 20
4.148388
 30
0.0
 40
0.0074999978542328
100
AcDbArc
 50
45.0
 51
90.11047
  0
ARC
  5
D9
330
1F
100
AcDbEntity
  8
XR$1$TB_1412_1
  6
AUSGEZOGEN
 62
    14
440
 33554687
370
    -3
100
AcDbCircle
 10
7.670445
 20
4.169601
 30
0.0
 40
0.0074999978542328
100
AcDbArc
 50
135.000105
 51
225.000036
  0
LINE
  5
DA
330
1F
100
AcDbEntity
  8
XR$1$TB_1412_1
  6
AUSGEZOGEN
 62
    14
440
 33554687
370
    -3
100
AcDbLine
 10
7.67787
 20
4.170662
 30
0.0
 11
7.678931
 21
4.163237
 31
0.0
  0
LINE
  5
DB
330
1F
100
AcDbEntity
  8
XR$1$TB_1412_1
  6
AUSGEZOGEN
 62
    14
440
 33554687
370
    -3
100
AcDbLine
 10
7.679991
 20
4.172783
 30
0.0
 11
7.687416
 21
4.171723
 31
0.0
  0
ARC
  5
DC
330
1F
100
AcDbEntity
  8
XR$1$TB_1412_1
  6
AUSGEZOGEN
 62
    14
440
 33554687
370
    -3
100
AcDbCircle
 10
7.670445
 20
4.169601
 30
0.0
 40
0.0074999978542328
100
AcDbArc
 50
8.130096
 51
45.0
  0
ARC
  5
DD
330
1F
100
AcDbEntity
  8
XR$1$TB_1412_1
  6
AUSGEZOGEN
 62
    14
440
 33554687
370
    -3
100
AcDbCircle
 10
7.670445
 20
4.169601
 30
0.0
 40
0.0074999978542328
100
AcDbArc
 50
45.0
 51
135.000125
  0
ARC
  5
DE
330
1F
100
AcDbEntity
  8
XR$1$TB_1412_1
  6
AUSGEZOGEN
 62
    14
440
 33554687
370
    -3
100
AcDbCircle
 10
7.681052
 20
4.180208
 30
0.0
 40
0.0074999978542328
100
AcDbArc
 50
225.000036
 51
261.869903
  0
ARC
  5
DF
330
1F
100
AcDbEntity
  8
XR$1$TB_1412_1
  6
AUSGEZOGEN
 62
    14
440
 33554687
370
    -3
100
AcDbCircle
 10
7.686355
 20
4.164298
 30
0.0
 40
0.0074999978542328
100
AcDbArc
 50
314.999997
 51
81.869873
  0
ARC
  5
E0
330
1F
100
AcDbEntity
  8
XR$1$TB_1412_1
  6
AUSGEZOGEN
 62
    14
440
 33554687
370
    -3
100
AcDbCircle
 10
7.686355
 20
4.164298
 30
0.0
 40
0.0074999978542328
100
AcDbArc
 50
188.130152
 51
314.999997
  0
ARC
  5
E1
330
1F
100
AcDbEntity
  8
XR$1$TB_1412_1
  6
AUSGEZOGEN
 62
    14
440
 33554687
370
    -3
100
AcDbCircle
 10
7.681052
 20
4.180208
 30
0.0
 40
0.0074999978542328
100
AcDbArc
 50
135.000105
 51
225.000036
  0
LINE
  5
E2
330
1F
100
AcDbEntity
  8
XR$1$TB_1412_1
  6
AUSGEZOGEN
 62
    14
440
 33554687
370
    -3
100
AcDbLine
 10
7.688476
 20
4.181268
 30
0.0
 11
7.689537
 21
4.173844
 31
0.0
  0
LINE
  5
E3
330
1F
100
AcDbEntity
  8
XR$1$TB_1412_1
  6
AUSGEZOGEN
 62
    14
440
 33554687
370
    -3
100
AcDbLine
 10
7.690598
 20
4.18339
 30
0.0
 11
7.698022
 21
4.182329
 31
0.0
  0
ARC
  5
E4
330
1F
100
AcDbEntity
  8
XR$1$TB_1412_1
  6
AUSGEZOGEN
 62
    14
440
 33554687
370
    -3
100
AcDbCircle
 10
7.681052
 20
4.180208
 30
0.0
 40
0.0074999978542328
100
AcDbArc
 50
8.130096
 51
45.0
  0
ARC
  5
E5
330
1F
100
AcDbEntity
  8
XR$1$TB_1412_1
  6
AUSGEZOGEN
 62
    14
440
 33554687
370
    -3
100
AcDbCircle
 10
7.681052
 20
4.180208
 30
0.0
 40
0.0074999978542328
100
AcDbArc
 50
45.0
 51
135.000125
  0
ARC
  5
E6
330
1F
100
AcDbEntity
  8
XR$1$TB_1412_1
  6
AUSGEZOGEN
 62
    14
440
 33554687
370
    -3
100
AcDbCircle
 10
7.691658
 20
4.190814
 30
0.0
 40
0.0074999978542328
100
AcDbArc
 50
225.000036
 51
261.869903
  0
ARC
  5
E7
330
1F
100
AcDbEntity
  8
XR$1$TB_1412_1
  6
AUSGEZOGEN
 62
    14
440
 33554687
370
    -3
100
AcDbCircle
 10
7.696962
 20
4.174905
 30
0.0
 40
0.0074999978542328
100
AcDbArc
 50
314.999997
 51
81.869873
  0
ARC
  5
E8
330
1F
100
AcDbEntity
  8
XR$1$TB_1412_1
  6
AUSGEZOGEN
 62
    14
440
 33554687
370
    -3
100
AcDbCircle
 10
7.696962
 20
4.174905
 30
0.0
 40
0.0074999978542328
100
AcDbArc
 50
188.130152
 51
314.999997
  0
ARC
  5
E9
330
1F
100
AcDbEntity
  8
XR$1$TB_1412_1
  6
AUSGEZOGEN
 62
    14
440
 33554687
370
    -3
100
AcDbCircle
 10
7.691658
 20
4.190814
 30
0.0
 40
0.0074999978542328
100
AcDbArc
 50
135.000105
 51
225.000036
  0
ARC
  5
EA
330
1F
100
AcDbEntity
  8
XR$1$TB_1412_1
  6
AUSGEZOGEN
 62
    14
440
 33554687
370
    -3
100
AcDbCircle
 10
7.707568
 20
4.185511
 30
0.0
 40
0.0074999978542328
100
AcDbArc
 50
314.999997
 51
338.538921
  0
ARC
  5
EB
330
1F
100
AcDbEntity
  8
XR$1$TB_1412_1
  6
AUSGEZOGEN
 62
    14
440
 33554687
370
    -3
100
AcDbCircle
 10
7.702265
 20
4.201421
 30
0.0
 40
0.0074999978542328
100
AcDbArc
 50
225.000036
 51
225.103172
  0
ARC
  5
EC
330
1F
100
AcDbEntity
  8
XR$1$TB_1412_1
  6
AUSGEZOGEN
 62
    14
440
 33554687
370
    -3
100
AcDbCircle
 10
7.691658
 20
4.190814
 30
0.0
 40
0.0074999978542328
100
AcDbArc
 50
44.896828
 51
45.0
  0
ARC
  5
ED
330
1F
100
AcDbEntity
  8
XR$1$TB_1412_1
  6
AUSGEZOGEN
 62
    14
440
 33554687
370
    -3
100
AcDbCircle
 10
7.691658
 20
4.190814
 30
0.0
 40
0.0074999978542328
100
AcDbArc
 50
70.047918
 51
135.000125
  0
ARC
  5
EE
330
1F
100
AcDbEntity
  8
XR$1$TB_1412_1
  6
AUSGEZOGEN
 62
    14
440
 33554687
370
    -3
100
AcDbCircle
 10
7.707568
 20
4.185511
 30
0.0
 40
0.0074999978542328
100
AcDbArc
 50
201.461079
 51
315.074018
  0
LINE
  5
EF
330
1F
100
AcDbEntity
  8
XR$1$TB_1412_1
  6
VERDECKT2_S2
 62
     7
440
 33554687
370
    50
100
AcDbLine
 10
8.024158
 20
4.137967
 30
0.0
 11
7.664218
 21
4.137967
 31
0.0
  0
LINE
  5
F0
330
1F
100
AcDbEntity
  8
XR$1$TB_1412_1
  6
AUSGEZOGEN
 62
    54
440
 33554687
370
    -3
100
AcDbLine
 10
7.664218
 20
4.122767
 30
0.0
 11
7.664218
 21
4.137967
 31
0.0
  0
ARC
  5
F1
330
1F
100
AcDbEntity
  8
XR$1$TB_1412_1
  6
AUSGEZOGEN
 62
    14
440
 33554687
370
    -3
100
AcDbCircle
 10
7.665142
 20
4.143085
 30
0.0
 40
0.0074999978542328
100
AcDbArc
 50
314.84363
 51
314.999997
  0
ARC
  5
F2
330
1F
100
AcDbEntity
  8
XR$1$TB_1412_1
  6
AUSGEZOGEN
 62
     7
440
 33554687
370
    -3
100
AcDbCircle
 10
7.649218
 20
4.142191
 30
0.0
 40
0.0245413664097806
100
AcDbArc
 50
232.322744
 51
307.677256
  0
ARC
  5
F3
330
1F
100
AcDbEntity
  8
XR$1$TB_1412_1
  6
AUSGEZOGEN
 62
    14
440
 33554687
370
    -3
100
AcDbCircle
 10
7.649232
 20
4.137782
 30
0.0
 40
0.015
100
AcDbArc
 50
357.483256
 51
180.0
  0
LINE
  5
F4
330
1F
100
AcDbEntity
  8
XR$1$TB_1412_1
  6
AUSGEZOGEN
 62
     7
440
 33554687
370
    -3
100
AcDbLine
 10
7.634232
 20
4.137782
 30
0.0
 11
7.634218
 21
4.137782
 31
0.0
  0
ELLIPSE
  5
F5
330
1F
100
AcDbEntity
  8
XR$1$TB_1412_1
  6
AUSGEZOGEN
 62
    14
440
 33554687
370
    -3
100
AcDbEllipse
 10
8.039011
 20
4.124867
 30
0.0
 11
0.01514610262601562
 21
0.0
 31
0.0
210
0.0
220
0.0
230
1.0
 40
0.468612
 41
0.0
 42
6.283185307179586
  0
LINE
  5
F6
330
1F
100
AcDbEntity
  8
XR$1$TB_1412_1
  6
AUSGEZOGEN
 62
    14
440
 33554687
370
    -3
100
AcDbLine
 10
8.042158
 20
4.139267
 30
0.0
 11
8.036158
 21
4.143767
 31
0.0
  0
ARC
  5
F7
330
1F
100
AcDbEntity
  8
XR$1$TB_1412_1
  6
AUSGEZOGEN
 62
    14
440
 33554687
370
    -3
100
AcDbCircle
 10
8.046658
 20
4.145267
 30
0.0
 40
0.0074999978542328
100
AcDbArc
 50
270.0
 51
359.999895
  0
ARC
  5
F8
330
1F
100
AcDbEntity
  8
XR$1$TB_1412_1
  6
AUSGEZOGEN
 62
    14
440
 33554687
370
    -3
100
AcDbCircle
 10
8.046658
 20
4.145267
 30
0.0
 40
0.0074999978542328
100
AcDbArc
 50
233.130097
 51
270.0
  0
ARC
  5
F9
330
1F
100
AcDbEntity
  8
XR$1$TB_1412_1
  6
AUSGEZOGEN
 62
    14
440
 33554687
370
    -3
100
AcDbCircle
 10
8.031658
 20
4.137767
 30
0.0
 40
0.0074999978542328
100
AcDbArc
 50
53.130127
 51
180.000003
  0
LINE
  5
FA
330
1F
100
AcDbEntity
  8
XR$1$TB_1412_1
  6
AUSGEZOGEN
 62
    14
440
 33554687
370
    -3
100
AcDbLine
 10
8.042158
 20
4.151267
 30
0.0
 11
8.036158
 21
4.146767
 31
0.0
  0
ARC
  5
FB
330
1F
100
AcDbEntity
  8
XR$1$TB_1412_1
  6
AUSGEZOGEN
 62
    14
440
 33554687
370
    -3
100
AcDbCircle
 10
8.046658
 20
4.145267
 30
0.0
 40
0.0074999978542328
100
AcDbArc
 50
90.00003
 51
126.869904
  0
ARC
  5
FC
330
1F
100
AcDbEntity
  8
XR$1$TB_1412_1
  6
AUSGEZOGEN
 62
    14
440
 33554687
370
    -3
100
AcDbCircle
 10
8.046658
 20
4.145267
 30
0.0
 40
0.0074999978542328
100
AcDbArc
 50
359.999875
 51
90.00003
  0
ARC
  5
FD
330
1F
100
AcDbEntity
  8
XR$1$TB_1412_1
  6
AUSGEZOGEN
 62
    14
440
 33554687
370
    -3
100
AcDbCircle
 10
8.031658
 20
4.152767
 30
0.0
 40
0.0074999978542328
100
AcDbArc
 50
180.000003
 51
306.869848
  0
LINE
  5
FE
330
1F
100
AcDbEntity
  8
XR$1$TB_1412_1
  6
AUSGEZOGEN
 62
    14
440
 33554687
370
    -3
100
AcDbLine
 10
8.042158
 20
4.136267
 30
0.0
 11
8.036158
 21
4.131767
 31
0.0
  0
ARC
  5
FF
330
1F
100
AcDbEntity
  8
XR$1$TB_1412_1
  6
AUSGEZOGEN
 62
    14
440
 33554687
370
    -3
100
AcDbCircle
 10
8.046658
 20
4.130267
 30
0.0
 40
0.0074999978542328
100
AcDbArc
 50
90.00003
 51
126.869904
  0
ARC
  5
100
330
1F
100
AcDbEntity
  8
XR$1$TB_1412_1
  6
AUSGEZOGEN
 62
    14
440
 33554687
370
    -3
100
AcDbCircle
 10
8.046658
 20
4.130267
 30
0.0
 40
0.0074999978542328
100
AcDbArc
 50
359.999875
 51
90.00003
  0
ARC
  5
101
330
1F
100
AcDbEntity
  8
XR$1$TB_1412_1
  6
AUSGEZOGEN
 62
    14
440
 33554687
370
    -3
100
AcDbCircle
 10
8.046658
 20
4.130267
 30
0.0
 40
0.0074999978542328
100
AcDbArc
 50
334.533142
 51
359.999895
  0
ARC
  5
102
330
1F
100
AcDbEntity
  8
XR$1$TB_1412_1
  6
AUSGEZOGEN
 62
    14
440
 33554687
370
    -3
100
AcDbCircle
 10
8.031658
 20
4.122767
 30
0.0
 40
0.0074999978542328
100
AcDbArc
 50
89.896828
 51
90.103172
  0
ARC
  5
103
330
1F
100
AcDbEntity
  8
XR$1$TB_1412_1
  6
AUSGEZOGEN
 62
    14
440
 33554687
370
    -3
100
AcDbCircle
 10
8.031658
 20
4.122767
 30
0.0
 40
0.0074999978542328
100
AcDbArc
 50
175.04269
 51
180.000003
  0
ARC
  5
104
330
1F
100
AcDbEntity
  8
XR$1$TB_1412_1
  6
AUSGEZOGEN
 62
    14
440
 33554687
370
    -3
100
AcDbCircle
 10
8.031658
 20
4.137767
 30
0.0
 40
0.0074999978542328
100
AcDbArc
 50
180.000003
 51
255.654017
  0
ARC
  5
105
330
1F
100
AcDbEntity
  8
XR$1$TB_1412_1
  6
AUSGEZOGEN
 62
    14
440
 33554687
370
    -3
100
AcDbCircle
 10
8.031658
 20
4.137767
 30
0.0
 40
0.0074999978542328
100
AcDbArc
 50
269.896828
 51
270.103172
  0
LINE
  5
106
330
1F
100
AcDbEntity
  8
XR$1$TB_1412_1
  6
AUSGEZOGEN
 62
    54
440
 33554687
370
    -3
100
AcDbLine
 10
8.024098
 20
4.122943
 30
0.0
 11
8.024098
 21
4.137943
 31
0.0
  0
LINE
  5
107
330
1F
100
AcDbEntity
  8
XR$1$TB_1412_1
  6
AUSGEZOGEN
 62
     7
440
 33554687
370
    -3
100
AcDbLine
 10
8.03493
 20
4.027285
 30
0.0
 11
8.03493
 21
4.111587
 31
0.0
  0
MTEXT
  5
108
330
1F
100
AcDbEntity
  8
XR$1$TB_1412_1
  6
AUSGEZOGEN
 62
     7
440
 33554687
370
    -3
100
AcDbMText
 10
7.511676
 20
4.617959
 30
0.0
 40
0.0175
 41
0.021605
 46
0.0
 71
     7
 72
     5
  1
\W0.90;1
  7
ARIAL
 73
     1
 44
1.0
  0
CIRCLE
  5
109
330
1F
100
AcDbEntity
  8
XR$1$TB_1412_1
  6
AUSGEZOGEN
 62
     7
440
 33554687
370
    -3
100
AcDbCircle
 10
7.518564
 20
4.625526
 30
0.0
 40
0.0177913987405051
  0
CIRCLE
  5
10A
330
1F
100
AcDbEntity
  8
XR$1$TB_1412_1
  6
AUSGEZOGEN
 62
     7
440
 33554687
370
    -3
100
AcDbCircle
 10
8.034741
 20
4.009494
 30
0.0
 40
0.0177913987405051
  0
CIRCLE
  5
10B
330
1F
100
AcDbEntity
  8
XR$1$TB_1412_1
  6
AUSGEZOGEN
 62
     7
440
 33554687
370
    -3
100
AcDbCircle
 10
7.651513
 20
4.009494
 30
0.0
 40
0.0177913987405051
  0
MTEXT
  5
10C
330
1F
100
AcDbEntity
  8
XR$1$TB_1412_1
  6
AUSGEZOGEN
 62
    14
440
 33554687
370
    -3
100
AcDbMText
 10
7.643861
 20
4.001928
 30
0.0
 40
0.0175
 41
0.022374
 46
0.0
 71
     7
 72
     5
  1
\W0.99;6
  7
ARIAL
 73
     1
 44
1.0
  0
MTEXT
  5
10D
330
1F
100
AcDbEntity
  8
XR$1$TB_1412_1
  6
AUSGEZOGEN
 62
    14
440
 33554687
370
    -3
100
AcDbMText
 10
8.028684
 20
4.001928
 30
0.0
 40
0.0175
 41
0.022374
 46
0.0
 71
     7
 72
     5
  1
\W0.99;6
  7
ARIAL
 73
     1
 44
1.0
  0
LINE
  5
10E
330
1F
100
AcDbEntity
  8
XR$1$TB_1412_1
  6
AUSGEZOGEN
 62
     7
440
 33554687
370
    -3
100
AcDbLine
 10
7.537181
 20
4.525568
 30
0.0
 11
7.666747
 21
4.525568
 31
0.0
  0
MTEXT
  5
10F
330
1F
100
AcDbEntity
  8
XR$1$TB_1412_1
  6
AUSGEZOGEN
 62
     7
440
 33554687
370
    -3
100
AcDbMText
 10
7.512502
 20
4.518016
 30
0.0
 40
0.0175
 41
0.022374
 46
0.0
 71
     7
 72
     5
  1
\W0.99;2
  7
ARIAL
 73
     1
 44
1.0
  0
CIRCLE
  5
110
330
1F
100
AcDbEntity
  8
XR$1$TB_1412_1
  6
AUSGEZOGEN
 62
     7
440
 33554687
370
    -3
100
AcDbCircle
 10
7.51939
 20
4.525582
 30
0.0
 40
0.0177913987405051
  0
LINE
  5
111
330
1F
100
AcDbEntity
  8
XR$1$TB_1412_1
  6
AUSGEZOGEN
 62
     7
440
 33554687
370
    -3
100
AcDbLine
 10
7.536355
 20
4.425568
 30
0.0
 11
7.649418
 21
4.425568
 31
0.0
  0
CIRCLE
  5
112
330
1F
100
AcDbEntity
  8
XR$1$TB_1412_1
  6
AUSGEZOGEN
 62
     7
440
 33554687
370
    -3
100
AcDbCircle
 10
7.518564
 20
4.425582
 30
0.0
 40
0.0177913987405051
  0
MTEXT
  5
113
330
1F
100
AcDbEntity
  8
XR$1$TB_1412_1
  6
AUSGEZOGEN
 62
     7
440
 33554687
370
    -3
100
AcDbMText
 10
7.511676
 20
4.418016
 30
0.0
 40
0.0175
 41
0.022374
 46
0.0
 71
     7
 72
     5
  1
\W0.99;3
  7
ARIAL
 73
     1
 44
1.0
  0
LINE
  5
114
330
1F
100
AcDbEntity
  8
XR$1$TB_1412_1
  6
AUSGEZOGEN
 62
     7
440
 33554687
370
    -3
100
AcDbLine
 10
7.638645
 20
4.325568
 30
0.0
 11
7.535529
 21
4.325568
 31
0.0
  0
CIRCLE
  5
115
330
1F
100
AcDbEntity
  8
XR$1$TB_1412_1
  6
AUSGEZOGEN
 62
     7
440
 33554687
370
    -3
100
AcDbCircle
 10
7.517738
 20
4.325944
 30
0.0
 40
0.0177913987405051
  0
MTEXT
  5
116
330
1F
100
AcDbEntity
  8
XR$1$TB_1412_1
  6
AUSGEZOGEN
 62
     7
440
 33554687
370
    -3
100
AcDbMText
 10
7.51085
 20
4.318378
 30
0.0
 40
0.0175
 41
0.022374
 46
0.0
 71
     7
 72
     5
  1
\W0.99;4
  7
ARIAL
 73
     1
 44
1.0
  0
LINE
  5
117
330
1F
100
AcDbEntity
  8
XR$1$TB_1412_1
  6
AUSGEZOGEN
 62
     7
440
 33554687
370
    -3
100
AcDbLine
 10
7.535529
 20
4.225568
 30
0.0
 11
7.623629
 21
4.225568
 31
0.0
  0
CIRCLE
  5
118
330
1F
100
AcDbEntity
  8
XR$1$TB_1412_1
  6
AUSGEZOGEN
 62
     7
440
 33554687
370
    -3
100
AcDbCircle
 10
7.517738
 20
4.225525
 30
0.0
 40
0.0177913987405051
  0
MTEXT
  5
119
330
1F
100
AcDbEntity
  8
XR$1$TB_1412_1
  6
AUSGEZOGEN
 62
     7
440
 33554687
370
    -3
100
AcDbMText
 10
7.51085
 20
4.217958
 30
0.0
 40
0.0175
 41
0.022374
 46
0.0
 71
     7
 72
     5
  1
\W0.99;5
  7
ARIAL
 73
     1
 44
1.0
  0
LINE
  5
11A
330
1F
100
AcDbEntity
  8
XR$1$TB_1412_1
  6
AUSGEZOGEN
 62
     7
440
 33554687
370
    -3
100
AcDbLine
 10
7.701513
 20
4.027285
 30
0.0
 11
7.701513
 21
4.095701
 31
0.0
  0
CIRCLE
  5
11B
330
1F
100
AcDbEntity
  8
XR$1$TB_1412_1
  6
AUSGEZOGEN
 62
     7
440
 33554687
370
    -3
100
AcDbCircle
 10
7.701513
 20
4.009494
 30
0.0
 40
0.0177913987405051
  0
MTEXT
  5
11C
330
1F
100
AcDbEntity
  8
XR$1$TB_1412_1
  6
AUSGEZOGEN
 62
    14
440
 33554687
370
    -3
100
AcDbMText
 10
7.693861
 20
4.001928
 30
0.0
 40
0.0175
 41
0.022374
 46
0.0
 71
     7
 72
     5
  1
\W0.99;7
  7
ARIAL
 73
     1
 44
1.0
  0
LINE
  5
11D
330
1F
100
AcDbEntity
  8
XR$1$TB_1412_1
  6
AUSGEZOGEN
 62
     7
440
 33554687
370
    -3
100
AcDbLine
 10
7.751513
 20
4.027285
 30
0.0
 11
7.751513
 21
4.08936
 31
0.0
  0
CIRCLE
  5
11E
330
1F
100
AcDbEntity
  8
XR$1$TB_1412_1
  6
AUSGEZOGEN
 62
     7
440
 33554687
370
    -3
100
AcDbCircle
 10
7.751375
 20
4.009494
 30
0.0
 40
0.0177913987405051
  0
MTEXT
  5
11F
330
1F
100
AcDbEntity
  8
XR$1$TB_1412_1
  6
AUSGEZOGEN
 62
    14
440
 33554687
370
    -3
100
AcDbMText
 10
7.744144
 20
4.002089
 30
0.0
 40
0.0175
 41
0.022374
 46
0.0
 71
     7
 72
     5
  1
\W0.99;8
  7
ARIAL
 73
     1
 44
1.0
  0
LINE
  5
120
330
1F
100
AcDbEntity
  8
XR$1$TB_1412_1
  6
AUSGEZOGEN
 62
    14
440
 33554687
370
    -3
100
AcDbLine
 10
7.647286
 20
4.137767
 30
0.0
 11
7.701513
 21
4.095701
 31
0.0
  0
LINE
  5
121
330
1F
100
AcDbEntity
  8
XR$1$TB_1412_1
  6
AUSGEZOGEN
 62
    14
440
 33554687
370
    -3
100
AcDbLine
 10
7.668058
 20
4.154495
 30
0.0
 11
7.751513
 21
4.08936
 31
0.0
  0
LINE
  5
122
330
1F
100
AcDbEntity
  8
XR$1$TB_1412_1
  6
AUSGEZOGEN
 62
     7
440
 33554687
370
    -3
100
AcDbLine
 10
7.98493
 20
4.027285
 30
0.0
 11
7.98493
 21
4.095701
 31
0.0
  0
CIRCLE
  5
123
330
1F
100
AcDbEntity
  8
XR$1$TB_1412_1
  6
AUSGEZOGEN
 62
     7
440
 33554687
370
    -3
100
AcDbCircle
 10
7.984741
 20
4.009494
 30
0.0
 40
0.0177913987405051
  0
MTEXT
  5
124
330
1F
100
AcDbEntity
  8
XR$1$TB_1412_1
  6
AUSGEZOGEN
 62
    14
440
 33554687
370
    -3
100
AcDbMText
 10
7.978684
 20
4.001928
 30
0.0
 40
0.0175
 41
0.022374
 46
0.0
 71
     7
 72
     5
  1
\W0.99;7
  7
ARIAL
 73
     1
 44
1.0
  0
LINE
  5
125
330
1F
100
AcDbEntity
  8
XR$1$TB_1412_1
  6
AUSGEZOGEN
 62
     7
440
 33554687
370
    -3
100
AcDbLine
 10
7.93493
 20
4.027285
 30
0.0
 11
7.93493
 21
4.08936
 31
0.0
  0
CIRCLE
  5
126
330
1F
100
AcDbEntity
  8
XR$1$TB_1412_1
  6
AUSGEZOGEN
 62
     7
440
 33554687
370
    -3
100
AcDbCircle
 10
7.934878
 20
4.009494
 30
0.0
 40
0.0177913987405051
  0
MTEXT
  5
127
330
1F
100
AcDbEntity
  8
XR$1$TB_1412_1
  6
AUSGEZOGEN
 62
    14
440
 33554687
370
    -3
100
AcDbMText
 10
7.928477
 20
4.002089
 30
0.0
 40
0.0175
 41
0.022374
 46
0.0
 71
     7
 72
     5
  1
\W0.99;8
  7
ARIAL
 73
     1
 44
1.0
  0
LINE
  5
128
330
1F
100
AcDbEntity
  8
XR$1$TB_1412_1
  6
AUSGEZOGEN
 62
    14
440
 33554687
370
    -3
100
AcDbLine
 10
8.027137
 20
4.125746
 30
0.0
 11
7.98493
 21
4.095701
 31
0.0
  0
LINE
  5
129
330
1F
100
AcDbEntity
  8
XR$1$TB_1412_1
  6
AUSGEZOGEN
 62
    14
440
 33554687
370
    -3
100
AcDbLine
 10
8.031658
 20
4.167767
 30
0.0
 11
7.93493
 21
4.08936
 31
0.0
  0
LINE
  5
12A
330
1F
100
AcDbEntity
  8
XR$1$TB_1412_1
  6
AUSGEZOGEN
 62
     3
440
 33554687
370
    25
100
AcDbLine
 10
8.134158
 20
4.172767
 30
0.0
 11
8.054158
 21
4.172767
 31
0.0
  0
LINE
  5
12B
330
1F
100
AcDbEntity
  8
XR$1$TB_1412_1
  6
AUSGEZOGEN
 62
     3
440
 33554687
370
    25
100
AcDbLine
 10
8.134158
 20
4.089767
 30
0.0
 11
8.149158
 21
4.089767
 31
0.0
  0
LINE
  5
12C
330
1F
100
AcDbEntity
  8
XR$1$TB_1412_1
  6
AUSGEZOGEN
 62
     3
440
 33554687
370
    25
100
AcDbLine
 10
8.149158
 20
4.009767
 30
0.0
 11
8.089158
 21
4.009767
 31
0.0
  0
LINE
  5
12D
330
1F
100
AcDbEntity
  8
XR$1$TB_1412_1
  6
AUSGEZOGEN
 62
     3
440
 33554687
370
    25
100
AcDbLine
 10
8.089158
 20
4.064767
 30
0.0
 11
8.089158
 21
4.009767
 31
0.0
  0
LINE
  5
12E
330
1F
100
AcDbEntity
  8
XR$1$TB_1412_1
  6
AUSGEZOGEN
 62
     3
440
 33554687
370
    25
100
AcDbLine
 10
8.149158
 20
4.089767
 30
0.0
 11
8.149158
 21
4.009767
 31
0.0
  0
LINE
  5
12F
330
1F
100
AcDbEntity
  8
XR$1$TB_1412_1
  6
AUSGEZOGEN
 62
     3
440
 33554687
370
    25
100
AcDbLine
 10
8.134158
 20
4.064767
 30
0.0
 11
8.054158
 21
4.064767
 31
0.0
  0
LINE
  5
130
330
1F
100
AcDbEntity
  8
XR$1$TB_1412_1
  6
AUSGEZOGEN
 62
     3
440
 33554687
370
    25
100
AcDbLine
 10
8.134158
 20
4.064767
 30
0.0
 11
8.134158
 21
4.182767
 31
0.0
  0
LINE
  5
131
330
1F
100
AcDbEntity
  8
XR$1$TB_1412_1
  6
AUSGEZOGEN
 62
    14
440
 33554687
370
    -3
100
AcDbLine
 10
8.323958
 20
4.167767
 30
0.0
 11
8.134158
 21
4.167767
 31
0.0
  0
LINE
  5
132
330
1F
100
AcDbEntity
  8
XR$1$TB_1412_1
  6
AUSGEZOGEN
 62
     7
440
 33554687
370
    -3
100
AcDbLine
 10
8.089158
 20
3.887767
 30
0.0
 11
8.089158
 21
4.009767
 31
0.0
  0
LINE
  5
133
330
1F
100
AcDbEntity
  8
XR$1$TB_1412_1
  6
AUSGEZOGEN
 62
     7
440
 33554687
370
    -3
100
AcDbLine
 10
8.107158
 20
3.887767
 30
0.0
 11
8.107158
 21
4.009767
 31
0.0
  0
LINE
  5
134
330
1F
100
AcDbEntity
  8
XR$1$TB_1412_1
  6
AUSGEZOGEN
 62
     7
440
 33554687
370
    -3
100
AcDbLine
 10
8.111158
 20
3.887767
 30
0.0
 11
8.111158
 21
4.009767
 31
0.0
  0
LINE
  5
135
330
1F
100
AcDbEntity
  8
XR$1$TB_1412_1
  6
AUSGEZOGEN
 62
     7
440
 33554687
370
    -3
100
AcDbLine
 10
8.127158
 20
3.887767
 30
0.0
 11
8.127158
 21
4.009767
 31
0.0
  0
LINE
  5
136
330
1F
100
AcDbEntity
  8
XR$1$TB_1412_1
  6
AUSGEZOGEN
 62
     7
440
 33554687
370
    -3
100
AcDbLine
 10
8.131158
 20
3.887767
 30
0.0
 11
8.131158
 21
4.009767
 31
0.0
  0
LINE
  5
137
330
1F
100
AcDbEntity
  8
XR$1$TB_1412_1
  6
AUSGEZOGEN
 62
     7
440
 33554687
370
    -3
100
AcDbLine
 10
8.149158
 20
3.887767
 30
0.0
 11
8.149158
 21
4.009767
 31
0.0
  0
MTEXT
  5
138
330
1F
100
AcDbEntity
  8
XR$1$TB_1412_1
  6
AUSGEZOGEN
 62
     7
440
 33554687
370
    -3
100
AcDbMText
 10
8.279582
 20
3.667508
 30
0.0
 40
0.009
 41
0.095517
 46
0.0
 71
     7
 72
     5
  1
\W0.91;STAND: Juli 2019
  7
ARIAL
 73
     1
 44
1.0
  0
VIEWPORT
  5
72
330
6E
100
AcDbEntity
 67
     1
  8
0
100
AcDbViewport
 10
0.105
 20
0.148499
 30
0.0
 40
0.2102
 41
0.297197
 68
     1
 69
     1
 12
0.105
 22
0.148499
 13
0.0
 23
0.0
 14
0.5
 24
0.5
 15
0.5
 25
0.5
 16
0.0
 26
0.0
 36
1.0
 17
0.0
 27
0.0
 37
0.0
 42
50.0
 43
0.0
 44
0.0
 45
0.297197
 50
0.0
 51
0.0
 72
   100
 90
   557152
  1

281
     0
 71
     1
 74
     0
110
0.0
120
0.0
130
0.0
111
1.0
121
0.0
131
0.0
112
0.0
122
1.0
132
0.0
 79
     0
146
0.0
170
     0
 61
     5
348
2F
292
     1
282
     1
141
0.0
142
0.0
 63
   256
361
73
  0
VIEWPORT
  5
13B
330
6E
100
AcDbEntity
 67
     1
  8
PLAN_1412
  6
AUSGEZOGEN
 62
     7
370
    35
100
AcDbViewport
 10
0.105
 20
0.148499
 30
0.0
 40
0.2102
 41
0.297197
 68
     2
 69
     2
 12
0.0
 22
0.0
 13
0.0
 23
0.0
 14
1.0
 24
1.0
 15
0.0
 25
0.0
 16
0.0
 26
0.0
 36
1.0
 17
7.907607
 27
4.306338
 37
0.0
 42
50.0
 43
0.0
 44
0.0
 45
1.485985
 50
0.0
 51
0.0
 72
   100
331
10
331
76
331
78
 90
   557280
  1

281
     0
 71
     1
 74
     0
110
0.0
120
0.0
130
0.0
111
1.0
121
0.0
131
0.0
112
0.0
122
1.0
132
0.0
 79
     0
146
0.0
170
     0
 61
     5
348
2F
292
     1
282
     1
141
0.0
142
0.0
 63
   256
361
13C
  0
ENDSEC
  0
SECTION
  2
OBJECTS
  0
DICTIONARY
  5
C
330
0
100
AcDbDictionary
281
     1
  3
ACAD_DETAILVIEWSTYLE
350
174
  3
ACAD_GROUP
350
D
  3
ACAD_LAYOUT
350
1A
  3
ACAD_MATERIAL
350
43
  3
ACAD_MLEADERSTYLE
350
6B
  3
ACAD_MLINESTYLE
350
17
  3
ACAD_PLOTSETTINGS
350
19
  3
ACAD_PLOTSTYLENAME
350
E
  3
ACAD_SCALELIST
350
47
  3
ACAD_SECTIONVIEWSTYLE
350
175
  3
ACAD_TABLESTYLE
350
69
  3
ACAD_VISUALSTYLE
350
2A
  3
ACDB_RECOMPOSE_DATA
350
171
  3
AcDbVariableDictionary
350
13D
  0
SUN
  5
6D
330
29
100
AcDbSun
 90
        1
290
     0
 63
     7
421
 16777215
 40
1.0
291
     1
 91
  2455826
 92
 54000000
292
     0
 70
     2
 71
   256
280
     1
  0
DICTIONARY
  5
139
330
1F
100
AcDbDictionary
280
     1
281
     1
  3
ACAD_SORTENTS
360
13A
  0
SUN
  5
73
330
72
100
AcDbSun
 90
        1
290
     0
 63
     7
421
 16777215
 40
1.0
291
     1
 91
  2455826
 92
 54000000
292
     0
 70
     2
 71
   256
280
     1
  0
SUN
  5
13C
330
13B
100
AcDbSun
 90
        1
290
     0
 63
     7
421
 16777215
 40
1.0
291
     1
 91
  2455826
 92
 54000000
292
     0
 70
     2
 71
   256
280
     1
  0
DICTIONARY
  5
174
102
{ACAD_REACTORS
330
C
102
}
330
C
100
AcDbDictionary
281
     1
  0
DICTIONARY
  5
D
102
{ACAD_REACTORS
330
C
102
}
330
C
100
AcDbDictionary
281
     1
  3
VERBUNDBLOCK_0
350
7F
  3
VERBUNDBLOCK_1
350
94
  0
DICTIONARY
  5
1A
102
{ACAD_REACTORS
330
C
102
}
330
C
100
AcDbDictionary
281
     1
  3
Baukeramikfassade 13
350
6F
  3
Model
350
22
  0
DICTIONARY
  5
43
102
{ACAD_REACTORS
330
C
102
}
330
C
100
AcDbDictionary
281
     1
  3
ByBlock
350
45
  3
ByLayer
350
44
  3
Global
350
46
  0
DICTIONARY
  5
6B
102
{ACAD_REACTORS
330
C
102
}
330
C
100
AcDbDictionary
281
     1
  3
Standard
350
6C
  0
DICTIONARY
  5
17
102
{ACAD_REACTORS
330
C
102
}
330
C
100
AcDbDictionary
281
     1
  3
Standard
350
18
  0
DICTIONARY
  5
19
102
{ACAD_REACTORS
330
C
102
}
330
C
100
AcDbDictionary
281
     1
  0
ACDBDICTIONARYWDFLT
  5
E
102
{ACAD_REACTORS
330
C
102
}
330
C
100
AcDbDictionary
281
     1
  3
Normal
350
F
100
AcDbDictionaryWithDefault
340
F
  0
DICTIONARY
  5
47
102
{ACAD_REACTORS
330
C
102
}
330
C
100
AcDbDictionary
281
     1
  3
A0
350
48
  3
A1
350
49
  3
A2
350
4A
  3
A3
350
4B
  3
A4
350
4C
  3
A5
350
4D
  3
A6
350
4E
  3
A7
350
4F
  3
A8
350
50
  3
A9
350
51
  3
B0
350
52
  3
B1
350
53
  3
B2
350
54
  3
B3
350
55
  3
B4
350
56
  3
B5
350
57
  3
B6
350
58
  3
B7
350
59
  3
B8
350
5A
  3
B9
350
5B
  3
C0
350
5C
  3
C1
350
5D
  3
C2
350
5E
  3
C3
350
5F
  3
C4
350
60
  3
C5
350
61
  3
C6
350
62
  3
C7
350
63
  3
C8
350
64
  3
C9
350
65
  3
D0
350
66
  3
D1
350
67
  3
D2
350
68
  0
DICTIONARY
  5
175
102
{ACAD_REACTORS
330
C
102
}
330
C
100
AcDbDictionary
281
     1
  0
DICTIONARY
  5
69
102
{ACAD_REACTORS
330
C
102
}
330
C
100
AcDbDictionary
281
     1
  3
Standard
350
6A
  0
DICTIONARY
  5
2A
102
{ACAD_REACTORS
330
C
102
}
330
C
100
AcDbDictionary
281
     1
  3
2dWireframe
350
2F
  3
Basic
350
32
  3
Brighten
350
36
  3
ColorChange
350
3A
  3
Conceptual
350
34
  3
Dim
350
35
  3
EdgeColorOff
350
3D
  3
Facepattern
350
39
  3
Flat
350
2B
  3
FlatWithEdges
350
2C
  3
Gouraud
350
2D
  3
GouraudWithEdges
350
2E
  3
Hidden
350
31
  3
JitterOff
350
3B
  3
Linepattern
350
38
  3
OverhangOff
350
3C
  3
Realistic
350
33
  3
Shaded
350
42
  3
Shaded with edges
350
41
  3
Shades of Gray
350
3E
  3
Sketchy
350
3F
  3
Thicken
350
37
  3
Wireframe
350
30
  3
X-Ray
350
40
  0
XRECORD
  5
171
102
{ACAD_REACTORS
330
C
102
}
330
C
100
AcDbXrecord
280
     1
 90
        1
330
6A
  0
DICTIONARY
  5
13D
102
{ACAD_REACTORS
330
C
102
}
330
C
100
AcDbDictionary
281
     1
  3
CANNOSCALE
350
13E
  3
CMLEADERSTYLE
350
173
  3
CTABLESTYLE
350
172
  0
SORTENTSTABLE
  5
13A
102
{ACAD_REACTORS
330
139
102
}
330
139
100
AcDbSortentsTable
330
1F
331
82
  5
84
331
83
  5
85
331
84
  5
86
331
85
  5
87
331
86
  5
88
331
87
  5
89
331
88
  5
8A
331
89
  5
8B
331
8A
  5
8C
331
8B
  5
8D
331
8C
  5
8E
331
8D
  5
8F
331
8E
  5
90
331
8F
  5
91
331
90
  5
92
331
91
  5
93
331
92
  5
96
331
93
  5
97
331
96
  5
98
331
97
  5
99
331
98
  5
9A
331
99
  5
9B
331
9A
  5
9C
331
9B
  5
9D
331
9C
  5
9E
331
9D
  5
9F
331
9E
  5
82
331
9F
  5
83
  0
GROUP
  5
7F
102
{ACAD_REACTORS
330
D
102
}
330
D
100
AcDbGroup
300

 70
     0
 71
     1
340
80
340
81
  0
GROUP
  5
94
102
{ACAD_REACTORS
330
D
102
}
330
D
100
AcDbGroup
300

 70
     0
 71
     1
340
96
340
97
  0
LAYOUT
  5
6F
102
{ACAD_REACTORS
330
1A
102
}
330
1A
100
AcDbPlotSettings
  1

  2
none_device
  4
none_user_media
  6

 40
0.0
 41
0.0
 42
0.0
 43
0.0
 44
297.0
 45
209.9
 46
0.0
 47
0.0
 48
0.0
 49
0.0
140
0.0
141
0.0
142
1000.0
143
1.0
 70
   688
 72
     1
 73
     1
 74
     5
  7

 75
    33
 76
     0
 77
     2
 78
   300
147
1000.0
148
0.0
149
0.0
100
AcDbLayout
  1
Baukeramikfassade 13
 70
     0
 71
     1
 10
-0.0001
 20
-0.0001
 11
0.2101
 21
0.297097
 12
0.0
 22
0.0
 32
0.0
 14
-0.0001
 24
-0.0001
 34
0.0
 15
0.2101
 25
0.297097
 35
0.0
146
0.0
 13
0.0
 23
0.0
 33
0.0
 16
1.0
 26
0.0
 36
0.0
 17
0.0
 27
1.0
 37
0.0
 76
     0
330
6E
331
72
  0
LAYOUT
  5
22
102
{ACAD_REACTORS
330
1A
102
}
330
1A
100
AcDbPlotSettings
  1

  2
none_device
  4
Letter_(8.50_x_11.00_Inches)
  6

 40
6.35
 41
6.35
 42
6.350005
 43
6.350005
 44
215.9
 45
279.4
 46
0.0
 47
0.0
 48
0.0
 49
0.0
140
0.0
141
0.0
142
1.0
143
1.0
 70
  1712
 72
     0
 73
     0
 74
     0
  7

 75
     0
 76
     0
 77
     2
 78
   300
147
1.0
148
0.0
149
0.0
100
AcDbLayout
  1
Model
 70
     1
 71
     0
 10
7.382607
 20
3.563845
 11
8.432607
 21
5.04883
 12
0.0
 22
0.0
 32
0.0
 14
7.382607
 24
3.563845
 34
7.382607
 15
8.432607
 25
5.04883
 35
8.432607
146
0.0
 13
0.0
 23
0.0
 33
0.0
 16
1.0
 26
0.0
 36
0.0
 17
0.0
 27
1.0
 37
0.0
 76
     0
330
1F
331
29
  0
MATERIAL
  5
45
102
{ACAD_REACTORS
330
43
102
}
330
43
100
AcDbMaterial
  1
ByBlock
 72
     1
 94
      127
  0
MATERIAL
  5
44
102
{ACAD_REACTORS
330
43
102
}
330
43
100
AcDbMaterial
  1
ByLayer
 72
     1
 94
      127
  0
MATERIAL
  5
46
102
{ACAD_REACTORS
330
43
102
}
330
43
100
AcDbMaterial
  1
Global
 72
     1
 94
      127
  0
MLEADERSTYLE
  5
6C
102
{ACAD_REACTORS
330
6B
102
}
330
6B
100
AcDbMLeaderStyle
179
     2
170
     2
171
     1
172
     0
 90
        2
 40
0.0
 41
0.0
173
     1
 91
-1056964608
340
14
 92
       -2
290
     1
 42
0.09
291
     1
 43
0.36
  3
Standard
341
0
 44
0.18
300

342
11
174
     1
178
     6
175
     1
176
     0
 93
-1056964608
 45
0.18
292
     0
297
     0
 46
0.18
343
0
 94
-1056964608
 47
1.0
 49
1.0
140
1.0
293
     1
141
0.0
294
     1
177
     0
142
1.0
295
     0
296
     0
143
0.125
271
     0
272
     9
273
     9
  0
MLINESTYLE
  5
18
102
{ACAD_REACTORS
330
17
102
}
330
17
100
AcDbMlineStyle
  2
Standard
 70
     0
  3

 62
   256
 51
90.0
 52
90.0
 71
     2
 49
0.5
 62
   256
  6
BYLAYER
 49
-0.5
 62
   256
  6
BYLAYER
  0
ACDBPLACEHOLDER
  5
F
102
{ACAD_REACTORS
330
E
102
}
330
E
  0
SCALE
  5
48
102
{ACAD_REACTORS
330
47
102
}
330
47
100
AcDbScale
 70
     0
300
1:1
140
1.0
141
1.0
290
     1
  0
SCALE
  5
49
102
{ACAD_REACTORS
330
47
102
}
330
47
100
AcDbScale
 70
     0
300
1:2
140
1.0
141
2.0
290
     0
  0
SCALE
  5
4A
102
{ACAD_REACTORS
330
47
102
}
330
47
100
AcDbScale
 70
     0
300
1:4
140
1.0
141
4.0
290
     0
  0
SCALE
  5
4B
102
{ACAD_REACTORS
330
47
102
}
330
47
100
AcDbScale
 70
     0
300
1:5
140
1.0
141
5.0
290
     0
  0
SCALE
  5
4C
102
{ACAD_REACTORS
330
47
102
}
330
47
100
AcDbScale
 70
     0
300
1:8
140
1.0
141
8.0
290
     0
  0
SCALE
  5
4D
102
{ACAD_REACTORS
330
47
102
}
330
47
100
AcDbScale
 70
     0
300
1:10
140
1.0
141
10.0
290
     0
  0
SCALE
  5
4E
102
{ACAD_REACTORS
330
47
102
}
330
47
100
AcDbScale
 70
     0
300
1:16
140
1.0
141
16.0
290
     0
  0
SCALE
  5
4F
102
{ACAD_REACTORS
330
47
102
}
330
47
100
AcDbScale
 70
     0
300
1:20
140
1.0
141
20.0
290
     0
  0
SCALE
  5
50
102
{ACAD_REACTORS
330
47
102
}
330
47
100
AcDbScale
 70
     0
300
1:30
140
1.0
141
30.0
290
     0
  0
SCALE
  5
51
102
{ACAD_REACTORS
330
47
102
}
330
47
100
AcDbScale
 70
     0
300
1:40
140
1.0
141
40.0
290
     0
  0
SCALE
  5
52
102
{ACAD_REACTORS
330
47
102
}
330
47
100
AcDbScale
 70
     0
300
1:50
140
1.0
141
50.0
290
     0
  0
SCALE
  5
53
102
{ACAD_REACTORS
330
47
102
}
330
47
100
AcDbScale
 70
     0
300
1:100
140
1.0
141
100.0
290
     0
  0
SCALE
  5
54
102
{ACAD_REACTORS
330
47
102
}
330
47
100
AcDbScale
 70
     0
300
2:1
140
2.0
141
1.0
290
     0
  0
SCALE
  5
55
102
{ACAD_REACTORS
330
47
102
}
330
47
100
AcDbScale
 70
     0
300
4:1
140
4.0
141
1.0
290
     0
  0
SCALE
  5
56
102
{ACAD_REACTORS
330
47
102
}
330
47
100
AcDbScale
 70
     0
300
8:1
140
8.0
141
1.0
290
     0
  0
SCALE
  5
57
102
{ACAD_REACTORS
330
47
102
}
330
47
100
AcDbScale
 70
     0
300
10:1
140
10.0
141
1.0
290
     0
  0
SCALE
  5
58
102
{ACAD_REACTORS
330
47
102
}
330
47
100
AcDbScale
 70
     0
300
100:1
140
100.0
141
1.0
290
     0
  0
SCALE
  5
59
102
{ACAD_REACTORS
330
47
102
}
330
47
100
AcDbScale
 70
     0
300
1/128" = 1'-0"
140
0.007812
141
12.0
290
     0
  0
SCALE
  5
5A
102
{ACAD_REACTORS
330
47
102
}
330
47
100
AcDbScale
 70
     0
300
1/64" = 1'-0"
140
0.015625
141
12.0
290
     0
  0
SCALE
  5
5B
102
{ACAD_REACTORS
330
47
102
}
330
47
100
AcDbScale
 70
     0
300
1/32" = 1'-0"
140
0.03125
141
12.0
290
     0
  0
SCALE
  5
5C
102
{ACAD_REACTORS
330
47
102
}
330
47
100
AcDbScale
 70
     0
300
1/16" = 1'-0"
140
0.0625
141
12.0
290
     0
  0
SCALE
  5
5D
102
{ACAD_REACTORS
330
47
102
}
330
47
100
AcDbScale
 70
     0
300
3/32" = 1'-0"
140
0.09375
141
12.0
290
     0
  0
SCALE
  5
5E
102
{ACAD_REACTORS
330
47
102
}
330
47
100
AcDbScale
 70
     0
300
1/8" = 1'-0"
140
0.125
141
12.0
290
     0
  0
SCALE
  5
5F
102
{ACAD_REACTORS
330
47
102
}
330
47
100
AcDbScale
 70
     0
300
3/16" = 1'-0"
140
0.1875
141
12.0
290
     0
  0
SCALE
  5
60
102
{ACAD_REACTORS
330
47
102
}
330
47
100
AcDbScale
 70
     0
300
1/4" = 1'-0"
140
0.25
141
12.0
290
     0
  0
SCALE
  5
61
102
{ACAD_REACTORS
330
47
102
}
330
47
100
AcDbScale
 70
     0
300
3/8" = 1'-0"
140
0.375
141
12.0
290
     0
  0
SCALE
  5
62
102
{ACAD_REACTORS
330
47
102
}
330
47
100
AcDbScale
 70
     0
300
1/2" = 1'-0"
140
0.5
141
12.0
290
     0
  0
SCALE
  5
63
102
{ACAD_REACTORS
330
47
102
}
330
47
100
AcDbScale
 70
     0
300
3/4" = 1'-0"
140
0.75
141
12.0
290
     0
  0
SCALE
  5
64
102
{ACAD_REACTORS
330
47
102
}
330
47
100
AcDbScale
 70
     0
300
1" = 1'-0"
140
1.0
141
12.0
290
     0
  0
SCALE
  5
65
102
{ACAD_REACTORS
330
47
102
}
330
47
100
AcDbScale
 70
     0
300
1-1/2" = 1'-0"
140
1.5
141
12.0
290
     0
  0
SCALE
  5
66
102
{ACAD_REACTORS
330
47
102
}
330
47
100
AcDbScale
 70
     0
300
3" = 1'-0"
140
3.0
141
12.0
290
     0
  0
SCALE
  5
67
102
{ACAD_REACTORS
330
47
102
}
330
47
100
AcDbScale
 70
     0
300
6" = 1'-0"
140
6.0
141
12.0
290
     0
  0
SCALE
  5
68
102
{ACAD_REACTORS
330
47
102
}
330
47
100
AcDbScale
 70
     0
300
1'-0" = 1'-0"
140
12.0
141
12.0
290
     0
  0
TABLESTYLE
  5
6A
102
{ACAD_REACTORS
330
69
102
}
102
{ACAD_XDICTIONARY
360
16F
102
}
330
69
100
AcDbTableStyle
  3
Standard
 70
     0
 71
     0
 40
0.06
 41
0.06
280
     0
281
     0
  7
Standard
140
0.18
170
     2
 62
     0
 63
   257
283
     0
 90
        4
 91
        0
  1

274
    -2
284
     1
 64
     0
275
    -2
285
     1
 65
     0
276
    -2
286
     1
 66
     0
277
    -2
287
     1
 67
     0
278
    -2
288
     1
 68
     0
279
    -2
289
     1
 69
     0
  7
Standard
140
0.25
170
     5
 62
     0
 63
   257
283
     0
 90
        4
 91
        0
  1

274
    -2
284
     1
 64
     0
275
    -2
285
     1
 65
     0
276
    -2
286
     1
 66
     0
277
    -2
287
     1
 67
     0
278
    -2
288
     1
 68
     0
279
    -2
289
     1
 69
     0
  7
Standard
140
0.18
170
     5
 62
     0
 63
   257
283
     0
 90
        4
 91
        0
  1

274
    -2
284
     1
 64
     0
275
    -2
285
     1
 65
     0
276
    -2
286
     1
 66
     0
277
    -2
287
     1
 67
     0
278
    -2
288
     1
 68
     0
279
    -2
289
     1
 69
     0
  0
VISUALSTYLE
  5
2F
102
{ACAD_REACTORS
330
2A
102
}
102
{ACAD_XDICTIONARY
360
147
102
}
330
2A
100
AcDbVisualStyle
  2
2dWireframe
 70
     4
177
     2
291
     0
 71
     0
176
     1
 72
     2
176
     1
 73
     0
176
     1
 90
        0
176
     1
 40
0.6
176
     1
 41
30.0
176
     1
 62
     5
 63
     7
421
 16777215
176
     1
 74
     1
176
     1
 91
        4
176
     1
 64
     7
176
     1
 65
   257
176
     1
 75
     1
176
     1
175
     1
176
     1
 42
1.0
176
     1
 92
        0
176
     1
 66
   257
176
     1
 43
1.0
176
     1
 76
     1
176
     1
 77
     6
176
     1
 78
     2
176
     1
 67
     7
176
     1
 79
     5
176
     1
170
     0
176
     1
171
     0
176
     1
290
     0
176
     1
 93
        1
176
     1
 44
0.0
176
     1
173
     0
176
     1
  0
VISUALSTYLE
  5
32
102
{ACAD_REACTORS
330
2A
102
}
102
{ACAD_XDICTIONARY
360
14D
102
}
330
2A
100
AcDbVisualStyle
  2
Basic
 70
     7
177
     2
291
     1
 71
     1
176
     1
 72
     0
176
     1
 73
     1
176
     1
 90
        0
176
     1
 40
0.6
176
     1
 41
30.0
176
     1
 62
     5
 63
     7
421
 16777215
176
     1
 74
     0
176
     1
 91
        4
176
     1
 64
     7
176
     1
 65
   257
176
     1
 75
     1
176
     1
175
     1
176
     1
 42
1.0
176
     1
 92
        8
176
     1
 66
     7
176
     1
 43
1.0
176
     1
 76
     1
176
     1
 77
     6
176
     1
 78
     2
176
     1
 67
     7
176
     1
 79
     5
176
     1
170
     0
176
     1
171
     0
176
     1
290
     0
176
     1
 93
        1
176
     1
 44
0.0
176
     1
173
     0
176
     1
  0
VISUALSTYLE
  5
36
102
{ACAD_REACTORS
330
2A
102
}
102
{ACAD_XDICTIONARY
360
155
102
}
330
2A
100
AcDbVisualStyle
  2
Brighten
 70
    12
177
     2
291
     1
 71
     2
176
     1
 72
     2
176
     1
 73
     0
176
     1
 90
        0
176
     1
 40
0.6
176
     1
 41
30.0
176
     1
 62
     5
 63
     7
421
 16777215
176
     1
 74
     1
176
     1
 91
        4
176
     1
 64
     7
176
     1
 65
   257
176
     1
 75
     1
176
     1
175
     1
176
     1
 42
1.0
176
     1
 92
        8
176
     1
 66
     7
176
     1
 43
1.0
176
     1
 76
     1
176
     1
 77
     6
176
     1
 78
     2
176
     1
 67
     7
176
     1
 79
     5
176
     1
170
     0
176
     1
171
     0
176
     1
290
     0
176
     1
 93
        1
176
     1
 44
50.0
176
     1
173
     0
176
     1
  0
VISUALSTYLE
  5
3A
102
{ACAD_REACTORS
330
2A
102
}
102
{ACAD_XDICTIONARY
360
15D
102
}
330
2A
100
AcDbVisualStyle
  2
ColorChange
 70
    16
177
     2
291
     1
 71
     2
176
     1
 72
     2
176
     1
 73
     3
176
     1
 90
        0
176
     1
 40
0.6
176
     1
 41
30.0
176
     1
 62
     5
 63
     8
421
  8421504
176
     1
 74
     1
176
     1
 91
        4
176
     1
 64
     7
176
     1
 65
   257
176
     1
 75
     1
176
     1
175
     1
176
     1
 42
1.0
176
     1
 92
        8
176
     1
 66
     8
424
  8421504
176
     1
 43
1.0
176
     1
 76
     1
176
     1
 77
     6
176
     1
 78
     2
176
     1
 67
     7
176
     1
 79
     5
176
     1
170
     0
176
     1
171
     0
176
     1
290
     0
176
     1
 93
        1
176
     1
 44
0.0
176
     1
173
     0
176
     1
  0
VISUALSTYLE
  5
34
102
{ACAD_REACTORS
330
2A
102
}
102
{ACAD_XDICTIONARY
360
151
102
}
330
2A
100
AcDbVisualStyle
  2
Conceptual
 70
     9
177
     2
291
     0
 71
     3
176
     1
 72
     2
176
     1
 73
     0
176
     1
 90
        0
176
     1
 40
0.6
176
     1
 41
30.0
176
     1
 62
     5
 63
     7
421
 16777215
176
     1
 74
     2
176
     1
 91
        2
176
     1
 64
     7
176
     1
 65
   257
176
     1
 75
     1
176
     1
175
     1
176
     1
 42
179.0
176
     1
 92
        8
176
     1
 66
     7
176
     1
 43
1.0
176
     1
 76
     1
176
     1
 77
     6
176
     1
 78
     2
176
     1
 67
     7
176
     1
 79
     3
176
     1
170
     0
176
     1
171
     0
176
     1
290
     0
176
     1
 93
        1
176
     1
 44
0.0
176
     1
173
     0
176
     1
  0
VISUALSTYLE
  5
35
102
{ACAD_REACTORS
330
2A
102
}
102
{ACAD_XDICTIONARY
360
153
102
}
330
2A
100
AcDbVisualStyle
  2
Dim
 70
    11
177
     2
291
     1
 71
     2
176
     1
 72
     2
176
     1
 73
     0
176
     1
 90
        0
176
     1
 40
0.6
176
     1
 41
30.0
176
     1
 62
     5
 63
     7
421
 16777215
176
     1
 74
     1
176
     1
 91
        4
176
     1
 64
     7
176
     1
 65
   257
176
     1
 75
     1
176
     1
175
     1
176
     1
 42
1.0
176
     1
 92
        8
176
     1
 66
     7
176
     1
 43
1.0
176
     1
 76
     1
176
     1
 77
     6
176
     1
 78
     2
176
     1
 67
     7
176
     1
 79
     5
176
     1
170
     0
176
     1
171
     0
176
     1
290
     0
176
     1
 93
        1
176
     1
 44
-50.0
176
     1
173
     0
176
     1
  0
VISUALSTYLE
  5
3D
102
{ACAD_REACTORS
330
2A
102
}
102
{ACAD_XDICTIONARY
360
163
102
}
330
2A
100
AcDbVisualStyle
  2
EdgeColorOff
 70
    22
177
     2
291
     1
 71
     2
176
     0
 72
     2
176
     0
 73
     0
176
     0
 90
        0
176
     0
 40
0.6
176
     0
 41
30.0
176
     0
 62
     5
 63
     7
421
 16777215
176
     0
 74
     1
176
     0
 91
        4
176
     0
 64
     7
176
     0
 65
   257
176
     0
 75
     1
176
     0
175
     1
176
     0
 42
1.0
176
     0
 92
        8
176
     2
 66
     7
176
     0
 43
1.0
176
     0
 76
     1
176
     0
 77
     6
176
     0
 78
     2
176
     0
 67
     7
176
     0
 79
     5
176
     0
170
     0
176
     0
171
     0
176
     0
290
     0
176
     0
 93
        1
176
     0
 44
0.0
176
     0
173
     0
176
     0
  0
VISUALSTYLE
  5
39
102
{ACAD_REACTORS
330
2A
102
}
102
{ACAD_XDICTIONARY
360
15B
102
}
330
2A
100
AcDbVisualStyle
  2
Facepattern
 70
    15
177
     2
291
     1
 71
     2
176
     1
 72
     2
176
     1
 73
     0
176
     1
 90
        0
176
     1
 40
0.6
176
     1
 41
30.0
176
     1
 62
     5
 63
     7
421
 16777215
176
     1
 74
     1
176
     1
 91
        4
176
     1
 64
     7
176
     1
 65
   257
176
     1
 75
     1
176
     1
175
     1
176
     1
 42
1.0
176
     1
 92
        8
176
     1
 66
     7
176
     1
 43
1.0
176
     1
 76
     1
176
     1
 77
     6
176
     1
 78
     2
176
     1
 67
     7
176
     1
 79
     5
176
     1
170
     0
176
     1
171
     0
176
     1
290
     0
176
     1
 93
        1
176
     1
 44
0.0
176
     1
173
     0
176
     1
  0
VISUALSTYLE
  5
2B
102
{ACAD_REACTORS
330
2A
102
}
102
{ACAD_XDICTIONARY
360
13F
102
}
330
2A
100
AcDbVisualStyle
  2
Flat
 70
     0
177
     2
291
     1
 71
     2
176
     1
 72
     1
176
     1
 73
     1
176
     1
 90
        2
176
     1
 40
0.6
176
     1
 41
30.0
176
     1
 62
     5
 63
     7
421
 16777215
176
     1
 74
     0
176
     1
 91
        0
176
     1
 64
     7
176
     1
 65
   257
176
     1
 75
     1
176
     1
175
     1
176
     1
 42
1.0
176
     1
 92
        8
176
     1
 66
     7
176
     1
 43
1.0
176
     1
 76
     1
176
     1
 77
     6
176
     1
 78
     2
176
     1
 67
     7
176
     1
 79
     5
176
     1
170
     0
176
     1
171
     0
176
     1
290
     0
176
     1
 93
       13
176
     1
 44
0.0
176
     1
173
     0
176
     1
  0
VISUALSTYLE
  5
2C
102
{ACAD_REACTORS
330
2A
102
}
102
{ACAD_XDICTIONARY
360
141
102
}
330
2A
100
AcDbVisualStyle
  2
FlatWithEdges
 70
     1
177
     2
291
     1
 71
     2
176
     1
 72
     1
176
     1
 73
     1
176
     1
 90
        2
176
     1
 40
0.6
176
     1
 41
30.0
176
     1
 62
     5
 63
     7
421
 16777215
176
     1
 74
     1
176
     1
 91
        0
176
     1
 64
     7
176
     1
 65
   257
176
     1
 75
     1
176
     1
175
     1
176
     1
 42
1.0
176
     1
 92
        0
176
     1
 66
   257
176
     1
 43
1.0
176
     1
 76
     1
176
     1
 77
     6
176
     1
 78
     2
176
     1
 67
     7
176
     1
 79
     5
176
     1
170
     0
176
     1
171
     0
176
     1
290
     0
176
     1
 93
       13
176
     1
 44
0.0
176
     1
173
     0
176
     1
  0
VISUALSTYLE
  5
2D
102
{ACAD_REACTORS
330
2A
102
}
102
{ACAD_XDICTIONARY
360
143
102
}
330
2A
100
AcDbVisualStyle
  2
Gouraud
 70
     2
177
     2
291
     1
 71
     2
176
     1
 72
     2
176
     1
 73
     1
176
     1
 90
        2
176
     1
 40
0.6
176
     1
 41
30.0
176
     1
 62
     5
 63
     7
421
 16777215
176
     1
 74
     0
176
     1
 91
        0
176
     1
 64
     7
176
     1
 65
   257
176
     1
 75
     1
176
     1
175
     1
176
     1
 42
1.0
176
     1
 92
        0
176
     1
 66
     7
176
     1
 43
1.0
176
     1
 76
     1
176
     1
 77
     6
176
     1
 78
     2
176
     1
 67
     7
176
     1
 79
     5
176
     1
170
     0
176
     1
171
     0
176
     1
290
     0
176
     1
 93
       13
176
     1
 44
0.0
176
     1
173
     0
176
     1
  0
VISUALSTYLE
  5
2E
102
{ACAD_REACTORS
330
2A
102
}
102
{ACAD_XDICTIONARY
360
145
102
}
330
2A
100
AcDbVisualStyle
  2
GouraudWithEdges
 70
     3
177
     2
291
     1
 71
     2
176
     1
 72
     2
176
     1
 73
     1
176
     1
 90
        2
176
     1
 40
0.6
176
     1
 41
30.0
176
     1
 62
     5
 63
     7
421
 16777215
176
     1
 74
     1
176
     1
 91
        0
176
     1
 64
     7
176
     1
 65
   257
176
     1
 75
     1
176
     1
175
     1
176
     1
 42
1.0
176
     1
 92
        0
176
     1
 66
   257
176
     1
 43
1.0
176
     1
 76
     1
176
     1
 77
     6
176
     1
 78
     2
176
     1
 67
     7
176
     1
 79
     5
176
     1
170
     0
176
     1
171
     0
176
     1
290
     0
176
     1
 93
       13
176
     1
 44
0.0
176
     1
173
     0
176
     1
  0
VISUALSTYLE
  5
31
102
{ACAD_REACTORS
330
2A
102
}
102
{ACAD_XDICTIONARY
360
14B
102
}
330
2A
100
AcDbVisualStyle
  2
Hidden
 70
     6
177
     2
291
     0
 71
     1
176
     1
 72
     2
176
     1
 73
     2
176
     1
 90
        0
176
     1
 40
0.6
176
     1
 41
30.0
176
     1
 62
     5
 63
     7
421
 16777215
176
     1
 74
     2
176
     1
 91
        2
176
     1
 64
     7
176
     1
 65
   257
176
     1
 75
     2
176
     1
175
     1
176
     1
 42
40.0
176
     1
 92
        0
176
     1
 66
   257
176
     1
 43
1.0
176
     1
 76
     1
176
     1
 77
     6
176
     1
 78
     2
176
     1
 67
     7
176
     1
 79
     3
176
     1
170
     0
176
     1
171
     0
176
     1
290
     0
176
     1
 93
        1
176
     1
 44
0.0
176
     1
173
     0
176
     1
  0
VISUALSTYLE
  5
3B
102
{ACAD_REACTORS
330
2A
102
}
102
{ACAD_XDICTIONARY
360
15F
102
}
330
2A
100
AcDbVisualStyle
  2
JitterOff
 70
    20
177
     2
291
     1
 71
     2
176
     0
 72
     2
176
     0
 73
     0
176
     0
 90
        0
176
     0
 40
0.6
176
     0
 41
30.0
176
     0
 62
     5
 63
     7
421
 16777215
176
     0
 74
     1
176
     0
 91
        4
176
     0
 64
     7
176
     0
 65
   257
176
     0
 75
     1
176
     0
175
     1
176
     0
 42
1.0
176
     0
 92
       10
176
     2
 66
     7
176
     0
 43
1.0
176
     0
 76
     1
176
     0
 77
     6
176
     0
 78
     2
176
     0
 67
     7
176
     0
 79
     5
176
     0
170
     0
176
     0
171
     0
176
     0
290
     0
176
     0
 93
        1
176
     0
 44
0.0
176
     0
173
     0
176
     0
  0
VISUALSTYLE
  5
38
102
{ACAD_REACTORS
330
2A
102
}
102
{ACAD_XDICTIONARY
360
159
102
}
330
2A
100
AcDbVisualStyle
  2
Linepattern
 70
    14
177
     2
291
     1
 71
     2
176
     1
 72
     2
176
     1
 73
     0
176
     1
 90
        0
176
     1
 40
0.6
176
     1
 41
30.0
176
     1
 62
     5
 63
     7
421
 16777215
176
     1
 74
     1
176
     1
 91
        4
176
     1
 64
     7
176
     1
 65
   257
176
     1
 75
     7
176
     1
175
     7
176
     1
 42
1.0
176
     1
 92
        8
176
     1
 66
     7
176
     1
 43
1.0
176
     1
 76
     1
176
     1
 77
     6
176
     1
 78
     2
176
     1
 67
     7
176
     1
 79
     5
176
     1
170
     0
176
     1
171
     0
176
     1
290
     0
176
     1
 93
        1
176
     1
 44
0.0
176
     1
173
     0
176
     1
  0
VISUALSTYLE
  5
3C
102
{ACAD_REACTORS
330
2A
102
}
102
{ACAD_XDICTIONARY
360
161
102
}
330
2A
100
AcDbVisualStyle
  2
OverhangOff
 70
    21
177
     2
291
     1
 71
     2
176
     0
 72
     2
176
     0
 73
     0
176
     0
 90
        0
176
     0
 40
0.6
176
     0
 41
30.0
176
     0
 62
     5
 63
     7
421
 16777215
176
     0
 74
     1
176
     0
 91
        4
176
     0
 64
     7
176
     0
 65
   257
176
     0
 75
     1
176
     0
175
     1
176
     0
 42
1.0
176
     0
 92
        9
176
     2
 66
     7
176
     0
 43
1.0
176
     0
 76
     1
176
     0
 77
     6
176
     0
 78
     2
176
     0
 67
     7
176
     0
 79
     5
176
     0
170
     0
176
     0
171
     0
176
     0
290
     0
176
     0
 93
        1
176
     0
 44
0.0
176
     0
173
     0
176
     0
  0
VISUALSTYLE
  5
33
102
{ACAD_REACTORS
330
2A
102
}
102
{ACAD_XDICTIONARY
360
14F
102
}
330
2A
100
AcDbVisualStyle
  2
Realistic
 70
     8
177
     2
291
     0
 71
     2
176
     1
 72
     3
176
     1
 73
     0
176
     1
 90
        2
176
     1
 40
0.6
176
     1
 41
30.0
176
     1
 62
     5
 63
     7
421
 16777215
176
     1
 74
     0
176
     1
 91
        0
176
     1
 64
     7
176
     1
 65
   257
176
     1
 75
     1
176
     1
175
     1
176
     1
 42
1.0
176
     1
 92
        8
176
     1
 66
   257
176
     1
 43
1.0
176
     1
 76
     1
176
     1
 77
     6
176
     1
 78
     2
176
     1
 67
     7
176
     1
 79
     3
176
     1
170
     0
176
     1
171
     0
176
     1
290
     0
176
     1
 93
       13
176
     1
 44
0.0
176
     1
173
     0
176
     1
  0
VISUALSTYLE
  5
42
102
{ACAD_REACTORS
330
2A
102
}
102
{ACAD_XDICTIONARY
360
16D
102
}
330
2A
100
AcDbVisualStyle
  2
Shaded
 70
    27
177
     2
291
     0
 71
     2
176
     1
 72
     2
176
     1
 73
     1
176
     1
 90
        2
176
     1
 40
0.6
176
     1
 41
30.0
176
     1
 62
     5
 63
     7
421
 16777215
176
     1
 74
     0
176
     1
 91
        4
176
     1
 64
     7
176
     1
 65
   257
176
     1
 75
     1
176
     1
175
     1
176
     1
 42
1.0
176
     1
 92
        8
176
     1
 66
   257
176
     1
 43
1.0
176
     1
 76
     1
176
     1
 77
     6
176
     1
 78
     2
176
     1
 67
     8
425
  7895160
176
     1
 79
     3
176
     1
170
     0
176
     1
171
     0
176
     1
290
     0
176
     1
 93
        5
176
     1
 44
0.0
176
     1
173
     0
176
     1
  0
VISUALSTYLE
  5
41
102
{ACAD_REACTORS
330
2A
102
}
102
{ACAD_XDICTIONARY
360
16B
102
}
330
2A
100
AcDbVisualStyle
  2
Shaded with edges
 70
    26
177
     2
291
     0
 71
     2
176
     1
 72
     2
176
     1
 73
     1
176
     1
 90
        2
176
     1
 40
0.6
176
     1
 41
30.0
176
     1
 62
     5
 63
     7
421
 16777215
176
     1
 74
     1
176
     1
 91
       10
176
     1
 64
     7
176
     1
 65
   257
176
     1
 75
     2
176
     1
175
     1
176
     1
 42
1.0
176
     1
 92
        8
176
     1
 66
   257
176
     1
 43
1.0
176
     1
 76
     1
176
     1
 77
     6
176
     1
 78
     2
176
     1
 67
     7
176
     1
 79
     3
176
     1
170
     0
176
     1
171
     0
176
     1
290
     0
176
     1
 93
        5
176
     1
 44
0.0
176
     1
173
     0
176
     1
  0
VISUALSTYLE
  5
3E
102
{ACAD_REACTORS
330
2A
102
}
102
{ACAD_XDICTIONARY
360
165
102
}
330
2A
100
AcDbVisualStyle
  2
Shades of Gray
 70
    23
177
     2
291
     0
 71
     2
176
     1
 72
     2
176
     1
 73
     3
176
     1
 90
        0
176
     1
 40
0.6
176
     1
 41
30.0
176
     1
 62
     5
 63
     7
421
 16777215
176
     1
 74
     2
176
     1
 91
        2
176
     1
 64
     7
176
     1
 65
     7
176
     1
 75
     1
176
     1
175
     1
176
     1
 42
40.0
176
     1
 92
        8
176
     1
 66
     7
176
     1
 43
1.0
176
     1
 76
     1
176
     1
 77
     6
176
     1
 78
     2
176
     1
 67
     7
176
     1
 79
     3
176
     1
170
     0
176
     1
171
     0
176
     1
290
     0
176
     1
 93
        1
176
     1
 44
0.0
176
     1
173
     0
176
     1
  0
VISUALSTYLE
  5
3F
102
{ACAD_REACTORS
330
2A
102
}
102
{ACAD_XDICTIONARY
360
167
102
}
330
2A
100
AcDbVisualStyle
  2
Sketchy
 70
    24
177
     2
291
     0
 71
     1
176
     1
 72
     2
176
     1
 73
     2
176
     1
 90
        0
176
     1
 40
0.6
176
     1
 41
30.0
176
     1
 62
     5
 63
     7
421
 16777215
176
     1
 74
     2
176
     1
 91
        2
176
     1
 64
     7
176
     1
 65
     7
176
     1
 75
     1
176
     1
175
     1
176
     1
 42
40.0
176
     1
 92
       11
176
     1
 66
     7
176
     1
 43
1.0
176
     1
 76
     1
176
     1
 77
     6
176
     1
 78
     2
176
     1
 67
     7
176
     1
 79
     6
176
     1
170
     0
176
     1
171
     0
176
     1
290
     0
176
     1
 93
        1
176
     1
 44
0.0
176
     1
173
     0
176
     1
  0
VISUALSTYLE
  5
37
102
{ACAD_REACTORS
330
2A
102
}
102
{ACAD_XDICTIONARY
360
157
102
}
330
2A
100
AcDbVisualStyle
  2
Thicken
 70
    13
177
     2
291
     1
 71
     2
176
     1
 72
     2
176
     1
 73
     0
176
     1
 90
        0
176
     1
 40
0.6
176
     1
 41
30.0
176
     1
 62
     5
 63
     7
421
 16777215
176
     1
 74
     1
176
     1
 91
        4
176
     1
 64
     7
176
     1
 65
   257
176
     1
 75
     1
176
     1
175
     1
176
     1
 42
1.0
176
     1
 92
       12
176
     1
 66
     7
176
     1
 43
1.0
176
     1
 76
     1
176
     1
 77
     6
176
     1
 78
     2
176
     1
 67
     7
176
     1
 79
     5
176
     1
170
     0
176
     1
171
     0
176
     1
290
     0
176
     1
 93
        1
176
     1
 44
0.0
176
     1
173
     0
176
     1
  0
VISUALSTYLE
  5
30
102
{ACAD_REACTORS
330
2A
102
}
102
{ACAD_XDICTIONARY
360
149
102
}
330
2A
100
AcDbVisualStyle
  2
Wireframe
 70
     5
177
     2
291
     0
 71
     0
176
     1
 72
     2
176
     1
 73
     0
176
     1
 90
        0
176
     1
 40
0.6
176
     1
 41
30.0
176
     1
 62
     5
 63
     7
421
 16777215
176
     1
 74
     1
176
     1
 91
        4
176
     1
 64
     7
176
     1
 65
   257
176
     1
 75
     1
176
     1
175
     1
176
     1
 42
1.0
176
     1
 92
        0
176
     1
 66
   257
176
     1
 43
1.0
176
     1
 76
     1
176
     1
 77
     6
176
     1
 78
     2
176
     1
 67
     7
176
     1
 79
     3
176
     1
170
     0
176
     1
171
     0
176
     1
290
     0
176
     1
 93
        1
176
     1
 44
0.0
176
     1
173
     0
176
     1
  0
VISUALSTYLE
  5
40
102
{ACAD_REACTORS
330
2A
102
}
102
{ACAD_XDICTIONARY
360
169
102
}
330
2A
100
AcDbVisualStyle
  2
X-Ray
 70
    25
177
     2
291
     0
 71
     2
176
     1
 72
     2
176
     1
 73
     1
176
     1
 90
        1
176
     1
 40
0.5
176
     1
 41
30.0
176
     1
 62
     5
 63
     7
421
 16777215
176
     1
 74
     1
176
     1
 91
        0
176
     1
 64
     7
176
     1
 65
   257
176
     1
 75
     1
176
     1
175
     1
176
     1
 42
1.0
176
     1
 92
        8
176
     1
 66
     7
176
     1
 43
1.0
176
     1
 76
     1
176
     1
 77
     6
176
     1
 78
     2
176
     1
 67
     7
176
     1
 79
     3
176
     1
170
     0
176
     1
171
     0
176
     1
290
     0
176
     1
 93
       13
176
     1
 44
0.0
176
     1
173
     0
176
     1
  0
DICTIONARYVAR
  5
13E
102
{ACAD_REACTORS
330
13D
102
}
330
13D
100
DictionaryVariables
280
     0
  1
1:1
  0
DICTIONARYVAR
  5
173
102
{ACAD_REACTORS
330
13D
102
}
330
13D
100
DictionaryVariables
280
     0
  1
Standard
  0
DICTIONARYVAR
  5
172
102
{ACAD_REACTORS
330
13D
102
}
330
13D
100
DictionaryVariables
280
     0
  1
Standard
  0
DICTIONARY
  5
16F
330
6A
100
AcDbDictionary
280
     1
281
     1
  3
ACAD_ROUNDTRIP_2008_TABLESTYLE_CELLSTYLEMAP
360
170
  0
DICTIONARY
  5
147
330
2F
100
AcDbDictionary
280
     1
281
     1
  3
ACAD_XREC_ROUNDTRIP
360
148
  0
DICTIONARY
  5
14D
330
32
100
AcDbDictionary
280
     1
281
     1
  3
ACAD_XREC_ROUNDTRIP
360
14E
  0
DICTIONARY
  5
155
330
36
100
AcDbDictionary
280
     1
281
     1
  3
ACAD_XREC_ROUNDTRIP
360
156
  0
DICTIONARY
  5
15D
330
3A
100
AcDbDictionary
280
     1
281
     1
  3
ACAD_XREC_ROUNDTRIP
360
15E
  0
DICTIONARY
  5
151
330
34
100
AcDbDictionary
280
     1
281
     1
  3
ACAD_XREC_ROUNDTRIP
360
152
  0
DICTIONARY
  5
153
330
35
100
AcDbDictionary
280
     1
281
     1
  3
ACAD_XREC_ROUNDTRIP
360
154
  0
DICTIONARY
  5
163
330
3D
100
AcDbDictionary
280
     1
281
     1
  3
ACAD_XREC_ROUNDTRIP
360
164
  0
DICTIONARY
  5
15B
330
39
100
AcDbDictionary
280
     1
281
     1
  3
ACAD_XREC_ROUNDTRIP
360
15C
  0
DICTIONARY
  5
13F
330
2B
100
AcDbDictionary
280
     1
281
     1
  3
ACAD_XREC_ROUNDTRIP
360
140
  0
DICTIONARY
  5
141
330
2C
100
AcDbDictionary
280
     1
281
     1
  3
ACAD_XREC_ROUNDTRIP
360
142
  0
DICTIONARY
  5
143
330
2D
100
AcDbDictionary
280
     1
281
     1
  3
ACAD_XREC_ROUNDTRIP
360
144
  0
DICTIONARY
  5
145
330
2E
100
AcDbDictionary
280
     1
281
     1
  3
ACAD_XREC_ROUNDTRIP
360
146
  0
DICTIONARY
  5
14B
330
31
100
AcDbDictionary
280
     1
281
     1
  3
ACAD_XREC_ROUNDTRIP
360
14C
  0
DICTIONARY
  5
15F
330
3B
100
AcDbDictionary
280
     1
281
     1
  3
ACAD_XREC_ROUNDTRIP
360
160
  0
DICTIONARY
  5
159
330
38
100
AcDbDictionary
280
     1
281
     1
  3
ACAD_XREC_ROUNDTRIP
360
15A
  0
DICTIONARY
  5
161
330
3C
100
AcDbDictionary
280
     1
281
     1
  3
ACAD_XREC_ROUNDTRIP
360
162
  0
DICTIONARY
  5
14F
330
33
100
AcDbDictionary
280
     1
281
     1
  3
ACAD_XREC_ROUNDTRIP
360
150
  0
DICTIONARY
  5
16D
330
42
100
AcDbDictionary
280
     1
281
     1
  3
ACAD_XREC_ROUNDTRIP
360
16E
  0
DICTIONARY
  5
16B
330
41
100
AcDbDictionary
280
     1
281
     1
  3
ACAD_XREC_ROUNDTRIP
360
16C
  0
DICTIONARY
  5
165
330
3E
100
AcDbDictionary
280
     1
281
     1
  3
ACAD_XREC_ROUNDTRIP
360
166
  0
DICTIONARY
  5
167
330
3F
100
AcDbDictionary
280
     1
281
     1
  3
ACAD_XREC_ROUNDTRIP
360
168
  0
DICTIONARY
  5
157
330
37
100
AcDbDictionary
280
     1
281
     1
  3
ACAD_XREC_ROUNDTRIP
360
158
  0
DICTIONARY
  5
149
330
30
100
AcDbDictionary
280
     1
281
     1
  3
ACAD_XREC_ROUNDTRIP
360
14A
  0
DICTIONARY
  5
169
330
40
100
AcDbDictionary
280
     1
281
     1
  3
ACAD_XREC_ROUNDTRIP
360
16A
  0
CELLSTYLEMAP
  5
170
102
{ACAD_REACTORS
330
16F
102
}
330
16F
100
AcDbCellStyleMap
 90
        3
300
CELLSTYLE
  1
TABLEFORMAT_BEGIN
 90
        5
170
     1
 91
        0
 92
    32768
 62
   257
 93
        1
300
CONTENTFORMAT
  1
CONTENTFORMAT_BEGIN
 90
        0
 91
        0
 92
        4
 93
        0
300

 40
0.0
140
1.0
 94
        5
 62
     0
340
11
144
0.25
309
CONTENTFORMAT_END
171
     1
301
MARGIN
  1
CELLMARGIN_BEGIN
 40
0.06
 40
0.06
 40
0.06
 40
0.06
 40
0.06
 40
0.06
309
CELLMARGIN_END
 94
        6
 95
        1
302
GRIDFORMAT
  1
GRIDFORMAT_BEGIN
 90
        0
 91
        1
 62
     0
 92
       -2
340
14
 93
        0
 40
0.045
309
GRIDFORMAT_END
 95
        2
302
GRIDFORMAT
  1
GRIDFORMAT_BEGIN
 90
        0
 91
        1
 62
     0
 92
       -2
340
14
 93
        0
 40
0.045
309
GRIDFORMAT_END
 95
        4
302
GRIDFORMAT
  1
GRIDFORMAT_BEGIN
 90
        0
 91
        1
 62
     0
 92
       -2
340
14
 93
        0
 40
0.045
309
GRIDFORMAT_END
 95
        8
302
GRIDFORMAT
  1
GRIDFORMAT_BEGIN
 90
        0
 91
        1
 62
     0
 92
       -2
340
14
 93
        0
 40
0.045
309
GRIDFORMAT_END
 95
       16
302
GRIDFORMAT
  1
GRIDFORMAT_BEGIN
 90
        0
 91
        1
 62
     0
 92
       -2
340
14
 93
        0
 40
0.045
309
GRIDFORMAT_END
 95
       32
302
GRIDFORMAT
  1
GRIDFORMAT_BEGIN
 90
        0
 91
        1
 62
     0
 92
       -2
340
14
 93
        0
 40
0.045
309
GRIDFORMAT_END
309
TABLEFORMAT_END
  1
CELLSTYLE_BEGIN
 90
        1
 91
        1
300
_TITLE
309
CELLSTYLE_END
300
CELLSTYLE
  1
TABLEFORMAT_BEGIN
 90
        5
170
     1
 91
        0
 92
        0
 62
   257
 93
        1
300
CONTENTFORMAT
  1
CONTENTFORMAT_BEGIN
 90
        0
 91
        0
 92
        4
 93
        0
300

 40
0.0
140
1.0
 94
        5
 62
     0
340
11
144
0.18
309
CONTENTFORMAT_END
171
     1
301
MARGIN
  1
CELLMARGIN_BEGIN
 40
0.06
 40
0.06
 40
0.06
 40
0.06
 40
0.06
 40
0.06
309
CELLMARGIN_END
 94
        6
 95
        1
302
GRIDFORMAT
  1
GRIDFORMAT_BEGIN
 90
        0
 91
        1
 62
     0
 92
       -2
340
14
 93
        0
 40
0.045
309
GRIDFORMAT_END
 95
        2
302
GRIDFORMAT
  1
GRIDFORMAT_BEGIN
 90
        0
 91
        1
 62
     0
 92
       -2
340
14
 93
        0
 40
0.045
309
GRIDFORMAT_END
 95
        4
302
GRIDFORMAT
  1
GRIDFORMAT_BEGIN
 90
        0
 91
        1
 62
     0
 92
       -2
340
14
 93
        0
 40
0.045
309
GRIDFORMAT_END
 95
        8
302
GRIDFORMAT
  1
GRIDFORMAT_BEGIN
 90
        0
 91
        1
 62
     0
 92
       -2
340
14
 93
        0
 40
0.045
309
GRIDFORMAT_END
 95
       16
302
GRIDFORMAT
  1
GRIDFORMAT_BEGIN
 90
        0
 91
        1
 62
     0
 92
       -2
340
14
 93
        0
 40
0.045
309
GRIDFORMAT_END
 95
       32
302
GRIDFORMAT
  1
GRIDFORMAT_BEGIN
 90
        0
 91
        1
 62
     0
 92
       -2
340
14
 93
        0
 40
0.045
309
GRIDFORMAT_END
309
TABLEFORMAT_END
  1
CELLSTYLE_BEGIN
 90
        2
 91
        1
300
_HEADER
309
CELLSTYLE_END
300
CELLSTYLE
  1
TABLEFORMAT_BEGIN
 90
        5
170
     1
 91
        0
 92
        0
 62
   257
 93
        1
300
CONTENTFORMAT
  1
CONTENTFORMAT_BEGIN
 90
        0
 91
        0
 92
        4
 93
        0
300

 40
0.0
140
1.0
 94
        2
 62
     0
340
11
144
0.18
309
CONTENTFORMAT_END
171
     1
301
MARGIN
  1
CELLMARGIN_BEGIN
 40
0.06
 40
0.06
 40
0.06
 40
0.06
 40
0.06
 40
0.06
309
CELLMARGIN_END
 94
        6
 95
        1
302
GRIDFORMAT
  1
GRIDFORMAT_BEGIN
 90
        0
 91
        1
 62
     0
 92
       -2
340
14
 93
        0
 40
0.045
309
GRIDFORMAT_END
 95
        2
302
GRIDFORMAT
  1
GRIDFORMAT_BEGIN
 90
        0
 91
        1
 62
     0
 92
       -2
340
14
 93
        0
 40
0.045
309
GRIDFORMAT_END
 95
        4
302
GRIDFORMAT
  1
GRIDFORMAT_BEGIN
 90
        0
 91
        1
 62
     0
 92
       -2
340
14
 93
        0
 40
0.045
309
GRIDFORMAT_END
 95
        8
302
GRIDFORMAT
  1
GRIDFORMAT_BEGIN
 90
        0
 91
        1
 62
     0
 92
       -2
340
14
 93
        0
 40
0.045
309
GRIDFORMAT_END
 95
       16
302
GRIDFORMAT
  1
GRIDFORMAT_BEGIN
 90
        0
 91
        1
 62
     0
 92
       -2
340
14
 93
        0
 40
0.045
309
GRIDFORMAT_END
 95
       32
302
GRIDFORMAT
  1
GRIDFORMAT_BEGIN
 90
        0
 91
        1
 62
     0
 92
       -2
340
14
 93
        0
 40
0.045
309
GRIDFORMAT_END
309
TABLEFORMAT_END
  1
CELLSTYLE_BEGIN
 90
        3
 91
        2
300
_DATA
309
CELLSTYLE_END
  0
XRECORD
  5
148
102
{ACAD_REACTORS
330
147
102
}
330
147
100
AcDbXrecord
280
     1
102
RTVSPost2010Prop28
280
     1
102
RTVSPost2010PropOp28
 70
     1
102
RTVSPost2010Prop29
280
     1
102
RTVSPost2010PropOp29
 70
     1
102
RTVSPost2010Prop30
280
     0
102
RTVSPost2010PropOp30
 70
     1
102
RTVSPost2010Prop31
280
     0
102
RTVSPost2010PropOp31
 70
     1
102
RTVSPost2010Prop32
280
     0
102
RTVSPost2010PropOp32
 70
     1
102
RTVSPost2010Prop33
280
     0
102
RTVSPost2010PropOp33
 70
     1
102
RTVSPost2010Prop34
280
     0
102
RTVSPost2010PropOp34
 70
     1
102
RTVSPost2010Prop35
280
     0
102
RTVSPost2010PropOp35
 70
     1
102
RTVSPost2010Prop36
280
     0
102
RTVSPost2010PropOp36
 70
     1
102
RTVSPost2010Prop37
 90
       50
102
RTVSPost2010PropOp37
 70
     1
102
RTVSPost2010Prop38
140
0.0
102
RTVSPost2010PropOp38
 70
     1
102
RTVSPost2010Prop39
140
1.0
102
RTVSPost2010PropOp39
 70
     1
102
RTVSPost2010Prop40
 90
        0
102
RTVSPost2010PropOp40
 70
     1
102
RTVSPost2010Prop41ColorIndex
 90
       18
102
RTVSPost2010Prop41ColorRGB
 90
        0
102
RTVSPost2010PropOp41
 70
     1
102
RTVSPost2010Prop42
 90
       50
102
RTVSPost2010PropOp42
 70
     1
102
RTVSPost2010Prop43
 90
        3
102
RTVSPost2010PropOp43
 70
     1
102
RTVSPost2010Prop44ColorIndex
 90
        5
102
RTVSPost2010Prop44ColorRGB
 90
      255
102
RTVSPost2010PropOp44
 70
     1
102
RTVSPost2010Prop45
280
     0
102
RTVSPost2010PropOp45
 70
     1
102
RTVSPost2010Prop46
 90
       50
102
RTVSPost2010PropOp46
 70
     1
102
RTVSPost2010Prop47
 90
       50
102
RTVSPost2010PropOp47
 70
     1
102
RTVSPost2010Prop48
 90
       50
102
RTVSPost2010PropOp48
 70
     1
102
RTVSPost2010Prop49
280
     0
102
RTVSPost2010PropOp49
 70
     1
102
RTVSPost2010Prop50
 90
       50
102
RTVSPost2010PropOp50
 70
     1
102
RTVSPost2010Prop51ColorIndex
 90
      256
102
RTVSPost2010Prop51ColorRGB
 90
-16777216
102
RTVSPost2010PropOp51
 70
     0
102
RTVSPost2010Prop52
140
1.0
102
RTVSPost2010PropOp52
 70
     0
102
RTVSPost2010Prop53
 90
        2
102
RTVSPost2010PropOp53
 70
     1
102
RTVSPost2010Prop54
  1
strokes_ogs.tif
102
RTVSPost2010PropOp54
 70
     1
102
RTVSPost2010Prop55
280
     0
102
RTVSPost2010PropOp55
 70
     1
102
RTVSPost2010Prop56
140
1.0
102
RTVSPost2010PropOp56
 70
     1
102
RTVSPost2010Prop57
140
1.0
102
RTVSPost2010PropOp57
 70
     1
  0
XRECORD
  5
14E
102
{ACAD_REACTORS
330
14D
102
}
330
14D
100
AcDbXrecord
280
     1
102
RTVSPost2010Prop28
280
     0
102
RTVSPost2010PropOp28
 70
     1
102
RTVSPost2010Prop29
280
     1
102
RTVSPost2010PropOp29
 70
     1
102
RTVSPost2010Prop30
280
     1
102
RTVSPost2010PropOp30
 70
     1
102
RTVSPost2010Prop31
280
     0
102
RTVSPost2010PropOp31
 70
     1
102
RTVSPost2010Prop32
280
     0
102
RTVSPost2010PropOp32
 70
     1
102
RTVSPost2010Prop33
280
     0
102
RTVSPost2010PropOp33
 70
     1
102
RTVSPost2010Prop34
280
     0
102
RTVSPost2010PropOp34
 70
     1
102
RTVSPost2010Prop35
280
     0
102
RTVSPost2010PropOp35
 70
     1
102
RTVSPost2010Prop36
280
     0
102
RTVSPost2010PropOp36
 70
     1
102
RTVSPost2010Prop37
 90
       50
102
RTVSPost2010PropOp37
 70
     1
102
RTVSPost2010Prop38
140
0.0
102
RTVSPost2010PropOp38
 70
     1
102
RTVSPost2010Prop39
140
1.0
102
RTVSPost2010PropOp39
 70
     1
102
RTVSPost2010Prop40
 90
        0
102
RTVSPost2010PropOp40
 70
     1
102
RTVSPost2010Prop41ColorIndex
 90
       18
102
RTVSPost2010Prop41ColorRGB
 90
        0
102
RTVSPost2010PropOp41
 70
     1
102
RTVSPost2010Prop42
 90
       50
102
RTVSPost2010PropOp42
 70
     1
102
RTVSPost2010Prop43
 90
        3
102
RTVSPost2010PropOp43
 70
     1
102
RTVSPost2010Prop44ColorIndex
 90
        5
102
RTVSPost2010Prop44ColorRGB
 90
      255
102
RTVSPost2010PropOp44
 70
     1
102
RTVSPost2010Prop45
280
     0
102
RTVSPost2010PropOp45
 70
     1
102
RTVSPost2010Prop46
 90
       50
102
RTVSPost2010PropOp46
 70
     1
102
RTVSPost2010Prop47
 90
       50
102
RTVSPost2010PropOp47
 70
     1
102
RTVSPost2010Prop48
 90
       50
102
RTVSPost2010PropOp48
 70
     1
102
RTVSPost2010Prop49
280
     0
102
RTVSPost2010PropOp49
 70
     1
102
RTVSPost2010Prop50
 90
       50
102
RTVSPost2010PropOp50
 70
     1
102
RTVSPost2010Prop51ColorIndex
 90
      256
102
RTVSPost2010Prop51ColorRGB
 90
-16777216
102
RTVSPost2010PropOp51
 70
     0
102
RTVSPost2010Prop52
140
1.0
102
RTVSPost2010PropOp52
 70
     0
102
RTVSPost2010Prop53
 90
        2
102
RTVSPost2010PropOp53
 70
     1
102
RTVSPost2010Prop54
  1
strokes_ogs.tif
102
RTVSPost2010PropOp54
 70
     1
102
RTVSPost2010Prop55
280
     0
102
RTVSPost2010PropOp55
 70
     1
102
RTVSPost2010Prop56
140
1.0
102
RTVSPost2010PropOp56
 70
     1
102
RTVSPost2010Prop57
140
1.0
102
RTVSPost2010PropOp57
 70
     1
  0
XRECORD
  5
156
102
{ACAD_REACTORS
330
155
102
}
330
155
100
AcDbXrecord
280
     1
102
RTVSPost2010Prop28
280
     0
102
RTVSPost2010PropOp28
 70
     1
102
RTVSPost2010Prop29
280
     1
102
RTVSPost2010PropOp29
 70
     1
102
RTVSPost2010Prop30
280
     1
102
RTVSPost2010PropOp30
 70
     1
102
RTVSPost2010Prop31
280
     0
102
RTVSPost2010PropOp31
 70
     1
102
RTVSPost2010Prop32
280
     0
102
RTVSPost2010PropOp32
 70
     1
102
RTVSPost2010Prop33
280
     0
102
RTVSPost2010PropOp33
 70
     1
102
RTVSPost2010Prop34
280
     0
102
RTVSPost2010PropOp34
 70
     1
102
RTVSPost2010Prop35
280
     0
102
RTVSPost2010PropOp35
 70
     1
102
RTVSPost2010Prop36
280
     0
102
RTVSPost2010PropOp36
 70
     1
102
RTVSPost2010Prop37
 90
       50
102
RTVSPost2010PropOp37
 70
     1
102
RTVSPost2010Prop38
140
0.0
102
RTVSPost2010PropOp38
 70
     1
102
RTVSPost2010Prop39
140
1.0
102
RTVSPost2010PropOp39
 70
     1
102
RTVSPost2010Prop40
 90
        0
102
RTVSPost2010PropOp40
 70
     1
102
RTVSPost2010Prop41ColorIndex
 90
       18
102
RTVSPost2010Prop41ColorRGB
 90
        0
102
RTVSPost2010PropOp41
 70
     1
102
RTVSPost2010Prop42
 90
       50
102
RTVSPost2010PropOp42
 70
     1
102
RTVSPost2010Prop43
 90
        3
102
RTVSPost2010PropOp43
 70
     1
102
RTVSPost2010Prop44ColorIndex
 90
        5
102
RTVSPost2010Prop44ColorRGB
 90
      255
102
RTVSPost2010PropOp44
 70
     1
102
RTVSPost2010Prop45
280
     0
102
RTVSPost2010PropOp45
 70
     1
102
RTVSPost2010Prop46
 90
       50
102
RTVSPost2010PropOp46
 70
     1
102
RTVSPost2010Prop47
 90
       50
102
RTVSPost2010PropOp47
 70
     1
102
RTVSPost2010Prop48
 90
       50
102
RTVSPost2010PropOp48
 70
     1
102
RTVSPost2010Prop49
280
     0
102
RTVSPost2010PropOp49
 70
     1
102
RTVSPost2010Prop50
 90
       50
102
RTVSPost2010PropOp50
 70
     1
102
RTVSPost2010Prop51ColorIndex
 90
      256
102
RTVSPost2010Prop51ColorRGB
 90
-16777216
102
RTVSPost2010PropOp51
 70
     0
102
RTVSPost2010Prop52
140
1.0
102
RTVSPost2010PropOp52
 70
     0
102
RTVSPost2010Prop53
 90
        2
102
RTVSPost2010PropOp53
 70
     1
102
RTVSPost2010Prop54
  1
strokes_ogs.tif
102
RTVSPost2010PropOp54
 70
     1
102
RTVSPost2010Prop55
280
     0
102
RTVSPost2010PropOp55
 70
     1
102
RTVSPost2010Prop56
140
1.0
102
RTVSPost2010PropOp56
 70
     1
102
RTVSPost2010Prop57
140
1.0
102
RTVSPost2010PropOp57
 70
     1
  0
XRECORD
  5
15E
102
{ACAD_REACTORS
330
15D
102
}
330
15D
100
AcDbXrecord
280
     1
102
RTVSPost2010Prop28
280
     0
102
RTVSPost2010PropOp28
 70
     1
102
RTVSPost2010Prop29
280
     1
102
RTVSPost2010PropOp29
 70
     1
102
RTVSPost2010Prop30
280
     1
102
RTVSPost2010PropOp30
 70
     1
102
RTVSPost2010Prop31
280
     0
102
RTVSPost2010PropOp31
 70
     1
102
RTVSPost2010Prop32
280
     0
102
RTVSPost2010PropOp32
 70
     1
102
RTVSPost2010Prop33
280
     0
102
RTVSPost2010PropOp33
 70
     1
102
RTVSPost2010Prop34
280
     0
102
RTVSPost2010PropOp34
 70
     1
102
RTVSPost2010Prop35
280
     0
102
RTVSPost2010PropOp35
 70
     1
102
RTVSPost2010Prop36
280
     0
102
RTVSPost2010PropOp36
 70
     1
102
RTVSPost2010Prop37
 90
       50
102
RTVSPost2010PropOp37
 70
     1
102
RTVSPost2010Prop38
140
0.0
102
RTVSPost2010PropOp38
 70
     1
102
RTVSPost2010Prop39
140
1.0
102
RTVSPost2010PropOp39
 70
     1
102
RTVSPost2010Prop40
 90
        0
102
RTVSPost2010PropOp40
 70
     1
102
RTVSPost2010Prop41ColorIndex
 90
       18
102
RTVSPost2010Prop41ColorRGB
 90
        0
102
RTVSPost2010PropOp41
 70
     1
102
RTVSPost2010Prop42
 90
       50
102
RTVSPost2010PropOp42
 70
     1
102
RTVSPost2010Prop43
 90
        3
102
RTVSPost2010PropOp43
 70
     1
102
RTVSPost2010Prop44ColorIndex
 90
        5
102
RTVSPost2010Prop44ColorRGB
 90
      255
102
RTVSPost2010PropOp44
 70
     1
102
RTVSPost2010Prop45
280
     0
102
RTVSPost2010PropOp45
 70
     1
102
RTVSPost2010Prop46
 90
       50
102
RTVSPost2010PropOp46
 70
     1
102
RTVSPost2010Prop47
 90
       50
102
RTVSPost2010PropOp47
 70
     1
102
RTVSPost2010Prop48
 90
       50
102
RTVSPost2010PropOp48
 70
     1
102
RTVSPost2010Prop49
280
     0
102
RTVSPost2010PropOp49
 70
     1
102
RTVSPost2010Prop50
 90
       50
102
RTVSPost2010PropOp50
 70
     1
102
RTVSPost2010Prop51ColorIndex
 90
      256
102
RTVSPost2010Prop51ColorRGB
 90
-16777216
102
RTVSPost2010PropOp51
 70
     0
102
RTVSPost2010Prop52
140
1.0
102
RTVSPost2010PropOp52
 70
     0
102
RTVSPost2010Prop53
 90
        2
102
RTVSPost2010PropOp53
 70
     1
102
RTVSPost2010Prop54
  1
strokes_ogs.tif
102
RTVSPost2010PropOp54
 70
     1
102
RTVSPost2010Prop55
280
     0
102
RTVSPost2010PropOp55
 70
     1
102
RTVSPost2010Prop56
140
1.0
102
RTVSPost2010PropOp56
 70
     1
102
RTVSPost2010Prop57
140
1.0
102
RTVSPost2010PropOp57
 70
     1
  0
XRECORD
  5
152
102
{ACAD_REACTORS
330
151
102
}
330
151
100
AcDbXrecord
280
     1
102
RTVSPost2010Prop28
280
     0
102
RTVSPost2010PropOp28
 70
     1
102
RTVSPost2010Prop29
280
     1
102
RTVSPost2010PropOp29
 70
     1
102
RTVSPost2010Prop30
280
     1
102
RTVSPost2010PropOp30
 70
     1
102
RTVSPost2010Prop31
280
     0
102
RTVSPost2010PropOp31
 70
     1
102
RTVSPost2010Prop32
280
     0
102
RTVSPost2010PropOp32
 70
     1
102
RTVSPost2010Prop33
280
     0
102
RTVSPost2010PropOp33
 70
     1
102
RTVSPost2010Prop34
280
     0
102
RTVSPost2010PropOp34
 70
     1
102
RTVSPost2010Prop35
280
     0
102
RTVSPost2010PropOp35
 70
     1
102
RTVSPost2010Prop36
280
     0
102
RTVSPost2010PropOp36
 70
     1
102
RTVSPost2010Prop37
 90
       50
102
RTVSPost2010PropOp37
 70
     1
102
RTVSPost2010Prop38
140
0.0
102
RTVSPost2010PropOp38
 70
     1
102
RTVSPost2010Prop39
140
1.0
102
RTVSPost2010PropOp39
 70
     1
102
RTVSPost2010Prop40
 90
        0
102
RTVSPost2010PropOp40
 70
     1
102
RTVSPost2010Prop41ColorIndex
 90
       18
102
RTVSPost2010Prop41ColorRGB
 90
        0
102
RTVSPost2010PropOp41
 70
     1
102
RTVSPost2010Prop42
 90
       50
102
RTVSPost2010PropOp42
 70
     1
102
RTVSPost2010Prop43
 90
        3
102
RTVSPost2010PropOp43
 70
     1
102
RTVSPost2010Prop44ColorIndex
 90
        5
102
RTVSPost2010Prop44ColorRGB
 90
      255
102
RTVSPost2010PropOp44
 70
     1
102
RTVSPost2010Prop45
280
     0
102
RTVSPost2010PropOp45
 70
     1
102
RTVSPost2010Prop46
 90
       50
102
RTVSPost2010PropOp46
 70
     1
102
RTVSPost2010Prop47
 90
       50
102
RTVSPost2010PropOp47
 70
     1
102
RTVSPost2010Prop48
 90
       50
102
RTVSPost2010PropOp48
 70
     1
102
RTVSPost2010Prop49
280
     0
102
RTVSPost2010PropOp49
 70
     1
102
RTVSPost2010Prop50
 90
       50
102
RTVSPost2010PropOp50
 70
     1
102
RTVSPost2010Prop51ColorIndex
 90
      256
102
RTVSPost2010Prop51ColorRGB
 90
-16777216
102
RTVSPost2010PropOp51
 70
     0
102
RTVSPost2010Prop52
140
1.0
102
RTVSPost2010PropOp52
 70
     0
102
RTVSPost2010Prop53
 90
        2
102
RTVSPost2010PropOp53
 70
     1
102
RTVSPost2010Prop54
  1
strokes_ogs.tif
102
RTVSPost2010PropOp54
 70
     1
102
RTVSPost2010Prop55
280
     0
102
RTVSPost2010PropOp55
 70
     1
102
RTVSPost2010Prop56
140
1.0
102
RTVSPost2010PropOp56
 70
     1
102
RTVSPost2010Prop57
140
1.0
102
RTVSPost2010PropOp57
 70
     1
  0
XRECORD
  5
154
102
{ACAD_REACTORS
330
153
102
}
330
153
100
AcDbXrecord
280
     1
102
RTVSPost2010Prop28
280
     0
102
RTVSPost2010PropOp28
 70
     1
102
RTVSPost2010Prop29
280
     1
102
RTVSPost2010PropOp29
 70
     1
102
RTVSPost2010Prop30
280
     1
102
RTVSPost2010PropOp30
 70
     1
102
RTVSPost2010Prop31
280
     0
102
RTVSPost2010PropOp31
 70
     1
102
RTVSPost2010Prop32
280
     0
102
RTVSPost2010PropOp32
 70
     1
102
RTVSPost2010Prop33
280
     0
102
RTVSPost2010PropOp33
 70
     1
102
RTVSPost2010Prop34
280
     0
102
RTVSPost2010PropOp34
 70
     1
102
RTVSPost2010Prop35
280
     0
102
RTVSPost2010PropOp35
 70
     1
102
RTVSPost2010Prop36
280
     0
102
RTVSPost2010PropOp36
 70
     1
102
RTVSPost2010Prop37
 90
       50
102
RTVSPost2010PropOp37
 70
     1
102
RTVSPost2010Prop38
140
0.0
102
RTVSPost2010PropOp38
 70
     1
102
RTVSPost2010Prop39
140
1.0
102
RTVSPost2010PropOp39
 70
     1
102
RTVSPost2010Prop40
 90
        0
102
RTVSPost2010PropOp40
 70
     1
102
RTVSPost2010Prop41ColorIndex
 90
       18
102
RTVSPost2010Prop41ColorRGB
 90
        0
102
RTVSPost2010PropOp41
 70
     1
102
RTVSPost2010Prop42
 90
       50
102
RTVSPost2010PropOp42
 70
     1
102
RTVSPost2010Prop43
 90
        3
102
RTVSPost2010PropOp43
 70
     1
102
RTVSPost2010Prop44ColorIndex
 90
        5
102
RTVSPost2010Prop44ColorRGB
 90
      255
102
RTVSPost2010PropOp44
 70
     1
102
RTVSPost2010Prop45
280
     0
102
RTVSPost2010PropOp45
 70
     1
102
RTVSPost2010Prop46
 90
       50
102
RTVSPost2010PropOp46
 70
     1
102
RTVSPost2010Prop47
 90
       50
102
RTVSPost2010PropOp47
 70
     1
102
RTVSPost2010Prop48
 90
       50
102
RTVSPost2010PropOp48
 70
     1
102
RTVSPost2010Prop49
280
     0
102
RTVSPost2010PropOp49
 70
     1
102
RTVSPost2010Prop50
 90
       50
102
RTVSPost2010PropOp50
 70
     1
102
RTVSPost2010Prop51ColorIndex
 90
      256
102
RTVSPost2010Prop51ColorRGB
 90
-16777216
102
RTVSPost2010PropOp51
 70
     0
102
RTVSPost2010Prop52
140
1.0
102
RTVSPost2010PropOp52
 70
     0
102
RTVSPost2010Prop53
 90
        2
102
RTVSPost2010PropOp53
 70
     1
102
RTVSPost2010Prop54
  1
strokes_ogs.tif
102
RTVSPost2010PropOp54
 70
     1
102
RTVSPost2010Prop55
280
     0
102
RTVSPost2010PropOp55
 70
     1
102
RTVSPost2010Prop56
140
1.0
102
RTVSPost2010PropOp56
 70
     1
102
RTVSPost2010Prop57
140
1.0
102
RTVSPost2010PropOp57
 70
     1
  0
XRECORD
  5
164
102
{ACAD_REACTORS
330
163
102
}
330
163
100
AcDbXrecord
280
     1
102
RTVSPost2010Prop28
280
     0
102
RTVSPost2010PropOp28
 70
     0
102
RTVSPost2010Prop29
280
     1
102
RTVSPost2010PropOp29
 70
     0
102
RTVSPost2010Prop30
280
     1
102
RTVSPost2010PropOp30
 70
     0
102
RTVSPost2010Prop31
280
     0
102
RTVSPost2010PropOp31
 70
     0
102
RTVSPost2010Prop32
280
     0
102
RTVSPost2010PropOp32
 70
     0
102
RTVSPost2010Prop33
280
     0
102
RTVSPost2010PropOp33
 70
     0
102
RTVSPost2010Prop34
280
     0
102
RTVSPost2010PropOp34
 70
     0
102
RTVSPost2010Prop35
280
     0
102
RTVSPost2010PropOp35
 70
     0
102
RTVSPost2010Prop36
280
     0
102
RTVSPost2010PropOp36
 70
     0
102
RTVSPost2010Prop37
 90
       50
102
RTVSPost2010PropOp37
 70
     0
102
RTVSPost2010Prop38
140
0.0
102
RTVSPost2010PropOp38
 70
     0
102
RTVSPost2010Prop39
140
1.0
102
RTVSPost2010PropOp39
 70
     0
102
RTVSPost2010Prop40
 90
        0
102
RTVSPost2010PropOp40
 70
     0
102
RTVSPost2010Prop41ColorIndex
 90
       18
102
RTVSPost2010Prop41ColorRGB
 90
        0
102
RTVSPost2010PropOp41
 70
     0
102
RTVSPost2010Prop42
 90
       50
102
RTVSPost2010PropOp42
 70
     0
102
RTVSPost2010Prop43
 90
        3
102
RTVSPost2010PropOp43
 70
     0
102
RTVSPost2010Prop44ColorIndex
 90
        5
102
RTVSPost2010Prop44ColorRGB
 90
      255
102
RTVSPost2010PropOp44
 70
     0
102
RTVSPost2010Prop45
280
     0
102
RTVSPost2010PropOp45
 70
     0
102
RTVSPost2010Prop46
 90
       50
102
RTVSPost2010PropOp46
 70
     0
102
RTVSPost2010Prop47
 90
       50
102
RTVSPost2010PropOp47
 70
     0
102
RTVSPost2010Prop48
 90
       50
102
RTVSPost2010PropOp48
 70
     0
102
RTVSPost2010Prop49
280
     0
102
RTVSPost2010PropOp49
 70
     0
102
RTVSPost2010Prop50
 90
       50
102
RTVSPost2010PropOp50
 70
     0
102
RTVSPost2010Prop51ColorIndex
 90
      256
102
RTVSPost2010Prop51ColorRGB
 90
-16777216
102
RTVSPost2010PropOp51
 70
     0
102
RTVSPost2010Prop52
140
1.0
102
RTVSPost2010PropOp52
 70
     0
102
RTVSPost2010Prop53
 90
        2
102
RTVSPost2010PropOp53
 70
     0
102
RTVSPost2010Prop54
  1
strokes_ogs.tif
102
RTVSPost2010PropOp54
 70
     0
102
RTVSPost2010Prop55
280
     0
102
RTVSPost2010PropOp55
 70
     0
102
RTVSPost2010Prop56
140
1.0
102
RTVSPost2010PropOp56
 70
     0
102
RTVSPost2010Prop57
140
1.0
102
RTVSPost2010PropOp57
 70
     0
  0
XRECORD
  5
15C
102
{ACAD_REACTORS
330
15B
102
}
330
15B
100
AcDbXrecord
280
     1
102
RTVSPost2010Prop28
280
     0
102
RTVSPost2010PropOp28
 70
     1
102
RTVSPost2010Prop29
280
     1
102
RTVSPost2010PropOp29
 70
     1
102
RTVSPost2010Prop30
280
     1
102
RTVSPost2010PropOp30
 70
     1
102
RTVSPost2010Prop31
280
     0
102
RTVSPost2010PropOp31
 70
     1
102
RTVSPost2010Prop32
280
     0
102
RTVSPost2010PropOp32
 70
     1
102
RTVSPost2010Prop33
280
     0
102
RTVSPost2010PropOp33
 70
     1
102
RTVSPost2010Prop34
280
     0
102
RTVSPost2010PropOp34
 70
     1
102
RTVSPost2010Prop35
280
     0
102
RTVSPost2010PropOp35
 70
     1
102
RTVSPost2010Prop36
280
     0
102
RTVSPost2010PropOp36
 70
     1
102
RTVSPost2010Prop37
 90
       50
102
RTVSPost2010PropOp37
 70
     1
102
RTVSPost2010Prop38
140
0.0
102
RTVSPost2010PropOp38
 70
     1
102
RTVSPost2010Prop39
140
1.0
102
RTVSPost2010PropOp39
 70
     1
102
RTVSPost2010Prop40
 90
        0
102
RTVSPost2010PropOp40
 70
     1
102
RTVSPost2010Prop41ColorIndex
 90
       18
102
RTVSPost2010Prop41ColorRGB
 90
        0
102
RTVSPost2010PropOp41
 70
     1
102
RTVSPost2010Prop42
 90
       50
102
RTVSPost2010PropOp42
 70
     1
102
RTVSPost2010Prop43
 90
        3
102
RTVSPost2010PropOp43
 70
     1
102
RTVSPost2010Prop44ColorIndex
 90
        5
102
RTVSPost2010Prop44ColorRGB
 90
      255
102
RTVSPost2010PropOp44
 70
     1
102
RTVSPost2010Prop45
280
     0
102
RTVSPost2010PropOp45
 70
     1
102
RTVSPost2010Prop46
 90
       50
102
RTVSPost2010PropOp46
 70
     1
102
RTVSPost2010Prop47
 90
       50
102
RTVSPost2010PropOp47
 70
     1
102
RTVSPost2010Prop48
 90
       50
102
RTVSPost2010PropOp48
 70
     1
102
RTVSPost2010Prop49
280
     0
102
RTVSPost2010PropOp49
 70
     1
102
RTVSPost2010Prop50
 90
       50
102
RTVSPost2010PropOp50
 70
     1
102
RTVSPost2010Prop51ColorIndex
 90
      256
102
RTVSPost2010Prop51ColorRGB
 90
-16777216
102
RTVSPost2010PropOp51
 70
     0
102
RTVSPost2010Prop52
140
1.0
102
RTVSPost2010PropOp52
 70
     0
102
RTVSPost2010Prop53
 90
        2
102
RTVSPost2010PropOp53
 70
     1
102
RTVSPost2010Prop54
  1
strokes_ogs.tif
102
RTVSPost2010PropOp54
 70
     1
102
RTVSPost2010Prop55
280
     0
102
RTVSPost2010PropOp55
 70
     1
102
RTVSPost2010Prop56
140
1.0
102
RTVSPost2010PropOp56
 70
     1
102
RTVSPost2010Prop57
140
1.0
102
RTVSPost2010PropOp57
 70
     1
  0
XRECORD
  5
140
102
{ACAD_REACTORS
330
13F
102
}
330
13F
100
AcDbXrecord
280
     1
102
RTVSPost2010Prop28
280
     0
102
RTVSPost2010PropOp28
 70
     1
102
RTVSPost2010Prop29
280
     1
102
RTVSPost2010PropOp29
 70
     1
102
RTVSPost2010Prop30
280
     1
102
RTVSPost2010PropOp30
 70
     1
102
RTVSPost2010Prop31
280
     0
102
RTVSPost2010PropOp31
 70
     1
102
RTVSPost2010Prop32
280
     0
102
RTVSPost2010PropOp32
 70
     1
102
RTVSPost2010Prop33
280
     0
102
RTVSPost2010PropOp33
 70
     1
102
RTVSPost2010Prop34
280
     0
102
RTVSPost2010PropOp34
 70
     1
102
RTVSPost2010Prop35
280
     0
102
RTVSPost2010PropOp35
 70
     1
102
RTVSPost2010Prop36
280
     0
102
RTVSPost2010PropOp36
 70
     1
102
RTVSPost2010Prop37
 90
       50
102
RTVSPost2010PropOp37
 70
     1
102
RTVSPost2010Prop38
140
0.0
102
RTVSPost2010PropOp38
 70
     1
102
RTVSPost2010Prop39
140
1.0
102
RTVSPost2010PropOp39
 70
     1
102
RTVSPost2010Prop40
 90
        0
102
RTVSPost2010PropOp40
 70
     1
102
RTVSPost2010Prop41ColorIndex
 90
       18
102
RTVSPost2010Prop41ColorRGB
 90
        0
102
RTVSPost2010PropOp41
 70
     1
102
RTVSPost2010Prop42
 90
       50
102
RTVSPost2010PropOp42
 70
     1
102
RTVSPost2010Prop43
 90
        3
102
RTVSPost2010PropOp43
 70
     1
102
RTVSPost2010Prop44ColorIndex
 90
        5
102
RTVSPost2010Prop44ColorRGB
 90
      255
102
RTVSPost2010PropOp44
 70
     1
102
RTVSPost2010Prop45
280
     0
102
RTVSPost2010PropOp45
 70
     1
102
RTVSPost2010Prop46
 90
       50
102
RTVSPost2010PropOp46
 70
     1
102
RTVSPost2010Prop47
 90
       50
102
RTVSPost2010PropOp47
 70
     1
102
RTVSPost2010Prop48
 90
       50
102
RTVSPost2010PropOp48
 70
     1
102
RTVSPost2010Prop49
280
     0
102
RTVSPost2010PropOp49
 70
     1
102
RTVSPost2010Prop50
 90
       50
102
RTVSPost2010PropOp50
 70
     1
102
RTVSPost2010Prop51ColorIndex
 90
      256
102
RTVSPost2010Prop51ColorRGB
 90
-16777216
102
RTVSPost2010PropOp51
 70
     0
102
RTVSPost2010Prop52
140
1.0
102
RTVSPost2010PropOp52
 70
     0
102
RTVSPost2010Prop53
 90
        2
102
RTVSPost2010PropOp53
 70
     1
102
RTVSPost2010Prop54
  1
strokes_ogs.tif
102
RTVSPost2010PropOp54
 70
     1
102
RTVSPost2010Prop55
280
     0
102
RTVSPost2010PropOp55
 70
     1
102
RTVSPost2010Prop56
140
1.0
102
RTVSPost2010PropOp56
 70
     1
102
RTVSPost2010Prop57
140
1.0
102
RTVSPost2010PropOp57
 70
     1
  0
XRECORD
  5
142
102
{ACAD_REACTORS
330
141
102
}
330
141
100
AcDbXrecord
280
     1
102
RTVSPost2010Prop28
280
     0
102
RTVSPost2010PropOp28
 70
     1
102
RTVSPost2010Prop29
280
     1
102
RTVSPost2010PropOp29
 70
     1
102
RTVSPost2010Prop30
280
     1
102
RTVSPost2010PropOp30
 70
     1
102
RTVSPost2010Prop31
280
     0
102
RTVSPost2010PropOp31
 70
     1
102
RTVSPost2010Prop32
280
     0
102
RTVSPost2010PropOp32
 70
     1
102
RTVSPost2010Prop33
280
     0
102
RTVSPost2010PropOp33
 70
     1
102
RTVSPost2010Prop34
280
     0
102
RTVSPost2010PropOp34
 70
     1
102
RTVSPost2010Prop35
280
     0
102
RTVSPost2010PropOp35
 70
     1
102
RTVSPost2010Prop36
280
     0
102
RTVSPost2010PropOp36
 70
     1
102
RTVSPost2010Prop37
 90
       50
102
RTVSPost2010PropOp37
 70
     1
102
RTVSPost2010Prop38
140
0.0
102
RTVSPost2010PropOp38
 70
     1
102
RTVSPost2010Prop39
140
1.0
102
RTVSPost2010PropOp39
 70
     1
102
RTVSPost2010Prop40
 90
        0
102
RTVSPost2010PropOp40
 70
     1
102
RTVSPost2010Prop41ColorIndex
 90
       18
102
RTVSPost2010Prop41ColorRGB
 90
        0
102
RTVSPost2010PropOp41
 70
     1
102
RTVSPost2010Prop42
 90
       50
102
RTVSPost2010PropOp42
 70
     1
102
RTVSPost2010Prop43
 90
        3
102
RTVSPost2010PropOp43
 70
     1
102
RTVSPost2010Prop44ColorIndex
 90
        5
102
RTVSPost2010Prop44ColorRGB
 90
      255
102
RTVSPost2010PropOp44
 70
     1
102
RTVSPost2010Prop45
280
     0
102
RTVSPost2010PropOp45
 70
     1
102
RTVSPost2010Prop46
 90
       50
102
RTVSPost2010PropOp46
 70
     1
102
RTVSPost2010Prop47
 90
       50
102
RTVSPost2010PropOp47
 70
     1
102
RTVSPost2010Prop48
 90
       50
102
RTVSPost2010PropOp48
 70
     1
102
RTVSPost2010Prop49
280
     0
102
RTVSPost2010PropOp49
 70
     1
102
RTVSPost2010Prop50
 90
       50
102
RTVSPost2010PropOp50
 70
     1
102
RTVSPost2010Prop51ColorIndex
 90
      256
102
RTVSPost2010Prop51ColorRGB
 90
-16777216
102
RTVSPost2010PropOp51
 70
     0
102
RTVSPost2010Prop52
140
1.0
102
RTVSPost2010PropOp52
 70
     0
102
RTVSPost2010Prop53
 90
        2
102
RTVSPost2010PropOp53
 70
     1
102
RTVSPost2010Prop54
  1
strokes_ogs.tif
102
RTVSPost2010PropOp54
 70
     1
102
RTVSPost2010Prop55
280
     0
102
RTVSPost2010PropOp55
 70
     1
102
RTVSPost2010Prop56
140
1.0
102
RTVSPost2010PropOp56
 70
     1
102
RTVSPost2010Prop57
140
1.0
102
RTVSPost2010PropOp57
 70
     1
  0
XRECORD
  5
144
102
{ACAD_REACTORS
330
143
102
}
330
143
100
AcDbXrecord
280
     1
102
RTVSPost2010Prop28
280
     0
102
RTVSPost2010PropOp28
 70
     1
102
RTVSPost2010Prop29
280
     1
102
RTVSPost2010PropOp29
 70
     1
102
RTVSPost2010Prop30
280
     1
102
RTVSPost2010PropOp30
 70
     1
102
RTVSPost2010Prop31
280
     0
102
RTVSPost2010PropOp31
 70
     1
102
RTVSPost2010Prop32
280
     0
102
RTVSPost2010PropOp32
 70
     1
102
RTVSPost2010Prop33
280
     0
102
RTVSPost2010PropOp33
 70
     1
102
RTVSPost2010Prop34
280
     0
102
RTVSPost2010PropOp34
 70
     1
102
RTVSPost2010Prop35
280
     0
102
RTVSPost2010PropOp35
 70
     1
102
RTVSPost2010Prop36
280
     0
102
RTVSPost2010PropOp36
 70
     1
102
RTVSPost2010Prop37
 90
       50
102
RTVSPost2010PropOp37
 70
     1
102
RTVSPost2010Prop38
140
0.0
102
RTVSPost2010PropOp38
 70
     1
102
RTVSPost2010Prop39
140
1.0
102
RTVSPost2010PropOp39
 70
     1
102
RTVSPost2010Prop40
 90
        0
102
RTVSPost2010PropOp40
 70
     1
102
RTVSPost2010Prop41ColorIndex
 90
       18
102
RTVSPost2010Prop41ColorRGB
 90
        0
102
RTVSPost2010PropOp41
 70
     1
102
RTVSPost2010Prop42
 90
       50
102
RTVSPost2010PropOp42
 70
     1
102
RTVSPost2010Prop43
 90
        3
102
RTVSPost2010PropOp43
 70
     1
102
RTVSPost2010Prop44ColorIndex
 90
        5
102
RTVSPost2010Prop44ColorRGB
 90
      255
102
RTVSPost2010PropOp44
 70
     1
102
RTVSPost2010Prop45
280
     0
102
RTVSPost2010PropOp45
 70
     1
102
RTVSPost2010Prop46
 90
       50
102
RTVSPost2010PropOp46
 70
     1
102
RTVSPost2010Prop47
 90
       50
102
RTVSPost2010PropOp47
 70
     1
102
RTVSPost2010Prop48
 90
       50
102
RTVSPost2010PropOp48
 70
     1
102
RTVSPost2010Prop49
280
     0
102
RTVSPost2010PropOp49
 70
     1
102
RTVSPost2010Prop50
 90
       50
102
RTVSPost2010PropOp50
 70
     1
102
RTVSPost2010Prop51ColorIndex
 90
      256
102
RTVSPost2010Prop51ColorRGB
 90
-16777216
102
RTVSPost2010PropOp51
 70
     0
102
RTVSPost2010Prop52
140
1.0
102
RTVSPost2010PropOp52
 70
     0
102
RTVSPost2010Prop53
 90
        2
102
RTVSPost2010PropOp53
 70
     1
102
RTVSPost2010Prop54
  1
strokes_ogs.tif
102
RTVSPost2010PropOp54
 70
     1
102
RTVSPost2010Prop55
280
     0
102
RTVSPost2010PropOp55
 70
     1
102
RTVSPost2010Prop56
140
1.0
102
RTVSPost2010PropOp56
 70
     1
102
RTVSPost2010Prop57
140
1.0
102
RTVSPost2010PropOp57
 70
     1
  0
XRECORD
  5
146
102
{ACAD_REACTORS
330
145
102
}
330
145
100
AcDbXrecord
280
     1
102
RTVSPost2010Prop28
280
     0
102
RTVSPost2010PropOp28
 70
     1
102
RTVSPost2010Prop29
280
     1
102
RTVSPost2010PropOp29
 70
     1
102
RTVSPost2010Prop30
280
     1
102
RTVSPost2010PropOp30
 70
     1
102
RTVSPost2010Prop31
280
     0
102
RTVSPost2010PropOp31
 70
     1
102
RTVSPost2010Prop32
280
     0
102
RTVSPost2010PropOp32
 70
     1
102
RTVSPost2010Prop33
280
     0
102
RTVSPost2010PropOp33
 70
     1
102
RTVSPost2010Prop34
280
     0
102
RTVSPost2010PropOp34
 70
     1
102
RTVSPost2010Prop35
280
     0
102
RTVSPost2010PropOp35
 70
     1
102
RTVSPost2010Prop36
280
     0
102
RTVSPost2010PropOp36
 70
     1
102
RTVSPost2010Prop37
 90
       50
102
RTVSPost2010PropOp37
 70
     1
102
RTVSPost2010Prop38
140
0.0
102
RTVSPost2010PropOp38
 70
     1
102
RTVSPost2010Prop39
140
1.0
102
RTVSPost2010PropOp39
 70
     1
102
RTVSPost2010Prop40
 90
        0
102
RTVSPost2010PropOp40
 70
     1
102
RTVSPost2010Prop41ColorIndex
 90
       18
102
RTVSPost2010Prop41ColorRGB
 90
        0
102
RTVSPost2010PropOp41
 70
     1
102
RTVSPost2010Prop42
 90
       50
102
RTVSPost2010PropOp42
 70
     1
102
RTVSPost2010Prop43
 90
        3
102
RTVSPost2010PropOp43
 70
     1
102
RTVSPost2010Prop44ColorIndex
 90
        5
102
RTVSPost2010Prop44ColorRGB
 90
      255
102
RTVSPost2010PropOp44
 70
     1
102
RTVSPost2010Prop45
280
     0
102
RTVSPost2010PropOp45
 70
     1
102
RTVSPost2010Prop46
 90
       50
102
RTVSPost2010PropOp46
 70
     1
102
RTVSPost2010Prop47
 90
       50
102
RTVSPost2010PropOp47
 70
     1
102
RTVSPost2010Prop48
 90
       50
102
RTVSPost2010PropOp48
 70
     1
102
RTVSPost2010Prop49
280
     0
102
RTVSPost2010PropOp49
 70
     1
102
RTVSPost2010Prop50
 90
       50
102
RTVSPost2010PropOp50
 70
     1
102
RTVSPost2010Prop51ColorIndex
 90
      256
102
RTVSPost2010Prop51ColorRGB
 90
-16777216
102
RTVSPost2010PropOp51
 70
     0
102
RTVSPost2010Prop52
140
1.0
102
RTVSPost2010PropOp52
 70
     0
102
RTVSPost2010Prop53
 90
        2
102
RTVSPost2010PropOp53
 70
     1
102
RTVSPost2010Prop54
  1
strokes_ogs.tif
102
RTVSPost2010PropOp54
 70
     1
102
RTVSPost2010Prop55
280
     0
102
RTVSPost2010PropOp55
 70
     1
102
RTVSPost2010Prop56
140
1.0
102
RTVSPost2010PropOp56
 70
     1
102
RTVSPost2010Prop57
140
1.0
102
RTVSPost2010PropOp57
 70
     1
  0
XRECORD
  5
14C
102
{ACAD_REACTORS
330
14B
102
}
330
14B
100
AcDbXrecord
280
     1
102
RTVSPost2010Prop28
280
     0
102
RTVSPost2010PropOp28
 70
     1
102
RTVSPost2010Prop29
280
     1
102
RTVSPost2010PropOp29
 70
     1
102
RTVSPost2010Prop30
280
     1
102
RTVSPost2010PropOp30
 70
     1
102
RTVSPost2010Prop31
280
     0
102
RTVSPost2010PropOp31
 70
     1
102
RTVSPost2010Prop32
280
     0
102
RTVSPost2010PropOp32
 70
     1
102
RTVSPost2010Prop33
280
     0
102
RTVSPost2010PropOp33
 70
     1
102
RTVSPost2010Prop34
280
     0
102
RTVSPost2010PropOp34
 70
     1
102
RTVSPost2010Prop35
280
     0
102
RTVSPost2010PropOp35
 70
     1
102
RTVSPost2010Prop36
280
     0
102
RTVSPost2010PropOp36
 70
     1
102
RTVSPost2010Prop37
 90
       50
102
RTVSPost2010PropOp37
 70
     1
102
RTVSPost2010Prop38
140
0.0
102
RTVSPost2010PropOp38
 70
     1
102
RTVSPost2010Prop39
140
1.0
102
RTVSPost2010PropOp39
 70
     1
102
RTVSPost2010Prop40
 90
        0
102
RTVSPost2010PropOp40
 70
     1
102
RTVSPost2010Prop41ColorIndex
 90
       18
102
RTVSPost2010Prop41ColorRGB
 90
        0
102
RTVSPost2010PropOp41
 70
     1
102
RTVSPost2010Prop42
 90
       50
102
RTVSPost2010PropOp42
 70
     1
102
RTVSPost2010Prop43
 90
        3
102
RTVSPost2010PropOp43
 70
     1
102
RTVSPost2010Prop44ColorIndex
 90
        5
102
RTVSPost2010Prop44ColorRGB
 90
      255
102
RTVSPost2010PropOp44
 70
     1
102
RTVSPost2010Prop45
280
     0
102
RTVSPost2010PropOp45
 70
     1
102
RTVSPost2010Prop46
 90
       50
102
RTVSPost2010PropOp46
 70
     1
102
RTVSPost2010Prop47
 90
       50
102
RTVSPost2010PropOp47
 70
     1
102
RTVSPost2010Prop48
 90
       50
102
RTVSPost2010PropOp48
 70
     1
102
RTVSPost2010Prop49
280
     0
102
RTVSPost2010PropOp49
 70
     1
102
RTVSPost2010Prop50
 90
       50
102
RTVSPost2010PropOp50
 70
     1
102
RTVSPost2010Prop51ColorIndex
 90
      256
102
RTVSPost2010Prop51ColorRGB
 90
-16777216
102
RTVSPost2010PropOp51
 70
     0
102
RTVSPost2010Prop52
140
1.0
102
RTVSPost2010PropOp52
 70
     0
102
RTVSPost2010Prop53
 90
        2
102
RTVSPost2010PropOp53
 70
     1
102
RTVSPost2010Prop54
  1
strokes_ogs.tif
102
RTVSPost2010PropOp54
 70
     1
102
RTVSPost2010Prop55
280
     0
102
RTVSPost2010PropOp55
 70
     1
102
RTVSPost2010Prop56
140
1.0
102
RTVSPost2010PropOp56
 70
     1
102
RTVSPost2010Prop57
140
1.0
102
RTVSPost2010PropOp57
 70
     1
  0
XRECORD
  5
160
102
{ACAD_REACTORS
330
15F
102
}
330
15F
100
AcDbXrecord
280
     1
102
RTVSPost2010Prop28
280
     0
102
RTVSPost2010PropOp28
 70
     0
102
RTVSPost2010Prop29
280
     1
102
RTVSPost2010PropOp29
 70
     0
102
RTVSPost2010Prop30
280
     1
102
RTVSPost2010PropOp30
 70
     0
102
RTVSPost2010Prop31
280
     0
102
RTVSPost2010PropOp31
 70
     0
102
RTVSPost2010Prop32
280
     0
102
RTVSPost2010PropOp32
 70
     0
102
RTVSPost2010Prop33
280
     0
102
RTVSPost2010PropOp33
 70
     0
102
RTVSPost2010Prop34
280
     0
102
RTVSPost2010PropOp34
 70
     0
102
RTVSPost2010Prop35
280
     0
102
RTVSPost2010PropOp35
 70
     0
102
RTVSPost2010Prop36
280
     0
102
RTVSPost2010PropOp36
 70
     0
102
RTVSPost2010Prop37
 90
       50
102
RTVSPost2010PropOp37
 70
     0
102
RTVSPost2010Prop38
140
0.0
102
RTVSPost2010PropOp38
 70
     0
102
RTVSPost2010Prop39
140
1.0
102
RTVSPost2010PropOp39
 70
     0
102
RTVSPost2010Prop40
 90
        0
102
RTVSPost2010PropOp40
 70
     0
102
RTVSPost2010Prop41ColorIndex
 90
       18
102
RTVSPost2010Prop41ColorRGB
 90
        0
102
RTVSPost2010PropOp41
 70
     0
102
RTVSPost2010Prop42
 90
       50
102
RTVSPost2010PropOp42
 70
     0
102
RTVSPost2010Prop43
 90
        3
102
RTVSPost2010PropOp43
 70
     0
102
RTVSPost2010Prop44ColorIndex
 90
        5
102
RTVSPost2010Prop44ColorRGB
 90
      255
102
RTVSPost2010PropOp44
 70
     0
102
RTVSPost2010Prop45
280
     0
102
RTVSPost2010PropOp45
 70
     0
102
RTVSPost2010Prop46
 90
       50
102
RTVSPost2010PropOp46
 70
     0
102
RTVSPost2010Prop47
 90
       50
102
RTVSPost2010PropOp47
 70
     0
102
RTVSPost2010Prop48
 90
       50
102
RTVSPost2010PropOp48
 70
     0
102
RTVSPost2010Prop49
280
     0
102
RTVSPost2010PropOp49
 70
     0
102
RTVSPost2010Prop50
 90
       50
102
RTVSPost2010PropOp50
 70
     0
102
RTVSPost2010Prop51ColorIndex
 90
      256
102
RTVSPost2010Prop51ColorRGB
 90
-16777216
102
RTVSPost2010PropOp51
 70
     0
102
RTVSPost2010Prop52
140
1.0
102
RTVSPost2010PropOp52
 70
     0
102
RTVSPost2010Prop53
 90
        2
102
RTVSPost2010PropOp53
 70
     0
102
RTVSPost2010Prop54
  1
strokes_ogs.tif
102
RTVSPost2010PropOp54
 70
     0
102
RTVSPost2010Prop55
280
     0
102
RTVSPost2010PropOp55
 70
     0
102
RTVSPost2010Prop56
140
1.0
102
RTVSPost2010PropOp56
 70
     0
102
RTVSPost2010Prop57
140
1.0
102
RTVSPost2010PropOp57
 70
     0
  0
XRECORD
  5
15A
102
{ACAD_REACTORS
330
159
102
}
330
159
100
AcDbXrecord
280
     1
102
RTVSPost2010Prop28
280
     0
102
RTVSPost2010PropOp28
 70
     1
102
RTVSPost2010Prop29
280
     1
102
RTVSPost2010PropOp29
 70
     1
102
RTVSPost2010Prop30
280
     1
102
RTVSPost2010PropOp30
 70
     1
102
RTVSPost2010Prop31
280
     0
102
RTVSPost2010PropOp31
 70
     1
102
RTVSPost2010Prop32
280
     0
102
RTVSPost2010PropOp32
 70
     1
102
RTVSPost2010Prop33
280
     0
102
RTVSPost2010PropOp33
 70
     1
102
RTVSPost2010Prop34
280
     0
102
RTVSPost2010PropOp34
 70
     1
102
RTVSPost2010Prop35
280
     0
102
RTVSPost2010PropOp35
 70
     1
102
RTVSPost2010Prop36
280
     0
102
RTVSPost2010PropOp36
 70
     1
102
RTVSPost2010Prop37
 90
       50
102
RTVSPost2010PropOp37
 70
     1
102
RTVSPost2010Prop38
140
0.0
102
RTVSPost2010PropOp38
 70
     1
102
RTVSPost2010Prop39
140
1.0
102
RTVSPost2010PropOp39
 70
     1
102
RTVSPost2010Prop40
 90
        0
102
RTVSPost2010PropOp40
 70
     1
102
RTVSPost2010Prop41ColorIndex
 90
       18
102
RTVSPost2010Prop41ColorRGB
 90
        0
102
RTVSPost2010PropOp41
 70
     1
102
RTVSPost2010Prop42
 90
       50
102
RTVSPost2010PropOp42
 70
     1
102
RTVSPost2010Prop43
 90
        3
102
RTVSPost2010PropOp43
 70
     1
102
RTVSPost2010Prop44ColorIndex
 90
        5
102
RTVSPost2010Prop44ColorRGB
 90
      255
102
RTVSPost2010PropOp44
 70
     1
102
RTVSPost2010Prop45
280
     0
102
RTVSPost2010PropOp45
 70
     1
102
RTVSPost2010Prop46
 90
       50
102
RTVSPost2010PropOp46
 70
     1
102
RTVSPost2010Prop47
 90
       50
102
RTVSPost2010PropOp47
 70
     1
102
RTVSPost2010Prop48
 90
       50
102
RTVSPost2010PropOp48
 70
     1
102
RTVSPost2010Prop49
280
     0
102
RTVSPost2010PropOp49
 70
     1
102
RTVSPost2010Prop50
 90
       50
102
RTVSPost2010PropOp50
 70
     1
102
RTVSPost2010Prop51ColorIndex
 90
      256
102
RTVSPost2010Prop51ColorRGB
 90
-16777216
102
RTVSPost2010PropOp51
 70
     0
102
RTVSPost2010Prop52
140
1.0
102
RTVSPost2010PropOp52
 70
     0
102
RTVSPost2010Prop53
 90
        2
102
RTVSPost2010PropOp53
 70
     1
102
RTVSPost2010Prop54
  1
strokes_ogs.tif
102
RTVSPost2010PropOp54
 70
     1
102
RTVSPost2010Prop55
280
     0
102
RTVSPost2010PropOp55
 70
     1
102
RTVSPost2010Prop56
140
1.0
102
RTVSPost2010PropOp56
 70
     1
102
RTVSPost2010Prop57
140
1.0
102
RTVSPost2010PropOp57
 70
     1
  0
XRECORD
  5
162
102
{ACAD_REACTORS
330
161
102
}
330
161
100
AcDbXrecord
280
     1
102
RTVSPost2010Prop28
280
     0
102
RTVSPost2010PropOp28
 70
     0
102
RTVSPost2010Prop29
280
     1
102
RTVSPost2010PropOp29
 70
     0
102
RTVSPost2010Prop30
280
     1
102
RTVSPost2010PropOp30
 70
     0
102
RTVSPost2010Prop31
280
     0
102
RTVSPost2010PropOp31
 70
     0
102
RTVSPost2010Prop32
280
     0
102
RTVSPost2010PropOp32
 70
     0
102
RTVSPost2010Prop33
280
     0
102
RTVSPost2010PropOp33
 70
     0
102
RTVSPost2010Prop34
280
     0
102
RTVSPost2010PropOp34
 70
     0
102
RTVSPost2010Prop35
280
     0
102
RTVSPost2010PropOp35
 70
     0
102
RTVSPost2010Prop36
280
     0
102
RTVSPost2010PropOp36
 70
     0
102
RTVSPost2010Prop37
 90
       50
102
RTVSPost2010PropOp37
 70
     0
102
RTVSPost2010Prop38
140
0.0
102
RTVSPost2010PropOp38
 70
     0
102
RTVSPost2010Prop39
140
1.0
102
RTVSPost2010PropOp39
 70
     0
102
RTVSPost2010Prop40
 90
        0
102
RTVSPost2010PropOp40
 70
     0
102
RTVSPost2010Prop41ColorIndex
 90
       18
102
RTVSPost2010Prop41ColorRGB
 90
        0
102
RTVSPost2010PropOp41
 70
     0
102
RTVSPost2010Prop42
 90
       50
102
RTVSPost2010PropOp42
 70
     0
102
RTVSPost2010Prop43
 90
        3
102
RTVSPost2010PropOp43
 70
     0
102
RTVSPost2010Prop44ColorIndex
 90
        5
102
RTVSPost2010Prop44ColorRGB
 90
      255
102
RTVSPost2010PropOp44
 70
     0
102
RTVSPost2010Prop45
280
     0
102
RTVSPost2010PropOp45
 70
     0
102
RTVSPost2010Prop46
 90
       50
102
RTVSPost2010PropOp46
 70
     0
102
RTVSPost2010Prop47
 90
       50
102
RTVSPost2010PropOp47
 70
     0
102
RTVSPost2010Prop48
 90
       50
102
RTVSPost2010PropOp48
 70
     0
102
RTVSPost2010Prop49
280
     0
102
RTVSPost2010PropOp49
 70
     0
102
RTVSPost2010Prop50
 90
       50
102
RTVSPost2010PropOp50
 70
     0
102
RTVSPost2010Prop51ColorIndex
 90
      256
102
RTVSPost2010Prop51ColorRGB
 90
-16777216
102
RTVSPost2010PropOp51
 70
     0
102
RTVSPost2010Prop52
140
1.0
102
RTVSPost2010PropOp52
 70
     0
102
RTVSPost2010Prop53
 90
        2
102
RTVSPost2010PropOp53
 70
     0
102
RTVSPost2010Prop54
  1
strokes_ogs.tif
102
RTVSPost2010PropOp54
 70
     0
102
RTVSPost2010Prop55
280
     0
102
RTVSPost2010PropOp55
 70
     0
102
RTVSPost2010Prop56
140
1.0
102
RTVSPost2010PropOp56
 70
     0
102
RTVSPost2010Prop57
140
1.0
102
RTVSPost2010PropOp57
 70
     0
  0
XRECORD
  5
150
102
{ACAD_REACTORS
330
14F
102
}
330
14F
100
AcDbXrecord
280
     1
102
RTVSPost2010Prop28
280
     0
102
RTVSPost2010PropOp28
 70
     1
102
RTVSPost2010Prop29
280
     1
102
RTVSPost2010PropOp29
 70
     1
102
RTVSPost2010Prop30
280
     1
102
RTVSPost2010PropOp30
 70
     1
102
RTVSPost2010Prop31
280
     0
102
RTVSPost2010PropOp31
 70
     1
102
RTVSPost2010Prop32
280
     0
102
RTVSPost2010PropOp32
 70
     1
102
RTVSPost2010Prop33
280
     0
102
RTVSPost2010PropOp33
 70
     1
102
RTVSPost2010Prop34
280
     0
102
RTVSPost2010PropOp34
 70
     1
102
RTVSPost2010Prop35
280
     0
102
RTVSPost2010PropOp35
 70
     1
102
RTVSPost2010Prop36
280
     0
102
RTVSPost2010PropOp36
 70
     1
102
RTVSPost2010Prop37
 90
       50
102
RTVSPost2010PropOp37
 70
     1
102
RTVSPost2010Prop38
140
0.0
102
RTVSPost2010PropOp38
 70
     1
102
RTVSPost2010Prop39
140
1.0
102
RTVSPost2010PropOp39
 70
     1
102
RTVSPost2010Prop40
 90
        0
102
RTVSPost2010PropOp40
 70
     1
102
RTVSPost2010Prop41ColorIndex
 90
       18
102
RTVSPost2010Prop41ColorRGB
 90
        0
102
RTVSPost2010PropOp41
 70
     1
102
RTVSPost2010Prop42
 90
       50
102
RTVSPost2010PropOp42
 70
     1
102
RTVSPost2010Prop43
 90
        3
102
RTVSPost2010PropOp43
 70
     1
102
RTVSPost2010Prop44ColorIndex
 90
        5
102
RTVSPost2010Prop44ColorRGB
 90
      255
102
RTVSPost2010PropOp44
 70
     1
102
RTVSPost2010Prop45
280
     0
102
RTVSPost2010PropOp45
 70
     1
102
RTVSPost2010Prop46
 90
       50
102
RTVSPost2010PropOp46
 70
     1
102
RTVSPost2010Prop47
 90
       50
102
RTVSPost2010PropOp47
 70
     1
102
RTVSPost2010Prop48
 90
       50
102
RTVSPost2010PropOp48
 70
     1
102
RTVSPost2010Prop49
280
     0
102
RTVSPost2010PropOp49
 70
     1
102
RTVSPost2010Prop50
 90
       50
102
RTVSPost2010PropOp50
 70
     1
102
RTVSPost2010Prop51ColorIndex
 90
      256
102
RTVSPost2010Prop51ColorRGB
 90
-16777216
102
RTVSPost2010PropOp51
 70
     0
102
RTVSPost2010Prop52
140
1.0
102
RTVSPost2010PropOp52
 70
     0
102
RTVSPost2010Prop53
 90
        2
102
RTVSPost2010PropOp53
 70
     1
102
RTVSPost2010Prop54
  1
strokes_ogs.tif
102
RTVSPost2010PropOp54
 70
     1
102
RTVSPost2010Prop55
280
     0
102
RTVSPost2010PropOp55
 70
     1
102
RTVSPost2010Prop56
140
1.0
102
RTVSPost2010PropOp56
 70
     1
102
RTVSPost2010Prop57
140
1.0
102
RTVSPost2010PropOp57
 70
     1
  0
XRECORD
  5
16E
102
{ACAD_REACTORS
330
16D
102
}
330
16D
100
AcDbXrecord
280
     1
102
RTVSPost2010Prop28
280
     0
102
RTVSPost2010PropOp28
 70
     1
102
RTVSPost2010Prop29
280
     1
102
RTVSPost2010PropOp29
 70
     1
102
RTVSPost2010Prop30
280
     1
102
RTVSPost2010PropOp30
 70
     1
102
RTVSPost2010Prop31
280
     0
102
RTVSPost2010PropOp31
 70
     1
102
RTVSPost2010Prop32
280
     0
102
RTVSPost2010PropOp32
 70
     1
102
RTVSPost2010Prop33
280
     0
102
RTVSPost2010PropOp33
 70
     1
102
RTVSPost2010Prop34
280
     0
102
RTVSPost2010PropOp34
 70
     1
102
RTVSPost2010Prop35
280
     0
102
RTVSPost2010PropOp35
 70
     1
102
RTVSPost2010Prop36
280
     0
102
RTVSPost2010PropOp36
 70
     1
102
RTVSPost2010Prop37
 90
       50
102
RTVSPost2010PropOp37
 70
     1
102
RTVSPost2010Prop38
140
0.0
102
RTVSPost2010PropOp38
 70
     1
102
RTVSPost2010Prop39
140
1.0
102
RTVSPost2010PropOp39
 70
     1
102
RTVSPost2010Prop40
 90
        0
102
RTVSPost2010PropOp40
 70
     1
102
RTVSPost2010Prop41ColorIndex
 90
       18
102
RTVSPost2010Prop41ColorRGB
 90
        0
102
RTVSPost2010PropOp41
 70
     1
102
RTVSPost2010Prop42
 90
       50
102
RTVSPost2010PropOp42
 70
     1
102
RTVSPost2010Prop43
 90
        3
102
RTVSPost2010PropOp43
 70
     1
102
RTVSPost2010Prop44ColorIndex
 90
        5
102
RTVSPost2010Prop44ColorRGB
 90
      255
102
RTVSPost2010PropOp44
 70
     1
102
RTVSPost2010Prop45
280
     0
102
RTVSPost2010PropOp45
 70
     1
102
RTVSPost2010Prop46
 90
       50
102
RTVSPost2010PropOp46
 70
     1
102
RTVSPost2010Prop47
 90
       50
102
RTVSPost2010PropOp47
 70
     1
102
RTVSPost2010Prop48
 90
       50
102
RTVSPost2010PropOp48
 70
     1
102
RTVSPost2010Prop49
280
     0
102
RTVSPost2010PropOp49
 70
     1
102
RTVSPost2010Prop50
 90
       50
102
RTVSPost2010PropOp50
 70
     1
102
RTVSPost2010Prop51ColorIndex
 90
      256
102
RTVSPost2010Prop51ColorRGB
 90
-16777216
102
RTVSPost2010PropOp51
 70
     0
102
RTVSPost2010Prop52
140
1.0
102
RTVSPost2010PropOp52
 70
     0
102
RTVSPost2010Prop53
 90
        2
102
RTVSPost2010PropOp53
 70
     1
102
RTVSPost2010Prop54
  1
strokes_ogs.tif
102
RTVSPost2010PropOp54
 70
     1
102
RTVSPost2010Prop55
280
     0
102
RTVSPost2010PropOp55
 70
     1
102
RTVSPost2010Prop56
140
1.0
102
RTVSPost2010PropOp56
 70
     1
102
RTVSPost2010Prop57
140
1.0
102
RTVSPost2010PropOp57
 70
     1
  0
XRECORD
  5
16C
102
{ACAD_REACTORS
330
16B
102
}
330
16B
100
AcDbXrecord
280
     1
102
RTVSPost2010Prop28
280
     0
102
RTVSPost2010PropOp28
 70
     1
102
RTVSPost2010Prop29
280
     1
102
RTVSPost2010PropOp29
 70
     1
102
RTVSPost2010Prop30
280
     1
102
RTVSPost2010PropOp30
 70
     1
102
RTVSPost2010Prop31
280
     0
102
RTVSPost2010PropOp31
 70
     1
102
RTVSPost2010Prop32
280
     0
102
RTVSPost2010PropOp32
 70
     1
102
RTVSPost2010Prop33
280
     0
102
RTVSPost2010PropOp33
 70
     1
102
RTVSPost2010Prop34
280
     0
102
RTVSPost2010PropOp34
 70
     1
102
RTVSPost2010Prop35
280
     0
102
RTVSPost2010PropOp35
 70
     1
102
RTVSPost2010Prop36
280
     0
102
RTVSPost2010PropOp36
 70
     1
102
RTVSPost2010Prop37
 90
       50
102
RTVSPost2010PropOp37
 70
     1
102
RTVSPost2010Prop38
140
0.0
102
RTVSPost2010PropOp38
 70
     1
102
RTVSPost2010Prop39
140
1.0
102
RTVSPost2010PropOp39
 70
     1
102
RTVSPost2010Prop40
 90
        0
102
RTVSPost2010PropOp40
 70
     1
102
RTVSPost2010Prop41ColorIndex
 90
       18
102
RTVSPost2010Prop41ColorRGB
 90
        0
102
RTVSPost2010PropOp41
 70
     1
102
RTVSPost2010Prop42
 90
       50
102
RTVSPost2010PropOp42
 70
     1
102
RTVSPost2010Prop43
 90
        3
102
RTVSPost2010PropOp43
 70
     1
102
RTVSPost2010Prop44ColorIndex
 90
        5
102
RTVSPost2010Prop44ColorRGB
 90
      255
102
RTVSPost2010PropOp44
 70
     1
102
RTVSPost2010Prop45
280
     0
102
RTVSPost2010PropOp45
 70
     1
102
RTVSPost2010Prop46
 90
       50
102
RTVSPost2010PropOp46
 70
     1
102
RTVSPost2010Prop47
 90
       50
102
RTVSPost2010PropOp47
 70
     1
102
RTVSPost2010Prop48
 90
       50
102
RTVSPost2010PropOp48
 70
     1
102
RTVSPost2010Prop49
280
     0
102
RTVSPost2010PropOp49
 70
     1
102
RTVSPost2010Prop50
 90
       50
102
RTVSPost2010PropOp50
 70
     1
102
RTVSPost2010Prop51ColorIndex
 90
      256
102
RTVSPost2010Prop51ColorRGB
 90
-16777216
102
RTVSPost2010PropOp51
 70
     0
102
RTVSPost2010Prop52
140
1.0
102
RTVSPost2010PropOp52
 70
     0
102
RTVSPost2010Prop53
 90
        2
102
RTVSPost2010PropOp53
 70
     1
102
RTVSPost2010Prop54
  1
strokes_ogs.tif
102
RTVSPost2010PropOp54
 70
     1
102
RTVSPost2010Prop55
280
     0
102
RTVSPost2010PropOp55
 70
     1
102
RTVSPost2010Prop56
140
1.0
102
RTVSPost2010PropOp56
 70
     1
102
RTVSPost2010Prop57
140
1.0
102
RTVSPost2010PropOp57
 70
     1
  0
XRECORD
  5
166
102
{ACAD_REACTORS
330
165
102
}
330
165
100
AcDbXrecord
280
     1
102
RTVSPost2010Prop28
280
     0
102
RTVSPost2010PropOp28
 70
     1
102
RTVSPost2010Prop29
280
     1
102
RTVSPost2010PropOp29
 70
     1
102
RTVSPost2010Prop30
280
     1
102
RTVSPost2010PropOp30
 70
     1
102
RTVSPost2010Prop31
280
     0
102
RTVSPost2010PropOp31
 70
     1
102
RTVSPost2010Prop32
280
     0
102
RTVSPost2010PropOp32
 70
     1
102
RTVSPost2010Prop33
280
     0
102
RTVSPost2010PropOp33
 70
     1
102
RTVSPost2010Prop34
280
     0
102
RTVSPost2010PropOp34
 70
     1
102
RTVSPost2010Prop35
280
     0
102
RTVSPost2010PropOp35
 70
     1
102
RTVSPost2010Prop36
280
     0
102
RTVSPost2010PropOp36
 70
     1
102
RTVSPost2010Prop37
 90
       50
102
RTVSPost2010PropOp37
 70
     1
102
RTVSPost2010Prop38
140
0.0
102
RTVSPost2010PropOp38
 70
     1
102
RTVSPost2010Prop39
140
1.0
102
RTVSPost2010PropOp39
 70
     1
102
RTVSPost2010Prop40
 90
        0
102
RTVSPost2010PropOp40
 70
     1
102
RTVSPost2010Prop41ColorIndex
 90
       18
102
RTVSPost2010Prop41ColorRGB
 90
        0
102
RTVSPost2010PropOp41
 70
     1
102
RTVSPost2010Prop42
 90
       50
102
RTVSPost2010PropOp42
 70
     1
102
RTVSPost2010Prop43
 90
        3
102
RTVSPost2010PropOp43
 70
     1
102
RTVSPost2010Prop44ColorIndex
 90
        5
102
RTVSPost2010Prop44ColorRGB
 90
      255
102
RTVSPost2010PropOp44
 70
     1
102
RTVSPost2010Prop45
280
     0
102
RTVSPost2010PropOp45
 70
     1
102
RTVSPost2010Prop46
 90
       50
102
RTVSPost2010PropOp46
 70
     1
102
RTVSPost2010Prop47
 90
       50
102
RTVSPost2010PropOp47
 70
     1
102
RTVSPost2010Prop48
 90
       50
102
RTVSPost2010PropOp48
 70
     1
102
RTVSPost2010Prop49
280
     0
102
RTVSPost2010PropOp49
 70
     1
102
RTVSPost2010Prop50
 90
       50
102
RTVSPost2010PropOp50
 70
     1
102
RTVSPost2010Prop51ColorIndex
 90
      256
102
RTVSPost2010Prop51ColorRGB
 90
-16777216
102
RTVSPost2010PropOp51
 70
     0
102
RTVSPost2010Prop52
140
1.0
102
RTVSPost2010PropOp52
 70
     0
102
RTVSPost2010Prop53
 90
        2
102
RTVSPost2010PropOp53
 70
     1
102
RTVSPost2010Prop54
  1
strokes_ogs.tif
102
RTVSPost2010PropOp54
 70
     1
102
RTVSPost2010Prop55
280
     0
102
RTVSPost2010PropOp55
 70
     1
102
RTVSPost2010Prop56
140
1.0
102
RTVSPost2010PropOp56
 70
     1
102
RTVSPost2010Prop57
140
1.0
102
RTVSPost2010PropOp57
 70
     1
  0
XRECORD
  5
168
102
{ACAD_REACTORS
330
167
102
}
330
167
100
AcDbXrecord
280
     1
102
RTVSPost2010Prop28
280
     0
102
RTVSPost2010PropOp28
 70
     1
102
RTVSPost2010Prop29
280
     1
102
RTVSPost2010PropOp29
 70
     1
102
RTVSPost2010Prop30
280
     1
102
RTVSPost2010PropOp30
 70
     1
102
RTVSPost2010Prop31
280
     0
102
RTVSPost2010PropOp31
 70
     1
102
RTVSPost2010Prop32
280
     0
102
RTVSPost2010PropOp32
 70
     1
102
RTVSPost2010Prop33
280
     0
102
RTVSPost2010PropOp33
 70
     1
102
RTVSPost2010Prop34
280
     0
102
RTVSPost2010PropOp34
 70
     1
102
RTVSPost2010Prop35
280
     0
102
RTVSPost2010PropOp35
 70
     1
102
RTVSPost2010Prop36
280
     0
102
RTVSPost2010PropOp36
 70
     1
102
RTVSPost2010Prop37
 90
       50
102
RTVSPost2010PropOp37
 70
     1
102
RTVSPost2010Prop38
140
0.0
102
RTVSPost2010PropOp38
 70
     1
102
RTVSPost2010Prop39
140
1.0
102
RTVSPost2010PropOp39
 70
     1
102
RTVSPost2010Prop40
 90
        0
102
RTVSPost2010PropOp40
 70
     1
102
RTVSPost2010Prop41ColorIndex
 90
       18
102
RTVSPost2010Prop41ColorRGB
 90
        0
102
RTVSPost2010PropOp41
 70
     1
102
RTVSPost2010Prop42
 90
       50
102
RTVSPost2010PropOp42
 70
     1
102
RTVSPost2010Prop43
 90
        3
102
RTVSPost2010PropOp43
 70
     1
102
RTVSPost2010Prop44ColorIndex
 90
        5
102
RTVSPost2010Prop44ColorRGB
 90
      255
102
RTVSPost2010PropOp44
 70
     1
102
RTVSPost2010Prop45
280
     0
102
RTVSPost2010PropOp45
 70
     1
102
RTVSPost2010Prop46
 90
       50
102
RTVSPost2010PropOp46
 70
     1
102
RTVSPost2010Prop47
 90
       50
102
RTVSPost2010PropOp47
 70
     1
102
RTVSPost2010Prop48
 90
       50
102
RTVSPost2010PropOp48
 70
     1
102
RTVSPost2010Prop49
280
     0
102
RTVSPost2010PropOp49
 70
     1
102
RTVSPost2010Prop50
 90
       50
102
RTVSPost2010PropOp50
 70
     1
102
RTVSPost2010Prop51ColorIndex
 90
      256
102
RTVSPost2010Prop51ColorRGB
 90
-16777216
102
RTVSPost2010PropOp51
 70
     0
102
RTVSPost2010Prop52
140
1.0
102
RTVSPost2010PropOp52
 70
     0
102
RTVSPost2010Prop53
 90
        2
102
RTVSPost2010PropOp53
 70
     1
102
RTVSPost2010Prop54
  1
strokes_ogs.tif
102
RTVSPost2010PropOp54
 70
     1
102
RTVSPost2010Prop55
280
     0
102
RTVSPost2010PropOp55
 70
     1
102
RTVSPost2010Prop56
140
1.0
102
RTVSPost2010PropOp56
 70
     1
102
RTVSPost2010Prop57
140
1.0
102
RTVSPost2010PropOp57
 70
     1
  0
XRECORD
  5
158
102
{ACAD_REACTORS
330
157
102
}
330
157
100
AcDbXrecord
280
     1
102
RTVSPost2010Prop28
280
     0
102
RTVSPost2010PropOp28
 70
     1
102
RTVSPost2010Prop29
280
     1
102
RTVSPost2010PropOp29
 70
     1
102
RTVSPost2010Prop30
280
     1
102
RTVSPost2010PropOp30
 70
     1
102
RTVSPost2010Prop31
280
     0
102
RTVSPost2010PropOp31
 70
     1
102
RTVSPost2010Prop32
280
     0
102
RTVSPost2010PropOp32
 70
     1
102
RTVSPost2010Prop33
280
     0
102
RTVSPost2010PropOp33
 70
     1
102
RTVSPost2010Prop34
280
     0
102
RTVSPost2010PropOp34
 70
     1
102
RTVSPost2010Prop35
280
     0
102
RTVSPost2010PropOp35
 70
     1
102
RTVSPost2010Prop36
280
     0
102
RTVSPost2010PropOp36
 70
     1
102
RTVSPost2010Prop37
 90
       50
102
RTVSPost2010PropOp37
 70
     1
102
RTVSPost2010Prop38
140
0.0
102
RTVSPost2010PropOp38
 70
     1
102
RTVSPost2010Prop39
140
1.0
102
RTVSPost2010PropOp39
 70
     1
102
RTVSPost2010Prop40
 90
        0
102
RTVSPost2010PropOp40
 70
     1
102
RTVSPost2010Prop41ColorIndex
 90
       18
102
RTVSPost2010Prop41ColorRGB
 90
        0
102
RTVSPost2010PropOp41
 70
     1
102
RTVSPost2010Prop42
 90
       50
102
RTVSPost2010PropOp42
 70
     1
102
RTVSPost2010Prop43
 90
        3
102
RTVSPost2010PropOp43
 70
     1
102
RTVSPost2010Prop44ColorIndex
 90
        5
102
RTVSPost2010Prop44ColorRGB
 90
      255
102
RTVSPost2010PropOp44
 70
     1
102
RTVSPost2010Prop45
280
     0
102
RTVSPost2010PropOp45
 70
     1
102
RTVSPost2010Prop46
 90
       50
102
RTVSPost2010PropOp46
 70
     1
102
RTVSPost2010Prop47
 90
       50
102
RTVSPost2010PropOp47
 70
     1
102
RTVSPost2010Prop48
 90
       50
102
RTVSPost2010PropOp48
 70
     1
102
RTVSPost2010Prop49
280
     0
102
RTVSPost2010PropOp49
 70
     1
102
RTVSPost2010Prop50
 90
       50
102
RTVSPost2010PropOp50
 70
     1
102
RTVSPost2010Prop51ColorIndex
 90
      256
102
RTVSPost2010Prop51ColorRGB
 90
-16777216
102
RTVSPost2010PropOp51
 70
     0
102
RTVSPost2010Prop52
140
1.0
102
RTVSPost2010PropOp52
 70
     0
102
RTVSPost2010Prop53
 90
        2
102
RTVSPost2010PropOp53
 70
     1
102
RTVSPost2010Prop54
  1
strokes_ogs.tif
102
RTVSPost2010PropOp54
 70
     1
102
RTVSPost2010Prop55
280
     0
102
RTVSPost2010PropOp55
 70
     1
102
RTVSPost2010Prop56
140
1.0
102
RTVSPost2010PropOp56
 70
     1
102
RTVSPost2010Prop57
140
1.0
102
RTVSPost2010PropOp57
 70
     1
  0
XRECORD
  5
14A
102
{ACAD_REACTORS
330
149
102
}
330
149
100
AcDbXrecord
280
     1
102
RTVSPost2010Prop28
280
     0
102
RTVSPost2010PropOp28
 70
     1
102
RTVSPost2010Prop29
280
     1
102
RTVSPost2010PropOp29
 70
     1
102
RTVSPost2010Prop30
280
     1
102
RTVSPost2010PropOp30
 70
     1
102
RTVSPost2010Prop31
280
     0
102
RTVSPost2010PropOp31
 70
     1
102
RTVSPost2010Prop32
280
     0
102
RTVSPost2010PropOp32
 70
     1
102
RTVSPost2010Prop33
280
     0
102
RTVSPost2010PropOp33
 70
     1
102
RTVSPost2010Prop34
280
     0
102
RTVSPost2010PropOp34
 70
     1
102
RTVSPost2010Prop35
280
     0
102
RTVSPost2010PropOp35
 70
     1
102
RTVSPost2010Prop36
280
     0
102
RTVSPost2010PropOp36
 70
     1
102
RTVSPost2010Prop37
 90
       50
102
RTVSPost2010PropOp37
 70
     1
102
RTVSPost2010Prop38
140
0.0
102
RTVSPost2010PropOp38
 70
     1
102
RTVSPost2010Prop39
140
1.0
102
RTVSPost2010PropOp39
 70
     1
102
RTVSPost2010Prop40
 90
        0
102
RTVSPost2010PropOp40
 70
     1
102
RTVSPost2010Prop41ColorIndex
 90
       18
102
RTVSPost2010Prop41ColorRGB
 90
        0
102
RTVSPost2010PropOp41
 70
     1
102
RTVSPost2010Prop42
 90
       50
102
RTVSPost2010PropOp42
 70
     1
102
RTVSPost2010Prop43
 90
        3
102
RTVSPost2010PropOp43
 70
     1
102
RTVSPost2010Prop44ColorIndex
 90
        5
102
RTVSPost2010Prop44ColorRGB
 90
      255
102
RTVSPost2010PropOp44
 70
     1
102
RTVSPost2010Prop45
280
     0
102
RTVSPost2010PropOp45
 70
     1
102
RTVSPost2010Prop46
 90
       50
102
RTVSPost2010PropOp46
 70
     1
102
RTVSPost2010Prop47
 90
       50
102
RTVSPost2010PropOp47
 70
     1
102
RTVSPost2010Prop48
 90
       50
102
RTVSPost2010PropOp48
 70
     1
102
RTVSPost2010Prop49
280
     0
102
RTVSPost2010PropOp49
 70
     1
102
RTVSPost2010Prop50
 90
       50
102
RTVSPost2010PropOp50
 70
     1
102
RTVSPost2010Prop51ColorIndex
 90
      256
102
RTVSPost2010Prop51ColorRGB
 90
-16777216
102
RTVSPost2010PropOp51
 70
     0
102
RTVSPost2010Prop52
140
1.0
102
RTVSPost2010PropOp52
 70
     0
102
RTVSPost2010Prop53
 90
        2
102
RTVSPost2010PropOp53
 70
     1
102
RTVSPost2010Prop54
  1
strokes_ogs.tif
102
RTVSPost2010PropOp54
 70
     1
102
RTVSPost2010Prop55
280
     0
102
RTVSPost2010PropOp55
 70
     1
102
RTVSPost2010Prop56
140
1.0
102
RTVSPost2010PropOp56
 70
     1
102
RTVSPost2010Prop57
140
1.0
102
RTVSPost2010PropOp57
 70
     1
  0
XRECORD
  5
16A
102
{ACAD_REACTORS
330
169
102
}
330
169
100
AcDbXrecord
280
     1
102
RTVSPost2010Prop28
280
     0
102
RTVSPost2010PropOp28
 70
     1
102
RTVSPost2010Prop29
280
     1
102
RTVSPost2010PropOp29
 70
     1
102
RTVSPost2010Prop30
280
     1
102
RTVSPost2010PropOp30
 70
     1
102
RTVSPost2010Prop31
280
     0
102
RTVSPost2010PropOp31
 70
     1
102
RTVSPost2010Prop32
280
     0
102
RTVSPost2010PropOp32
 70
     1
102
RTVSPost2010Prop33
280
     0
102
RTVSPost2010PropOp33
 70
     1
102
RTVSPost2010Prop34
280
     0
102
RTVSPost2010PropOp34
 70
     1
102
RTVSPost2010Prop35
280
     0
102
RTVSPost2010PropOp35
 70
     1
102
RTVSPost2010Prop36
280
     0
102
RTVSPost2010PropOp36
 70
     1
102
RTVSPost2010Prop37
 90
       50
102
RTVSPost2010PropOp37
 70
     1
102
RTVSPost2010Prop38
140
0.0
102
RTVSPost2010PropOp38
 70
     1
102
RTVSPost2010Prop39
140
1.0
102
RTVSPost2010PropOp39
 70
     1
102
RTVSPost2010Prop40
 90
        0
102
RTVSPost2010PropOp40
 70
     1
102
RTVSPost2010Prop41ColorIndex
 90
       18
102
RTVSPost2010Prop41ColorRGB
 90
        0
102
RTVSPost2010PropOp41
 70
     1
102
RTVSPost2010Prop42
 90
       50
102
RTVSPost2010PropOp42
 70
     1
102
RTVSPost2010Prop43
 90
        3
102
RTVSPost2010PropOp43
 70
     1
102
RTVSPost2010Prop44ColorIndex
 90
        5
102
RTVSPost2010Prop44ColorRGB
 90
      255
102
RTVSPost2010PropOp44
 70
     1
102
RTVSPost2010Prop45
280
     0
102
RTVSPost2010PropOp45
 70
     1
102
RTVSPost2010Prop46
 90
       50
102
RTVSPost2010PropOp46
 70
     1
102
RTVSPost2010Prop47
 90
       50
102
RTVSPost2010PropOp47
 70
     1
102
RTVSPost2010Prop48
 90
       50
102
RTVSPost2010PropOp48
 70
     1
102
RTVSPost2010Prop49
280
     0
102
RTVSPost2010PropOp49
 70
     1
102
RTVSPost2010Prop50
 90
       50
102
RTVSPost2010PropOp50
 70
     1
102
RTVSPost2010Prop51ColorIndex
 90
      256
102
RTVSPost2010Prop51ColorRGB
 90
-16777216
102
RTVSPost2010PropOp51
 70
     0
102
RTVSPost2010Prop52
140
1.0
102
RTVSPost2010PropOp52
 70
     0
102
RTVSPost2010Prop53
 90
        2
102
RTVSPost2010PropOp53
 70
     1
102
RTVSPost2010Prop54
  1
strokes_ogs.tif
102
RTVSPost2010PropOp54
 70
     1
102
RTVSPost2010Prop55
280
     0
102
RTVSPost2010PropOp55
 70
     1
102
RTVSPost2010Prop56
140
1.0
102
RTVSPost2010PropOp56
 70
     1
102
RTVSPost2010Prop57
140
1.0
102
RTVSPost2010PropOp57
 70
     1
  0
ENDSEC
  0
EOF