0
SECTION
  2
HEADER
  9
$ACADVER
  1
AC1024
  9
$ACADMAINTVER
 70
     6
  9
$DWGCODEPAGE
  3
ANSI_1252
  9
$LASTSAVEDBY
  1
BirnerR
  9
$INSBASE
 10
0.0
 20
0.0
 30
0.0
  9
$EXTMIN
 10
8.432596
 20
3.563845
 30
8.432596
  9
$EXTMAX
 10
9.482607
 20
5.04883
 30
9.482607
  9
$LIMMIN
 10
8.432596
 20
3.563845
  9
$LIMMAX
 10
9.482607
 20
5.04883
  9
$ORTHOMODE
 70
     0
  9
$REGENMODE
 70
     1
  9
$FILLMODE
 70
     1
  9
$QTEXTMODE
 70
     0
  9
$MIRRTEXT
 70
     1
  9
$LTSCALE
 40
1.0
  9
$ATTMODE
 70
     1
  9
$TEXTSIZE
 40
0.2
  9
$TRACEWID
 40
0.05
  9
$TEXTSTYLE
  7
Standard
  9
$CLAYER
  8
0
  9
$CELTYPE
  6
ByLayer
  9
$CECOLOR
 62
   256
  9
$CELTSCALE
 40
1.0
  9
$DISPSILH
 70
     0
  9
$DIMSCALE
 40
1.0
  9
$DIMASZ
 40
0.18
  9
$DIMEXO
 40
0.0625
  9
$DIMDLI
 40
0.38
  9
$DIMRND
 40
0.0
  9
$DIMDLE
 40
0.0
  9
$DIMEXE
 40
0.18
  9
$DIMTP
 40
0.0
  9
$DIMTM
 40
0.0
  9
$DIMTXT
 40
0.18
  9
$DIMCEN
 40
0.09
  9
$DIMTSZ
 40
0.0
  9
$DIMTOL
 70
     0
  9
$DIMLIM
 70
     0
  9
$DIMTIH
 70
     1
  9
$DIMTOH
 70
     1
  9
$DIMSE1
 70
     0
  9
$DIMSE2
 70
     0
  9
$DIMTAD
 70
     0
  9
$DIMZIN
 70
     0
  9
$DIMBLK
  1

  9
$DIMASO
 70
     1
  9
$DIMSHO
 70
     1
  9
$DIMPOST
  1

  9
$DIMAPOST
  1

  9
$DIMALT
 70
     0
  9
$DIMALTD
 70
     2
  9
$DIMALTF
 40
25.4
  9
$DIMLFAC
 40
1.0
  9
$DIMTOFL
 70
     0
  9
$DIMTVP
 40
0.0
  9
$DIMTIX
 70
     0
  9
$DIMSOXD
 70
     0
  9
$DIMSAH
 70
     0
  9
$DIMBLK1
  1

  9
$DIMBLK2
  1

  9
$DIMSTYLE
  2
Standard
  9
$DIMCLRD
 70
     0
  9
$DIMCLRE
 70
     0
  9
$DIMCLRT
 70
     0
  9
$DIMTFAC
 40
1.0
  9
$DIMGAP
 40
0.09
  9
$DIMJUST
 70
     0
  9
$DIMSD1
 70
     0
  9
$DIMSD2
 70
     0
  9
$DIMTOLJ
 70
     1
  9
$DIMTZIN
 70
     0
  9
$DIMALTZ
 70
     0
  9
$DIMALTTZ
 70
     0
  9
$DIMUPT
 70
     0
  9
$DIMDEC
 70
     4
  9
$DIMTDEC
 70
     4
  9
$DIMALTU
 70
     2
  9
$DIMALTTD
 70
     2
  9
$DIMTXSTY
  7
Standard
  9
$DIMAUNIT
 70
     0
  9
$DIMADEC
 70
     0
  9
$DIMALTRND
 40
0.0
  9
$DIMAZIN
 70
     0
  9
$DIMDSEP
 70
    46
  9
$DIMATFIT
 70
     3
  9
$DIMFRAC
 70
     0
  9
$DIMLDRBLK
  1

  9
$DIMLUNIT
 70
     2
  9
$DIMLWD
 70
    -2
  9
$DIMLWE
 70
    -2
  9
$DIMTMOVE
 70
     0
  9
$DIMFXL
 40
1.0
  9
$DIMFXLON
 70
     0
  9
$DIMJOGANG
 40
0.785398
  9
$DIMTFILL
 70
     0
  9
$DIMTFILLCLR
 70
     0
  9
$DIMARCSYM
 70
     0
  9
$DIMLTYPE
  6

  9
$DIMLTEX1
  6

  9
$DIMLTEX2
  6

  9
$DIMTXTDIRECTION
 70
     0
  9
$LUNITS
 70
     2
  9
$LUPREC
 70
     4
  9
$SKETCHINC
 40
0.1
  9
$FILLETRAD
 40
0.5
  9
$AUNITS
 70
     0
  9
$AUPREC
 70
     0
  9
$MENU
  1
.
  9
$ELEVATION
 40
0.0
  9
$PELEVATION
 40
0.0
  9
$THICKNESS
 40
0.0
  9
$LIMCHECK
 70
     0
  9
$CHAMFERA
 40
0.0
  9
$CHAMFERB
 40
0.0
  9
$CHAMFERC
 40
0.0
  9
$CHAMFERD
 40
0.0
  9
$SKPOLY
 70
     0
  9
$TDCREATE
 40
2459144.590081597
  9
$TDUCREATE
 40
2459144.506748264
  9
$TDUPDATE
 40
2459144.590092454
  9
$TDUUPDATE
 40
2459144.50675912
  9
$TDINDWG
 40
0.0000000116
  9
$TDUSRTIMER
 40
0.0000000116
  9
$USRTIMER
 70
     1
  9
$ANGBASE
 50
0.0
  9
$ANGDIR
 70
     0
  9
$PDMODE
 70
    65
  9
$PDSIZE
 40
0.0
  9
$PLINEWID
 40
0.0
  9
$SPLFRAME
 70
     0
  9
$SPLINETYPE
 70
     6
  9
$SPLINESEGS
 70
     8
  9
$HANDSEED
  5
13A
  9
$SURFTAB1
 70
     6
  9
$SURFTAB2
 70
     6
  9
$SURFTYPE
 70
     6
  9
$SURFU
 70
     6
  9
$SURFV
 70
     6
  9
$UCSBASE
  2

  9
$UCSNAME
  2

  9
$UCSORG
 10
0.0
 20
0.0
 30
0.0
  9
$UCSXDIR
 10
1.0
 20
0.0
 30
0.0
  9
$UCSYDIR
 10
0.0
 20
1.0
 30
0.0
  9
$UCSORTHOREF
  2

  9
$UCSORTHOVIEW
 70
     0
  9
$UCSORGTOP
 10
0.0
 20
0.0
 30
0.0
  9
$UCSORGBOTTOM
 10
0.0
 20
0.0
 30
0.0
  9
$UCSORGLEFT
 10
0.0
 20
0.0
 30
0.0
  9
$UCSORGRIGHT
 10
0.0
 20
0.0
 30
0.0
  9
$UCSORGFRONT
 10
0.0
 20
0.0
 30
0.0
  9
$UCSORGBACK
 10
0.0
 20
0.0
 30
0.0
  9
$PUCSBASE
  2

  9
$PUCSNAME
  2

  9
$PUCSORG
 10
0.0
 20
0.0
 30
0.0
  9
$PUCSXDIR
 10
1.0
 20
0.0
 30
0.0
  9
$PUCSYDIR
 10
0.0
 20
1.0
 30
0.0
  9
$PUCSORTHOREF
  2

  9
$PUCSORTHOVIEW
 70
     0
  9
$PUCSORGTOP
 10
0.0
 20
0.0
 30
0.0
  9
$PUCSORGBOTTOM
 10
0.0
 20
0.0
 30
0.0
  9
$PUCSORGLEFT
 10
0.0
 20
0.0
 30
0.0
  9
$PUCSORGRIGHT
 10
0.0
 20
0.0
 30
0.0
  9
$PUCSORGFRONT
 10
0.0
 20
0.0
 30
0.0
  9
$PUCSORGBACK
 10
0.0
 20
0.0
 30
0.0
  9
$USERI1
 70
     0
  9
$USERI2
 70
     0
  9
$USERI3
 70
     0
  9
$USERI4
 70
     0
  9
$USERI5
 70
     0
  9
$USERR1
 40
0.0
  9
$USERR2
 40
0.0
  9
$USERR3
 40
0.0
  9
$USERR4
 40
0.0
  9
$USERR5
 40
0.0
  9
$WORLDVIEW
 70
     1
  9
$SHADEDGE
 70
     3
  9
$SHADEDIF
 70
    70
  9
$TILEMODE
 70
     0
  9
$MAXACTVP
 70
    64
  9
$PINSBASE
 10
0.0
 20
0.0
 30
0.0
  9
$PLIMCHECK
 70
     0
  9
$PEXTMIN
 10
-0.0001
 20
-0.0001
 30
0.0
  9
$PEXTMAX
 10
0.210102
 20
0.297097
 30
0.0
  9
$PLIMMIN
 10
-0.0001
 20
-0.0001
  9
$PLIMMAX
 10
0.210102
 20
0.297097
  9
$UNITMODE
 70
     0
  9
$VISRETAIN
 70
     1
  9
$PLINEGEN
 70
     0
  9
$PSLTSCALE
 70
     0
  9
$TREEDEPTH
 70
  3020
  9
$CMLSTYLE
  2
Standard
  9
$CMLJUST
 70
     0
  9
$CMLSCALE
 40
1.0
  9
$PROXYGRAPHICS
 70
     1
  9
$MEASUREMENT
 70
     1
  9
$CELWEIGHT
370
    -1
  9
$ENDCAPS
280
     0
  9
$JOINSTYLE
280
     0
  9
$LWDISPLAY
290
     0
  9
$INSUNITS
 70
     6
  9
$HYPERLINKBASE
  1

  9
$STYLESHEET
  1

  9
$XEDIT
290
     1
  9
$CEPSNTYPE
380
     0
  9
$PSTYLEMODE
290
     1
  9
$FINGERPRINTGUID
  2
{4ac6d855-b064-4b03-825c-c6c5cba3221d}
  9
$VERSIONGUID
  2
{FAEB1C32-E019-11D5-929B-00C0DF256EC4}
  9
$EXTNAMES
290
     1
  9
$PSVPSCALE
 40
0.0
  9
$OLESTARTUP
290
     0
  9
$SORTENTS
280
   127
  9
$INDEXCTL
280
     0
  9
$HIDETEXT
280
     1
  9
$XCLIPFRAME
280
     2
  9
$HALOGAP
280
     0
  9
$OBSCOLOR
 70
   257
  9
$OBSLTYPE
280
     0
  9
$INTERSECTIONDISPLAY
280
     0
  9
$INTERSECTIONCOLOR
 70
   257
  9
$DIMASSOC
280
     2
  9
$PROJECTNAME
  1

  9
$CAMERADISPLAY
290
     0
  9
$LENSLENGTH
 40
50.0
  9
$CAMERAHEIGHT
 40
0.0
  9
$STEPSPERSEC
 40
2.0
  9
$STEPSIZE
 40
6.0
  9
$3DDWFPREC
 40
2.0
  9
$PSOLWIDTH
 40
0.25
  9
$PSOLHEIGHT
 40
4.0
  9
$LOFTANG1
 40
1.570796
  9
$LOFTANG2
 40
1.570796
  9
$LOFTMAG1
 40
0.0
  9
$LOFTMAG2
 40
0.0
  9
$LOFTPARAM
 70
     7
  9
$LOFTNORMALS
280
     1
  9
$LATITUDE
 40
37.795
  9
$LONGITUDE
 40
-122.394
  9
$NORTHDIRECTION
 40
0.0
  9
$TIMEZONE
 70
 -8000
  9
$LIGHTGLYPHDISPLAY
280
     1
  9
$TILEMODELIGHTSYNCH
280
     1
  9
$CMATERIAL
347
44
  9
$SOLIDHIST
280
     0
  9
$SHOWHIST
280
     1
  9
$DWFFRAME
280
     2
  9
$DGNFRAME
280
     2
  9
$REALWORLDSCALE
290
     1
  9
$INTERFERECOLOR
 62
   256
  9
$CSHADOW
280
     0
  9
$SHADOWPLANELOCATION
 40
0.0
  0
ENDSEC
  0
SECTION
  2
CLASSES
  0
CLASS
  1
ACDBDICTIONARYWDFLT
  2
AcDbDictionaryWithDefault
  3
ObjectDBX Classes
 90
        0
 91
        3
280
     0
281
     0
  0
CLASS
  1
VISUALSTYLE
  2
AcDbVisualStyle
  3
ObjectDBX Classes
 90
     4095
 91
        3
280
     0
281
     0
  0
CLASS
  1
MATERIAL
  2
AcDbMaterial
  3
ObjectDBX Classes
 90
     1153
 91
        3
280
     0
281
     0
  0
CLASS
  1
SCALE
  2
AcDbScale
  3
ObjectDBX Classes
 90
     1153
 91
        3
280
     0
281
     0
  0
CLASS
  1
TABLESTYLE
  2
AcDbTableStyle
  3
ObjectDBX Classes
 90
     4095
 91
        3
280
     0
281
     0
  0
CLASS
  1
MLEADERSTYLE
  2
AcDbMLeaderStyle
  3
ACDB_MLEADERSTYLE_CLASS
 90
     4095
 91
        3
280
     0
281
     0
  0
CLASS
  1
SUN
  2
AcDbSun
  3
SCENEOE
 90
     1153
 91
        3
280
     0
281
     0
  0
CLASS
  1
SORTENTSTABLE
  2
AcDbSortentsTable
  3
ObjectDBX Classes
 90
        0
 91
        3
280
     0
281
     0
  0
CLASS
  1
DICTIONARYVAR
  2
AcDbDictionaryVar
  3
ObjectDBX Classes
 90
        0
 91
        3
280
     0
281
     0
  0
CLASS
  1
CELLSTYLEMAP
  2
AcDbCellStyleMap
  3
ObjectDBX Classes
 90
     1152
 91
        3
280
     0
281
     0
  0
ENDSEC
  0
SECTION
  2
TABLES
  0
TABLE
  2
VPORT
  5
8
330
0
100
AcDbSymbolTable
 70
     1
  0
VPORT
  5
29
330
8
100
AcDbSymbolTableRecord
100
AcDbViewportTableRecord
  2
*Active
 70
     0
 10
0.0
 20
0.0
 11
1.0
 21
1.0
 12
8.957601
 22
4.306338
 13
0.0
 23
0.0
 14
0.5
 24
0.5
 15
0.5
 25
0.5
 16
0.0
 26
0.0
 36
1.0
 17
0.0
 27
0.0
 37
0.0
 40
1.781982
 41
0.848502
 42
50.0
 43
0.0
 44
0.0
 50
0.0
 51
0.0
 71
     0
 72
   100
 73
     1
 74
     3
 75
     0
 76
     0
 77
     0
 78
     0
281
     0
 65
     1
110
0.0
120
0.0
130
0.0
111
1.0
121
0.0
131
0.0
112
0.0
122
1.0
132
0.0
 79
     0
146
0.0
348
2F
 60
     3
 61
     5
292
     1
282
     1
141
0.0
142
0.0
 63
   250
361
6D
  0
ENDTAB
  0
TABLE
  2
LTYPE
  5
5
330
0
100
AcDbSymbolTable
 70
     4
  0
LTYPE
  5
14
330
5
100
AcDbSymbolTableRecord
100
AcDbLinetypeTableRecord
  2
ByBlock
 70
     0
  3

 72
    65
 73
     0
 40
0.0
  0
LTYPE
  5
15
330
5
100
AcDbSymbolTableRecord
100
AcDbLinetypeTableRecord
  2
ByLayer
 70
     0
  3

 72
    65
 73
     0
 40
0.0
  0
LTYPE
  5
16
330
5
100
AcDbSymbolTableRecord
100
AcDbLinetypeTableRecord
  2
Continuous
 70
     0
  3
Solid line
 72
    65
 73
     0
 40
0.0
  0
LTYPE
  5
74
330
5
100
AcDbSymbolTableRecord
100
AcDbLinetypeTableRecord
  2
AUSGEZOGEN
 70
     0
  3
durchgezogene Linie
 72
    65
 73
     0
 40
0.0
  0
LTYPE
  5
7A
330
5
100
AcDbSymbolTableRecord
100
AcDbLinetypeTableRecord
  2
STRICHPUNKT2_S5
 70
     0
  3
Lang eng gestrichelt bzw. punktiert
 72
    65
 73
     4
 40
0.05
 49
0.035
 74
     0
 49
-0.005
 74
     0
 49
0.005
 74
     0
 49
-0.005
 74
     0
  0
LTYPE
  5
7B
330
5
100
AcDbSymbolTableRecord
100
AcDbLinetypeTableRecord
  2
VERDECKT2_S2
 70
     0
  3
Kurzgestrichelt
 72
    65
 73
     2
 40
0.015
 49
0.01
 74
     0
 49
-0.005
 74
     0
  0
ENDTAB
  0
TABLE
  2
LAYER
  5
2
330
0
100
AcDbSymbolTable
 70
     4
  0
LAYER
  5
10
330
2
100
AcDbSymbolTableRecord
100
AcDbLayerTableRecord
  2
0
 70
     0
 62
     7
  6
Continuous
370
    -3
390
F
347
46
  0
LAYER
  5
76
330
2
100
AcDbSymbolTableRecord
100
AcDbLayerTableRecord
  2
PLAN_1413
 70
     0
 62
     7
  6
AUSGEZOGEN
370
    -3
390
F
347
46
1001
AcCmTransparency
1071
 33554687
1001
AcAecLayerStandard
1000

1000
Dokument-Layer
  0
LAYER
  5
78
330
2
100
AcDbSymbolTableRecord
100
AcDbLayerTableRecord
  2
TB_1413
 70
     0
 62
     7
  6
AUSGEZOGEN
370
    -3
390
F
347
46
1001
AcCmTransparency
1071
 33554687
1001
AcAecLayerStandard
1000

1000
Dokument-Layer
  0
LAYER
  5
7C
330
2
100
AcDbSymbolTableRecord
100
AcDbLayerTableRecord
  2
XR$1$TB_1413_1
 70
     0
 62
     7
  6
AUSGEZOGEN
370
    -3
390
F
347
46
1001
AcCmTransparency
1071
 33554687
1001
AcAecLayerStandard
1000

1000
Dokument-Layer
  0
ENDTAB
  0
TABLE
  2
STYLE
  5
3
330
0
100
AcDbSymbolTable
 70
     2
  0
STYLE
  5
11
330
3
100
AcDbSymbolTableRecord
100
AcDbTextStyleTableRecord
  2
Standard
 70
     0
 40
0.0
 41
1.0
 50
0.0
 71
     0
 42
0.2
  3
txt
  4

  0
STYLE
  5
79
330
3
100
AcDbSymbolTableRecord
100
AcDbTextStyleTableRecord
  2
ARIAL
 70
     0
 40
0.0
 41
1.0
 50
0.0
 71
     0
 42
0.2
  3
ARIAL.TTF
  4

1001
ACAD
1000
Arial
1071
       34
  0
ENDTAB
  0
TABLE
  2
VIEW
  5
6
330
0
100
AcDbSymbolTable
 70
     0
  0
ENDTAB
  0
TABLE
  2
UCS
  5
7
330
0
100
AcDbSymbolTable
 70
     0
  0
ENDTAB
  0
TABLE
  2
APPID
  5
9
330
0
100
AcDbSymbolTable
 70
     4
  0
APPID
  5
12
330
9
100
AcDbSymbolTableRecord
100
AcDbRegAppTableRecord
  2
ACAD
 70
     0
  0
APPID
  5
75
330
9
100
AcDbSymbolTableRecord
100
AcDbRegAppTableRecord
  2
AcCmTransparency
 70
     0
  0
APPID
  5
77
330
9
100
AcDbSymbolTableRecord
100
AcDbRegAppTableRecord
  2
AcAecLayerStandard
 70
     0
  0
APPID
  5
93
330
9
100
AcDbSymbolTableRecord
100
AcDbRegAppTableRecord
  2
NEM_ODX
 70
     0
  0
ENDTAB
  0
TABLE
  2
DIMSTYLE
  5
A
330
0
100
AcDbSymbolTable
 70
     1
100
AcDbDimStyleTable
  0
DIMSTYLE
105
27
330
A
100
AcDbSymbolTableRecord
100
AcDbDimStyleTableRecord
  2
Standard
 70
     0
178
     0
340
11
  0
ENDTAB
  0
TABLE
  2
BLOCK_RECORD
  5
1
330
0
100
AcDbSymbolTable
 70
     0
  0
BLOCK_RECORD
  5
1F
102
{ACAD_XDICTIONARY
360
FD
102
}
330
1
100
AcDbSymbolTableRecord
100
AcDbBlockTableRecord
  2
*Model_Space
340
22
 70
     0
280
     1
281
     0
  0
BLOCK_RECORD
  5
6E
330
1
100
AcDbSymbolTableRecord
100
AcDbBlockTableRecord
  2
*Paper_Space
340
6F
 70
     0
280
     1
281
     0
  0
ENDTAB
  0
ENDSEC
  0
SECTION
  2
BLOCKS
  0
BLOCK
  5
20
330
1F
100
AcDbEntity
  8
0
100
AcDbBlockBegin
  2
*Model_Space
 70
     0
 10
0.0
 20
0.0
 30
0.0
  3
*Model_Space
  1

  0
ENDBLK
  5
21
330
1F
100
AcDbEntity
  8
0
100
AcDbBlockEnd
  0
BLOCK
  5
70
330
6E
100
AcDbEntity
 67
     1
  8
0
100
AcDbBlockBegin
  2
*Paper_Space
 70
     0
 10
0.0
 20
0.0
 30
0.0
  3
*Paper_Space
  1

  0
ENDBLK
  5
71
330
6E
100
AcDbEntity
 67
     1
  8
0
100
AcDbBlockEnd
  0
ENDSEC
  0
SECTION
  2
ENTITIES
  0
HATCH
  5
7D
330
1F
100
AcDbEntity
  8
XR$1$TB_1413_1
  6
AUSGEZOGEN
 62
    18
420
        0
440
 33554687
370
    35
100
AcDbHatch
 10
0.0
 20
0.0
 30
0.0
210
0.0
220
0.0
230
1.0
  2
SOLID
 70
     1
 71
     0
 91
       18
 92
        3
 72
     0
 73
     1
 93
       27
 10
8.55186263790732
 20
3.701846930763919
 10
8.555856381368262
 20
3.701846930763919
 10
8.556433507758813
 20
3.701874327144731
 10
8.556964492876423
 20
3.701956876765866
 10
8.557459430124537
 20
3.702085207181253
 10
8.5579082260997
 20
3.702268330358273
 10
8.558320253247986
 20
3.702488222362172
 10
8.558686499602018
 20
3.702762907127693
 10
8.559318779232893
 20
3.703413210693308
 10
8.559566067617608
 20
3.703788829493411
 10
8.559785959621493
 20
3.704200856641694
 10
8.560124809594715
 20
3.70509880907072
 10
8.560316944739103
 20
3.70609697457694
 10
8.560381109946794
 20
3.70716867773691
 10
8.560316944739103
 20
3.70831391855065
 10
8.560124809594715
 20
3.709348852883743
 10
8.559969082798515
 20
3.709816033272348
 10
8.559785959621493
 20
3.710255456801449
 10
8.559566067617608
 20
3.710658832461055
 10
8.559318779232893
 20
3.711025078815083
 10
8.558686499602018
 20
3.711647985999893
 10
8.558320253247986
 20
3.711895274384601
 10
8.5579082260997
 20
3.712105793942423
 10
8.557459430124537
 20
3.712270893184703
 10
8.556964492876423
 20
3.712389851154025
 10
8.555856381368262
 20
3.712490785188602
 10
8.55186263790732
 20
3.712490785188602
 97
        0
 92
        3
 72
     0
 73
     1
 93
       12
 10
8.56356882304591
 20
3.701846930763919
 10
8.571290637169625
 20
3.701846930763919
 10
8.571290637169625
 20
3.703175294754672
 10
8.565171871802182
 20
3.703175294754672
 10
8.565171871802182
 20
3.706637692619306
 10
8.57021893400965
 20
3.706637692619306
 10
8.57021893400965
 20
3.707965696131363
 10
8.565171871802182
 20
3.707965696131363
 10
8.565171871802182
 20
3.711162421197844
 10
8.571024964371473
 20
3.711162421197844
 10
8.571024964371473
 20
3.712490785188602
 10
8.56356882304591
 20
3.712490785188602
 97
        0
 92
        3
 72
     0
 73
     1
 93
       38
 10
8.580862427955637
 20
3.712490785188602
 10
8.580862427955637
 20
3.705575001426701
 10
8.580825659128752
 20
3.704924697861085
 10
8.580716073605506
 20
3.70437496785134
 10
8.580514205536357
 20
3.703907787462733
 10
8.58023050880345
 20
3.703541541108696
 10
8.579863901970729
 20
3.703266856343174
 10
8.579406094028187
 20
3.703065348752721
 10
8.57885636401845
 20
3.702946030304702
 10
8.578206060452828
 20
3.70290962195652
 10
8.577555756887206
 20
3.702946030304702
 10
8.577006026877466
 20
3.703065348752721
 10
8.576548218934922
 20
3.703266856343174
 10
8.576172600134827
 20
3.703541541108696
 10
8.575897915369298
 20
3.703907787462733
 10
8.575696407778846
 20
3.70437496785134
 10
8.575586461776899
 20
3.704924697861085
 10
8.575540680982645
 20
3.705575001426701
 10
8.575540680982645
 20
3.712490785188602
 10
8.574212316991899
 20
3.712490785188602
 10
8.574212316991899
 20
3.705309328628555
 10
8.574285854645664
 20
3.704457517472476
 10
8.574496374203488
 20
3.703715652318348
 10
8.574844596622764
 20
3.703074360720099
 10
8.575311777011374
 20
3.702543015123791
 10
8.57588854292323
 20
3.702130987975512
 10
8.576575615315736
 20
3.701828546350482
 10
8.577345237329379
 20
3.701645423173463
 10
8.578206060452828
 20
3.701581257965767
 10
8.579067244054977
 20
3.701645423173463
 10
8.57983650558991
 20
3.701828546350482
 10
8.58052357798242
 20
3.702130987975512
 10
8.581100704372972
 20
3.702543015123791
 10
8.581567884761585
 20
3.703074360720099
 10
8.581906734734805
 20
3.703715652318348
 10
8.582126626738695
 20
3.704457517472476
 10
8.58219980391376
 20
3.705309328628555
 10
8.58219980391376
 20
3.712490785188602
 97
        0
 92
        3
 72
     0
 73
     1
 93
        8
 10
8.584856171416572
 20
3.712490785188602
 10
8.584856171416572
 20
3.711162421197844
 10
8.588052896483054
 20
3.711162421197844
 10
8.588052896483054
 20
3.701846930763919
 10
8.58938089999511
 20
3.701846930763919
 10
8.58938089999511
 20
3.711162421197844
 10
8.59256861309422
 20
3.711162421197844
 10
8.59256861309422
 20
3.712490785188602
 97
        0
 92
        3
 72
     0
 73
     1
 93
       96
 10
8.595573203016315
 20
3.708927453289394
 10
8.595783722574136
 20
3.708405480139156
 10
8.596113560579985
 20
3.707993092512174
 10
8.596534960174345
 20
3.707654242538958
 10
8.597038548911135
 20
3.707388569740813
 10
8.59760666333432
 20
3.707187062150351
 10
8.598824720844432
 20
3.706866596590573
 10
8.600043138833227
 20
3.706591551346364
 10
8.600610892777715
 20
3.706436185028846
 10
8.601114841993208
 20
3.706234677438391
 10
8.60153588110886
 20
3.705987028574991
 10
8.60186571911471
 20
3.705666563015213
 10
8.602076599151232
 20
3.705272559801668
 10
8.602149776326302
 20
3.704777983032249
 10
8.602094623085971
 20
3.704310802643644
 10
8.60192087235503
 20
3.703926171876174
 10
8.601655199556872
 20
3.703596333870328
 10
8.601316349583666
 20
3.703340033518247
 10
8.60091333440275
 20
3.70314753789516
 10
8.60046417794889
 20
3.703019567958467
 10
8.59998798559291
 20
3.702937018337336
 10
8.599493408823493
 20
3.70290962195652
 10
8.598824720844432
 20
3.702946030304702
 10
8.5982385824865
 20
3.703065348752721
 10
8.597734633271013
 20
3.703266856343174
 10
8.597295209741914
 20
3.703541541108696
 10
8.596937975355255
 20
3.703907787462733
 10
8.596644545697599
 20
3.70437496785134
 10
8.596434026139768
 20
3.704924697861085
 10
8.596296683757004
 20
3.705575001426701
 10
8.594968319766254
 20
3.705309328628555
 10
8.595060241833455
 20
3.704384340297405
 10
8.595179199802786
 20
3.70397195267043
 10
8.595334926598984
 20
3.703605706316395
 10
8.595536434189437
 20
3.703266856343174
 10
8.595765338160703
 20
3.702955402750773
 10
8.59633345258389
 20
3.702442441567912
 10
8.597001780084259
 20
3.702057810800445
 10
8.597771402097898
 20
3.701792138002293
 10
8.598604828840534
 20
3.701636411206089
 10
8.599493408823493
 20
3.701581257965767
 10
8.600272042804498
 20
3.701636411206089
 10
8.601013907958635
 20
3.701782765556225
 10
8.60169160790507
 20
3.702048438354372
 10
8.602287118709063
 20
3.702415045187099
 10
8.602781695478479
 20
3.702891237543079
 10
8.60315731427858
 20
3.703486748347073
 10
8.603294656661348
 20
3.703834610287666
 10
8.60339559069591
 20
3.704200856641694
 10
8.60347777983836
 20
3.705043655830403
 10
8.603404602663295
 20
3.705767497049785
 10
8.603194083105466
 20
3.706362647375086
 10
8.602864245099617
 20
3.706839200209766
 10
8.602442845505257
 20
3.707214458531167
 10
8.601938896289777
 20
3.707507527710131
 10
8.601380154312663
 20
3.707736792160087
 10
8.600153084835174
 20
3.70806663016594
 10
8.598934666846375
 20
3.708331942485394
 10
8.598375924869268
 20
3.708487669281594
 10
8.597871975653778
 20
3.708671152937308
 10
8.597441564092051
 20
3.708909068875952
 10
8.59711172608621
 20
3.70921151050098
 10
8.596901206528374
 20
3.709605153235823
 10
8.596828029353311
 20
3.710100090483938
 10
8.596892194561004
 20
3.710457324870597
 10
8.597056933324572
 20
3.710750394049561
 10
8.597304221709287
 20
3.710988309988203
 10
8.597624687269063
 20
3.711162421197844
 10
8.598000306069165
 20
3.711281379167171
 10
8.598403321250071
 20
3.711363928788304
 10
8.599227736025341
 20
3.711428093995997
 10
8.599795850448523
 20
3.711400697615185
 10
8.600308451152689
 20
3.71131814799405
 10
8.600766619573925
 20
3.711171433165224
 10
8.601151250341385
 20
3.710960913607387
 10
8.601462703933796
 20
3.710667844428424
 10
8.60169160790507
 20
3.710301598074395
 10
8.601838322733892
 20
3.709843429653159
 10
8.60188410352815
 20
3.709293699643422
 10
8.60347777983836
 20
3.709293699643422
 10
8.603230491453646
 20
3.710136498832127
 10
8.602891641480431
 20
3.710850967605444
 10
8.602461229918697
 20
3.711446478409436
 10
8.60194826873584
 20
3.711922670765418
 10
8.601362130377916
 20
3.712289277598144
 10
8.600711826812292
 20
3.712554589917598
 10
8.59999735803898
 20
3.712701304746422
 10
8.599227736025341
 20
3.712756097508052
 10
8.59853165166547
 20
3.712710316713803
 10
8.597853951719028
 20
3.712554589917598
 10
8.597231044534217
 20
3.712307301532884
 10
8.596662930111036
 20
3.711959439592298
 10
8.59618673775506
 20
3.71151064361713
 10
8.595820491401023
 20
3.710960913607387
 10
8.595582214983692
 20
3.710310610041761
 10
8.595499665362551
 20
3.709559372441569
 97
        0
 92
        3
 72
     0
 73
     1
 93
       78
 10
8.607801361305139
 20
3.708038873306432
 10
8.60798448448215
 20
3.708844903668254
 10
8.608295938074559
 20
3.709568744887642
 10
8.608735722082349
 20
3.71019165207245
 10
8.609294464059467
 20
3.710713625222679
 10
8.609981175973271
 20
3.711098255990148
 10
8.610796578781168
 20
3.711336532407491
 10
8.611730939558377
 20
3.711428093995997
 10
8.612234528295167
 20
3.711391325169114
 10
8.612747489478034
 20
3.711272367199792
 10
8.61325143869352
 20
3.711089244022782
 10
8.61372763104949
 20
3.710823571224622
 10
8.614149030643851
 20
3.710493733218782
 10
8.61449725306314
 20
3.710081706070496
 10
8.614762565382595
 20
3.70959614126845
 10
8.6149182921788
 20
3.709028387323959
 10
8.616255668136915
 20
3.709293699643422
 10
8.615989995338767
 20
3.710136498832127
 10
8.615623748984735
 20
3.710850967605444
 10
8.615147556628754
 20
3.711446478409436
 10
8.61458881465164
 20
3.711922670765418
 10
8.613956535020765
 20
3.712289277598144
 10
8.613260450660887
 20
3.712554589917598
 10
8.612509573539382
 20
3.712701304746422
 10
8.611730939558377
 20
3.712756097508052
 10
8.611098659927508
 20
3.712728701127246
 10
8.610503509602205
 20
3.712646511984804
 10
8.60995377959246
 20
3.712518181569418
 10
8.609440818409594
 20
3.712335058392398
 10
8.608964626053627
 20
3.712105793942423
 10
8.608524842045814
 20
3.711831109176905
 10
8.60813119931098
 20
3.71151064361713
 10
8.607773964924329
 20
3.711162421197844
 10
8.607453138885854
 20
3.710768417984303
 10
8.607178454120328
 20
3.710338006422584
 10
8.606949550149059
 20
3.70988019848004
 10
8.606757054525975
 20
3.709385621710622
 10
8.606491381727833
 20
3.708322930518016
 10
8.606409192585389
 20
3.70716867773691
 10
8.606491381727833
 20
3.7060147854345
 10
8.606757054525975
 20
3.704952094241891
 10
8.606949550149059
 20
3.704457517472476
 10
8.607178454120328
 20
3.703999349051244
 10
8.607453138885854
 20
3.703568937489512
 10
8.607773964924329
 20
3.703175294754672
 10
8.60813119931098
 20
3.702827072335393
 10
8.608524842045814
 20
3.702506606775604
 10
8.608964626053627
 20
3.702231561531393
 10
8.609440818409594
 20
3.70200265756012
 10
8.60995377959246
 20
3.701819534383105
 10
8.610503509602205
 20
3.701691203967719
 10
8.611098659927508
 20
3.701608654346582
 10
8.611730939558377
 20
3.701581257965767
 10
8.612527597474129
 20
3.701654795619526
 10
8.613297219487771
 20
3.701874327144731
 10
8.614039084641902
 20
3.702222549564014
 10
8.6147261570344
 20
3.702708114366058
 10
8.615330679805766
 20
3.703321649104806
 10
8.615843640988633
 20
3.704054502291569
 10
8.616246656169546
 20
3.704887929034201
 10
8.616521340935064
 20
3.705840674224854
 10
8.6149182921788
 20
3.705840674224854
 10
8.614771937828658
 20
3.705180998213162
 10
8.614533661411324
 20
3.704594859855237
 10
8.614213195851548
 20
3.704091271118441
 10
8.613828565084079
 20
3.703678883491468
 10
8.613370396662836
 20
3.703349045485613
 10
8.612866807926045
 20
3.703111129546969
 10
8.612317077916307
 20
3.702964414718152
 10
8.611730939558377
 20
3.70290962195652
 10
8.610796578781168
 20
3.702991811098962
 10
8.609981175973271
 20
3.703239099483673
 10
8.609294464059467
 20
3.703624090729836
 10
8.608735722082349
 20
3.704146063880069
 10
8.608295938074559
 20
3.704768971064883
 10
8.60798448448215
 20
3.705492451805571
 10
8.607801361305139
 20
3.706298482167389
 10
8.607737196097444
 20
3.70716867773691
 97
        0
 92
        3
 72
     0
 73
     1
 93
       12
 10
8.619709054034184
 20
3.701846930763919
 10
8.621037057546243
 20
3.701846930763919
 10
8.621037057546243
 20
3.706637692619306
 10
8.62662447731738
 20
3.706637692619306
 10
8.62662447731738
 20
3.701846930763919
 10
8.628227526073658
 20
3.701846930763919
 10
8.628227526073658
 20
3.712490785188602
 10
8.62662447731738
 20
3.712490785188602
 10
8.62662447731738
 20
3.707965696131363
 10
8.621037057546243
 20
3.707965696131363
 10
8.621037057546243
 20
3.712490785188602
 10
8.619709054034184
 20
3.712490785188602
 97
        0
 92
        3
 72
     0
 73
     1
 93
       12
 10
8.63168091197092
 20
3.701846930763919
 10
8.639136692817791
 20
3.701846930763919
 10
8.639136692817791
 20
3.703175294754672
 10
8.633018287929032
 20
3.703175294754672
 10
8.633018287929032
 20
3.706637692619306
 10
8.638330662455962
 20
3.706637692619306
 10
8.638330662455962
 20
3.707965696131363
 10
8.633018287929032
 20
3.707965696131363
 10
8.633018287929032
 20
3.711162421197844
 10
8.639136692817791
 20
3.711162421197844
 10
8.639136692817791
 20
3.712490785188602
 10
8.63168091197092
 20
3.712490785188602
 97
        0
 92
        3
 72
     0
 73
     1
 93
       90
 10
8.554390674994748
 20
3.694280843436402
 10
8.554088593848402
 20
3.694574273094058
 10
8.554015056194645
 20
3.694739011857633
 10
8.553997032259895
 20
3.694931507480717
 10
8.55404281305415
 20
3.695206192246244
 10
8.55417078299085
 20
3.695435096217512
 10
8.554354266646554
 20
3.695618219394524
 10
8.554592182585196
 20
3.69576493422336
 10
8.555114516214127
 20
3.695939045432993
 10
8.555590708570103
 20
3.695993838194632
 10
8.556378354518488
 20
3.695902276606126
 10
8.556762985285962
 20
3.695783318636792
 10
8.557120219672624
 20
3.695627591840597
 10
8.557761511270865
 20
3.695206192246244
 10
8.558247076072911
 20
3.69466583468257
 10
8.560381109946794
 20
3.695993838194632
 10
8.55986814876394
 20
3.696470030550605
 10
8.559337163646333
 20
3.69689143014496
 10
8.558787433636592
 20
3.697248664531611
 10
8.558219679692106
 20
3.697560118124022
 10
8.557633180855477
 20
3.697798394541358
 10
8.557047042497556
 20
3.697981517718374
 10
8.556451531693563
 20
3.698082451752953
 10
8.555856381368262
 20
3.698118860101137
 10
8.554986185798747
 20
3.698073079306878
 10
8.554180155436917
 20
3.697917352510674
 10
8.553456314217534
 20
3.697661052158594
 10
8.552833407032717
 20
3.69729444532587
 10
8.552311433882494
 20
3.696809241002518
 10
8.551926803115023
 20
3.696213730198519
 10
8.551789460732262
 20
3.695874880225307
 10
8.551679514730308
 20
3.695499261425208
 10
8.551596965109182
 20
3.69466583468257
 10
8.551652118349498
 20
3.694088708292007
 10
8.5518078451457
 20
3.693566374663087
 10
8.552055133530414
 20
3.693099554753173
 10
8.552393983503617
 20
3.692687167126196
 10
8.552815383097977
 20
3.692339305185604
 10
8.553318971834766
 20
3.692064259941388
 10
8.553905110192698
 20
3.691853740383553
 10
8.554546401790942
 20
3.691716398000794
 10
8.556680796143521
 20
3.691276613993005
 10
8.557147976532125
 20
3.691166667991054
 10
8.557468442091906
 20
3.690992556781413
 10
8.557660937714989
 20
3.690754640842766
 10
8.557715730476618
 20
3.690406418423483
 10
8.557669949682358
 20
3.690122361211894
 10
8.557541619266978
 20
3.689866060859811
 10
8.557340111676512
 20
3.689637156888546
 10
8.55708381132443
 20
3.689444661265454
 10
8.556799754112841
 20
3.68928893446925
 10
8.556479288553064
 20
3.689169976499937
 10
8.555856381368262
 20
3.689078414911422
 10
8.554949416971855
 20
3.689169976499937
 10
8.554555774237016
 20
3.68928893446925
 10
8.554189167404287
 20
3.689444661265454
 10
8.553538863838675
 20
3.689866060859811
 10
8.552925329099924
 20
3.690406418423483
 10
8.550799946714722
 20
3.689343727230882
 10
8.55138644555134
 20
3.688794357699837
 10
8.55196357194189
 20
3.688336189278605
 10
8.552522313919011
 20
3.687969942924568
 10
8.553099079830865
 20
3.6876768737456
 10
8.553676206221423
 20
3.68746599370908
 10
8.554280728992794
 20
3.687319639358948
 10
8.554913008623672
 20
3.687237089737815
 10
8.555590708570103
 20
3.687209693356999
 10
8.556332573724243
 20
3.687246462183879
 10
8.557120219672624
 20
3.687347035739762
 10
8.55792625003444
 20
3.68754854333022
 10
8.558686499602018
 20
3.687878381336062
 10
8.559034722021302
 20
3.688098273339961
 10
8.55935518758108
 20
3.688354573692042
 10
8.559639244792669
 20
3.688657015317074
 10
8.559895905623447
 20
3.689014249703727
 10
8.5600974132139
 20
3.689407892438576
 10
8.560253140010099
 20
3.689866060859811
 10
8.560344701598614
 20
3.690369649596603
 10
8.560381109946794
 20
3.690937764019784
 10
8.560344701598614
 20
3.691368175581509
 10
8.560243767564033
 20
3.691752806348986
 10
8.560088040767825
 20
3.69208264435483
 10
8.559886533177377
 20
3.692375713533786
 10
8.559630232825288
 20
3.692632374364568
 10
8.559346175613706
 20
3.692851905889769
 10
8.558668475667272
 20
3.693200128309056
 10
8.5579082260997
 20
3.693438404726394
 10
8.557102195737867
 20
3.69361251593604
 10
8.555590708570103
 20
3.693868816288121
 10
8.554894624210235
 20
3.694051939465133
 97
        0
 92
        3
 72
     0
 73
     1
 93
        8
 10
8.56676554811239
 20
3.695728165396476
 10
8.569421915615198
 20
3.695728165396476
 10
8.569421915615198
 20
3.697853187302988
 10
8.561443801139403
 20
3.697853187302988
 10
8.561443801139403
 20
3.695728165396476
 10
8.564100168642204
 20
3.695728165396476
 10
8.564100168642204
 20
3.687484378122523
 10
8.56676554811239
 20
3.687484378122523
 97
        0
 92
        3
 72
     0
 73
     1
 93
       12
 10
8.571290637169625
 20
3.687484378122523
 10
8.579268751645426
 20
3.687484378122523
 10
8.579268751645426
 20
3.689343727230882
 10
8.573681331874289
 20
3.689343727230882
 10
8.573681331874289
 20
3.691734421935545
 10
8.578471733250977
 20
3.691734421935545
 10
8.578471733250977
 20
3.693868816288121
 10
8.573681331874289
 20
3.693868816288121
 10
8.573681331874289
 20
3.695728165396476
 10
8.578737406049129
 20
3.695728165396476
 10
8.578737406049129
 20
3.697853187302988
 10
8.571290637169625
 20
3.697853187302988
 97
        0
 92
        3
 72
     0
 73
     1
 93
        4
 10
8.581128100753785
 20
3.687484378122523
 10
8.583793480223967
 20
3.687484378122523
 10
8.583793480223967
 20
3.697853187302988
 10
8.581128100753785
 20
3.697853187302988
 97
        0
 92
        3
 72
     0
 73
     1
 93
       10
 10
8.588584242079358
 20
3.687484378122523
 10
8.588584242079358
 20
3.693868816288121
 10
8.592302940296069
 20
3.687484378122523
 10
8.594968319766254
 20
3.687484378122523
 10
8.594968319766254
 20
3.697853187302988
 10
8.59256861309422
 20
3.697853187302988
 10
8.59256861309422
 20
3.69120343681793
 10
8.58884991487751
 20
3.697853187302988
 10
8.586184174928631
 20
3.697853187302988
 10
8.586184174928631
 20
3.687484378122523
 97
        0
 92
        3
 72
     0
 73
     1
 93
       10
 10
8.605877846989088
 20
3.695728165396476
 10
8.605877846989088
 20
3.697853187302988
 10
8.597359014470918
 20
3.697853187302988
 10
8.597359014470918
 20
3.695728165396476
 10
8.602681121922599
 20
3.695728165396476
 10
8.597093702151456
 20
3.689343727230882
 10
8.597093702151456
 20
3.687484378122523
 10
8.605877846989088
 20
3.687484378122523
 10
8.605877846989088
 20
3.689343727230882
 10
8.600290427217935
 20
3.689343727230882
 97
        0
 92
        3
 72
     0
 73
     1
 93
       12
 10
8.608002868895593
 20
3.687484378122523
 10
8.615989995338767
 20
3.687484378122523
 10
8.615989995338767
 20
3.689343727230882
 10
8.61066824836578
 20
3.689343727230882
 10
8.61066824836578
 20
3.691734421935545
 10
8.615183964976941
 20
3.691734421935545
 10
8.615183964976941
 20
3.693868816288121
 10
8.61066824836578
 20
3.693868816288121
 10
8.61066824836578
 20
3.695728165396476
 10
8.615715310573245
 20
3.695728165396476
 10
8.615715310573245
 20
3.697853187302988
 10
8.608002868895593
 20
3.697853187302988
 97
        0
 92
        3
 72
     0
 73
     1
 93
       42
 10
8.620506072428636
 20
3.697853187302988
 10
8.617849704925828
 20
3.697853187302988
 10
8.617849704925828
 20
3.690937764019784
 10
8.61787710130663
 20
3.690461211185113
 10
8.617959650927764
 20
3.690012415209945
 10
8.618087620864465
 20
3.689609400029031
 10
8.61825272010673
 20
3.689234141707626
 10
8.618719900495334
 20
3.688592850109379
 10
8.619315050820644
 20
3.688079888926521
 10
8.62000212321315
 20
3.68769525815905
 10
8.620762372780717
 20
3.687420212914827
 10
8.621568403142536
 20
3.687264486118631
 10
8.622374433504362
 20
3.687209693356999
 10
8.62308890227767
 20
3.687264486118631
 10
8.623821755464439
 20
3.687420212914827
 10
8.624536224237755
 20
3.68769525815905
 10
8.625195539770742
 20
3.688079888926521
 10
8.625772666161307
 20
3.688592850109379
 10
8.626221462136467
 20
3.689234141707626
 10
8.626395573346114
 20
3.689609400029031
 10
8.626523903761495
 20
3.690012415209945
 10
8.626597080936573
 20
3.690461211185113
 10
8.62662447731738
 20
3.690937764019784
 10
8.62662447731738
 20
3.697853187302988
 10
8.624233782612716
 20
3.697853187302988
 10
8.624233782612716
 20
3.69120343681793
 10
8.624206386231906
 20
3.690809433604396
 10
8.624133209056838
 20
3.69042480283692
 10
8.623995866674077
 20
3.69006756845027
 10
8.623803371050997
 20
3.689737730444425
 10
8.623547070698908
 20
3.689472057646273
 10
8.623226244660438
 20
3.68926153808844
 10
8.622832601925596
 20
3.689124195705683
 10
8.622374433504362
 20
3.689078414911422
 10
8.621907253115753
 20
3.689124195705683
 10
8.621522622348287
 20
3.68926153808844
 10
8.621202156788504
 20
3.689472057646273
 10
8.620945495957729
 20
3.689737730444425
 10
8.620743988367277
 20
3.69006756845027
 10
8.62061565795188
 20
3.69042480283692
 10
8.62053346880944
 20
3.690809433604396
 10
8.620506072428636
 20
3.69120343681793
 97
        0
 92
        3
 72
     0
 73
     1
 93
       75
 10
8.628832048845025
 20
3.691386559994951
 10
8.629051940848923
 20
3.690360637629232
 10
8.629226052058561
 20
3.68988444527325
 10
8.629427559649017
 20
3.689444661265454
 10
8.629674848033732
 20
3.689041646084546
 10
8.629958905245317
 20
3.688675399730515
 10
8.630627593224386
 20
3.688052492545709
 10
8.631021235959228
 20
3.687805204160999
 10
8.631451647520954
 20
3.687594324124473
 10
8.631918827909553
 20
3.687429585360898
 10
8.632422777125047
 20
3.687310266912879
 10
8.633549273046642
 20
3.687209693356999
 10
8.634493006269922
 20
3.687264486118631
 10
8.635308048599118
 20
3.687447969774341
 10
8.635665282985787
 20
3.687594324124473
 10
8.635976736578186
 20
3.687777447301494
 10
8.636251421343712
 20
3.68800671175145
 10
8.636471313347613
 20
3.688281396516975
 10
8.636471313347613
 20
3.687484378122523
 10
8.638605707700181
 20
3.687484378122523
 10
8.638605707700181
 20
3.693071797893668
 10
8.63408061864295
 20
3.693071797893668
 10
8.63408061864295
 20
3.69120343681793
 10
8.636205640549454
 20
3.69120343681793
 10
8.636150847787828
 20
3.690745268396699
 10
8.63598574854556
 20
3.690351625661859
 10
8.635747832606908
 20
3.690030799623388
 10
8.63544539098189
 20
3.6897744992713
 10
8.63510654100867
 20
3.689582003648224
 10
8.634749306622018
 20
3.689444661265454
 10
8.63408061864295
 20
3.689343727230882
 10
8.633430315077321
 20
3.689398880471205
 10
8.63288058506758
 20
3.689582003648224
 10
8.632413765157677
 20
3.689866060859811
 10
8.632047158324951
 20
3.690241679659906
 10
8.631772473559426
 20
3.690708860048517
 10
8.631570965968962
 20
3.691249217612187
 10
8.631451647520954
 20
3.691862752350933
 10
8.631415239172764
 20
3.692531440329989
 10
8.631470031934391
 20
3.693374239518698
 10
8.631607374317152
 20
3.694088708292007
 10
8.631836638767128
 20
3.694683858617313
 10
8.632148092359522
 20
3.695160411451992
 10
8.632532723126992
 20
3.695526657806018
 10
8.632990531069531
 20
3.69579233060417
 10
8.633503492252387
 20
3.695948057400372
 10
8.63408061864295
 20
3.695993838194632
 10
8.634822483797075
 20
3.695902276606126
 10
8.635161694248994
 20
3.695783318636792
 10
8.6354727873627
 20
3.695627591840597
 10
8.636022517372437
 20
3.695206192246244
 10
8.636471313347613
 20
3.69466583468257
 10
8.638605707700181
 20
3.695462492598324
 10
8.638174935659766
 20
3.696112796163947
 10
8.637698743303782
 20
3.696662526173692
 10
8.637176770153548
 20
3.697120694594923
 10
8.636608655730363
 20
3.697486940948953
 10
8.63598574854556
 20
3.697770998160538
 10
8.635308048599118
 20
3.697972505750999
 10
8.634584567858443
 20
3.698082451752953
 10
8.6338149458448
 20
3.698118860101137
 10
8.633183026692613
 20
3.698091463720321
 10
8.632605900302059
 20
3.698008914099181
 10
8.632065542738388
 20
3.697880944162493
 10
8.631561593522898
 20
3.697697460506788
 10
8.631103785580358
 20
3.69746855653551
 10
8.630691397953381
 20
3.697193871769992
 10
8.630316139631983
 20
3.69688241817758
 10
8.629986301626143
 20
3.696525183790929
 10
8.629693232447169
 20
3.696131180577389
 10
8.629445944062454
 20
3.695709780983039
 10
8.629235064025934
 20
3.695242961073121
 10
8.62906095281629
 20
3.694757396271076
 10
8.628832048845025
 20
3.693694705078475
 10
8.628758871669955
 20
3.692531440329989
 97
        0
 92
       18
 72
     0
 73
     1
 93
       19
 10
8.555590708570103
 20
3.711162421197844
 10
8.556424135312742
 20
3.711089244022782
 10
8.557138604086061
 20
3.710869352018881
 10
8.557734114890062
 20
3.710530502045664
 10
8.558219679692106
 20
3.710063321657055
 10
8.558585926046138
 20
3.709486195266507
 10
8.558842226398212
 20
3.708799122873998
 10
8.558997953194417
 20
3.708029861339061
 10
8.559043733988675
 20
3.70716867773691
 10
8.558997953194417
 20
3.706307854613466
 10
8.558842226398212
 20
3.705538232599816
 10
8.558585926046138
 20
3.704851520686009
 10
8.558219679692106
 20
3.704274394295461
 10
8.557734114890062
 20
3.703807213906854
 10
8.557138604086061
 20
3.703468363933634
 10
8.556424135312742
 20
3.703248471929741
 10
8.555590708570103
 20
3.703175294754672
 10
8.553190641419386
 20
3.703175294754672
 10
8.553190641419386
 20
3.711162421197844
 97
        0
 75
     0
 76
     1
 98
        0
  0
HATCH
  5
7E
330
1F
100
AcDbEntity
  8
XR$1$TB_1413_1
  6
AUSGEZOGEN
 62
    18
420
        0
440
 33554687
370
    35
100
AcDbHatch
 10
0.0
 20
0.0
 30
0.0
210
0.0
220
0.0
230
1.0
  2
SOLID
 70
     1
 71
     0
 91
       20
 92
        3
 72
     0
 73
     1
 93
        8
 10
8.684899102658228
 20
3.712225112390445
 10
8.675052266627995
 20
3.687484378122523
 10
8.677442961332652
 20
3.687484378122523
 10
8.68037401360099
 20
3.694931507480717
 10
8.69128354082382
 20
3.694931507480717
 10
8.693939908326627
 20
3.687484378122523
 10
8.696605287796812
 20
3.687484378122523
 10
8.687024124564733
 20
3.712225112390445
 97
        0
 92
        3
 72
     0
 73
     1
 93
      116
 10
8.699527328097776
 20
3.699721908857415
 10
8.69956373644596
 20
3.700674654048065
 10
8.69965529803447
 20
3.701636411206089
 10
8.699811024830668
 20
3.702607180331494
 10
8.70004028928063
 20
3.703559925522146
 10
8.700333358459595
 20
3.70448491385329
 10
8.700690592846254
 20
3.70539187824969
 10
8.70112100440798
 20
3.706252701373143
 10
8.701624953623474
 20
3.707068104181033
 10
8.702201719535324
 20
3.707818981302527
 10
8.702843011133576
 20
3.708506053695033
 10
8.703557479906884
 20
3.709119948912468
 10
8.704354498301347
 20
3.709632910095328
 10
8.705224693870866
 20
3.710053949210987
 10
8.706177078582826
 20
3.710365402803393
 10
8.70720300094854
 20
3.710557898426476
 10
8.708311472935401
 20
3.710631075601545
 10
8.709630464480078
 20
3.710548886459103
 10
8.710812113642003
 20
3.710319622009136
 10
8.71135247120568
 20
3.710145871278195
 10
8.711856059942477
 20
3.709925979274294
 10
8.712323240331074
 20
3.709669318443519
 10
8.712763024338873
 20
3.709367237297183
 10
8.713550670287262
 20
3.708625372143053
 10
8.71421935826631
 20
3.707709395779282
 10
8.714778100243434
 20
3.706600923792428
 10
8.715226896218597
 20
3.705309328628555
 10
8.717617590923254
 20
3.706637692619306
 10
8.71687572576913
 20
3.708048245752499
 10
8.716014902645673
 20
3.709275675708674
 10
8.71505314548765
 20
3.710328994455211
 10
8.714521799891346
 20
3.710786802397748
 10
8.713963057914228
 20
3.711189817578665
 10
8.713376919556312
 20
3.711556424411387
 10
8.712754012371493
 20
3.711867878003783
 10
8.712094336359804
 20
3.712142562769315
 10
8.7114072639673
 20
3.712362454773209
 10
8.709932545626417
 20
3.712655523952171
 10
8.708311472935401
 20
3.712756097508052
 10
8.706909931769575
 20
3.712682920332985
 10
8.705618336605706
 20
3.712472400775159
 10
8.704409291062968
 20
3.712124178355872
 10
8.703310191522187
 20
3.711656997967266
 10
8.702302653569905
 20
3.711070859609336
 10
8.701386677206129
 20
3.710383787216835
 10
8.70056226243087
 20
3.709605153235823
 10
8.699829409244108
 20
3.708734957666306
 10
8.699188117645853
 20
3.707782572954346
 10
8.698638748114814
 20
3.706765662555996
 10
8.698171567726206
 20
3.705693959396023
 10
8.69779594892611
 20
3.704558091028359
 10
8.697502879747155
 20
3.703394826279875
 10
8.697301372156687
 20
3.702185780737133
 10
8.697173041741307
 20
3.700958350780957
 10
8.697136633393113
 20
3.699721908857415
 10
8.697173041741307
 20
3.698384532899289
 10
8.697301372156687
 20
3.69709293773542
 10
8.697502879747155
 20
3.695847483844491
 10
8.69778693695873
 20
3.694647450269129
 10
8.698153183312762
 20
3.693511581901459
 10
8.698611351734
 20
3.692439878741483
 10
8.6991423368516
 20
3.691432340789208
 10
8.699765244036417
 20
3.690507352458057
 10
8.700461328396292
 20
3.689664553269349
 10
8.701249334823364
 20
3.688913315669155
 10
8.702128542360258
 20
3.688263012103531
 10
8.703081287550908
 20
3.687704270126424
 10
8.704125233851375
 20
3.687273858564693
 10
8.70526110221905
 20
3.686944020558853
 10
8.706470147761785
 20
3.686751524935767
 10
8.707780127339104
 20
3.6866783477607
 10
8.708879226879889
 20
3.686742512968396
 10
8.70998769886674
 20
3.686935008591476
 10
8.711068413994088
 20
3.687255474151256
 10
8.712103708805872
 20
3.687713282093786
 10
8.713056093517832
 20
3.688308792897786
 10
8.713917277119982
 20
3.689041646084546
 10
8.71465013030674
 20
3.689911841654057
 10
8.71495221145308
 20
3.690406418423483
 10
8.715226896218597
 20
3.690937764019784
 10
8.715226896218597
 20
3.687484378122523
 10
8.717351918125113
 20
3.687484378122523
 10
8.717351918125113
 20
3.700253254453712
 10
8.706177078582826
 20
3.700253254453712
 10
8.706177078582826
 20
3.698118860101137
 10
8.715226896218597
 20
3.698118860101137
 10
8.715226896218597
 20
3.696790856589081
 10
8.715126322662718
 20
3.695453480630951
 10
8.714814869070311
 20
3.694088708292007
 10
8.7145675806856
 20
3.693411008345578
 10
8.714274511506641
 20
3.692751332333888
 10
8.713917277119982
 20
3.692110040735641
 10
8.713495877525629
 20
3.691505517964275
 10
8.713019685169645
 20
3.690937764019784
 10
8.712469955159909
 20
3.69042480283692
 10
8.711865432388537
 20
3.689966634415689
 10
8.711187732442106
 20
3.689572991680847
 10
8.710445506809277
 20
3.689252165642376
 10
8.709621092034011
 20
3.689014249703727
 10
8.70874188449712
 20
3.688858522907531
 10
8.707780127339104
 20
3.688812742113276
 10
8.7067174361465
 20
3.688876907320968
 10
8.705746667021097
 20
3.689069042465359
 10
8.704839702624687
 20
3.689380496057764
 10
8.704015648328127
 20
3.689801895652112
 10
8.70327342269531
 20
3.69032386880235
 10
8.70259572274886
 20
3.69092839157372
 10
8.7019911999775
 20
3.691615463966218
 10
8.7014598543812
 20
3.692366701566414
 10
8.700992673992593
 20
3.693181743895615
 10
8.700599031257747
 20
3.694042927497764
 10
8.700259820805828
 20
3.69494953141547
 10
8.699994508486373
 20
3.695883892192682
 10
8.699793000895928
 20
3.696836637383325
 10
8.699646286067097
 20
3.697798394541358
 10
8.69955472447858
 20
3.698760151699384
 97
        0
 92
        3
 72
     0
 73
     1
 93
       37
 10
8.72081431598974
 20
3.687484378122523
 10
8.723205010694402
 20
3.687484378122523
 10
8.723205010694402
 20
3.698384532899289
 10
8.728792790944238
 20
3.698384532899289
 10
8.736779917387407
 20
3.687484378122523
 10
8.739701957688379
 20
3.687484378122523
 10
8.731723843212572
 20
3.698384532899289
 10
8.733326891968844
 20
3.698586040489743
 10
8.734068757122978
 20
3.698760151699384
 10
8.734755469036786
 20
3.698980043703281
 10
8.735396760635032
 20
3.699254728468806
 10
8.735982898992969
 20
3.699575194028583
 10
8.736523617035333
 20
3.699941800861307
 10
8.737008821358677
 20
3.700353828009591
 10
8.737448605366472
 20
3.700811996430824
 10
8.737824224166575
 20
3.701315585167618
 10
8.738154062172422
 20
3.701865315177362
 10
8.738419374491876
 20
3.702469837948729
 10
8.738630254528397
 20
3.703111129546969
 10
8.738785981324598
 20
3.703797841460786
 10
8.738877542913103
 20
3.704530694647543
 10
8.738904939293914
 20
3.705309328628555
 10
8.738804365738035
 20
3.706600923792428
 10
8.738492912145636
 20
3.707846738162041
 10
8.738254635728302
 20
3.708441888487347
 10
8.737970578516704
 20
3.709019014877895
 10
8.73761334413005
 20
3.709559372441569
 10
8.737210328949141
 20
3.710063321657055
 10
8.736743148560535
 20
3.710530502045664
 10
8.736221175410297
 20
3.71094252919395
 10
8.735625664606303
 20
3.71131814799405
 10
8.734975361040679
 20
3.71162960158645
 10
8.734260892267363
 20
3.711885901938536
 10
8.733482258286354
 20
3.712069385594245
 10
8.732639819576349
 20
3.712188343563563
 10
8.731723843212572
 20
3.712225112390445
 10
8.72081431598974
 20
3.712225112390445
 97
        0
 92
        3
 72
     0
 73
     1
 93
       64
 10
8.740663714846402
 20
3.697248664531611
 10
8.740874234404224
 20
3.696048991434949
 10
8.741158291615823
 20
3.694876354240396
 10
8.741533910415912
 20
3.693749858318799
 10
8.741991718358452
 20
3.692668782712754
 10
8.742532436400825
 20
3.691652232793098
 10
8.743164355553
 20
3.690708860048517
 10
8.743878824326321
 20
3.689838664478999
 10
8.744684854688147
 20
3.689050658051918
 10
8.745582446638474
 20
3.68836394613811
 10
8.746562588209947
 20
3.687786819747557
 10
8.747643303337302
 20
3.687319639358948
 10
8.748806568085774
 20
3.686971416939667
 10
8.75006175490146
 20
3.686751524935767
 10
8.751398409902196
 20
3.6866783477607
 10
8.752708389479505
 20
3.686751524935767
 10
8.753926807468307
 20
3.686971416939667
 10
8.755053303389914
 20
3.687319639358948
 10
8.756097610169071
 20
3.687786819747557
 10
8.757049994881038
 20
3.68836394613811
 10
8.757929562896615
 20
3.689050658051918
 10
8.758717208845004
 20
3.689838664478999
 10
8.75941329320488
 20
3.690708860048517
 10
8.76003620038968
 20
3.691652232793098
 10
8.76056754598599
 20
3.692668782712754
 10
8.761025353928527
 20
3.693749858318799
 10
8.761391960761253
 20
3.694876354240396
 10
8.761675657494148
 20
3.696048991434949
 10
8.76188653753067
 20
3.697248664531611
 10
8.76200549549999
 20
3.698476094487787
 10
8.76204226432687
 20
3.699721908857415
 10
8.76200549549999
 20
3.700958350780957
 10
8.76188653753067
 20
3.702185780737133
 10
8.761675657494148
 20
3.703394826279875
 10
8.761391960761253
 20
3.704558091028359
 10
8.761025353928527
 20
3.705693959396023
 10
8.76056754598599
 20
3.706765662555996
 10
8.76003620038968
 20
3.707782572954346
 10
8.75941329320488
 20
3.708734957666306
 10
8.758717208845004
 20
3.709605153235823
 10
8.757929562896615
 20
3.710383787216835
 10
8.757049994881038
 20
3.711070859609336
 10
8.756097610169071
 20
3.711656997967266
 10
8.755053303389914
 20
3.712124178355872
 10
8.753926807468307
 20
3.712472400775159
 10
8.752708389479505
 20
3.712682920332985
 10
8.751398409902196
 20
3.712756097508052
 10
8.75006175490146
 20
3.712682920332985
 10
8.748806568085774
 20
3.712472400775159
 10
8.747643303337302
 20
3.712124178355872
 10
8.746562588209947
 20
3.711656997967266
 10
8.745582446638474
 20
3.711070859609336
 10
8.744684854688147
 20
3.710383787216835
 10
8.743878824326321
 20
3.709605153235823
 10
8.743164355553
 20
3.708734957666306
 10
8.742532436400825
 20
3.707782572954346
 10
8.741991718358452
 20
3.706765662555996
 10
8.741533910415912
 20
3.705693959396023
 10
8.741158291615823
 20
3.704558091028359
 10
8.740874234404224
 20
3.703394826279875
 10
8.740663714846402
 20
3.702185780737133
 10
8.740544756877078
 20
3.700958350780957
 10
8.740507988050192
 20
3.699721908857415
 10
8.740544756877078
 20
3.698476094487787
 97
        0
 92
        3
 72
     0
 73
     1
 93
       57
 10
8.77588248333934
 20
3.687484378122523
 10
8.776890021291617
 20
3.687521146949404
 10
8.77782438206883
 20
3.687621720505283
 10
8.778694577638353
 20
3.68779583171493
 10
8.77948258406544
 20
3.688034108132268
 10
8.780206064806118
 20
3.68832717731123
 10
8.780865380339119
 20
3.688675399730515
 10
8.781451879175735
 20
3.689069042465359
 10
8.781964840358603
 20
3.689508826473149
 10
8.78242264830114
 20
3.689994391275197
 10
8.782807279068615
 20
3.690507352458057
 10
8.783137117074455
 20
3.691056721989107
 10
8.78340278987261
 20
3.691633848379657
 10
8.78360429746306
 20
3.692229359183655
 10
8.783751012291889
 20
3.692851905889769
 10
8.783833201434323
 20
3.693484185520644
 10
8.78386059781515
 20
3.694134489086266
 10
8.783787420640076
 20
3.695389315423259
 10
8.783558516668805
 20
3.69655258017174
 10
8.783375393491797
 20
3.697102310181486
 10
8.783164513455262
 20
3.697615271364346
 10
8.782898840657113
 20
3.698100475687692
 10
8.782596759510781
 20
3.698558644108927
 10
8.782248537091501
 20
3.698970671257212
 10
8.781863906324029
 20
3.699355662503376
 10
8.78142412231623
 20
3.69970352444397
 10
8.780947929960252
 20
3.700005966069004
 10
8.780416584363945
 20
3.700271638867149
 10
8.779839457973392
 20
3.700482158424986
 10
8.779216911267284
 20
3.700656269634619
 10
8.778538850842148
 20
3.700784600050016
 10
8.779656334796377
 20
3.701040900402097
 10
8.780141899598423
 20
3.701224023579114
 10
8.78059069557359
 20
3.70143490361564
 10
8.781378341521972
 20
3.701938492352425
 10
8.782001248706786
 20
3.702579783950678
 10
8.782477801541454
 20
3.703340033518247
 10
8.782660924718474
 20
3.703770445079974
 10
8.782807279068615
 20
3.704228613501202
 10
8.782999774691698
 20
3.705236151453486
 10
8.78306393989939
 20
3.706372019821156
 10
8.783018159105135
 20
3.707003938973336
 10
8.782835035928123
 20
3.707846738162041
 10
8.782679309131915
 20
3.70831391855065
 10
8.782459417128013
 20
3.708808495320072
 10
8.782184371883805
 20
3.709303072089486
 10
8.781836509943203
 20
3.70979764885891
 10
8.781406098381483
 20
3.710273841214888
 10
8.780893137198623
 20
3.710722637190056
 10
8.780288614427262
 20
3.711135024817033
 10
8.779583157621312
 20
3.711492259203691
 10
8.77876811529212
 20
3.71179434035003
 10
8.777842766482276
 20
3.712023604799995
 10
8.776798459703112
 20
3.712169959150122
 10
8.775616810541194
 20
3.712225112390445
 10
8.764973316595208
 20
3.712225112390445
 10
8.764973316595208
 20
3.687484378122523
 97
        0
 92
        3
 72
     0
 73
     1
 93
       56
 10
8.791848084737014
 20
3.687484378122523
 10
8.803022924279293
 20
3.687484378122523
 10
8.80528528856857
 20
3.687566927743657
 10
8.806320583380364
 20
3.687685885712983
 10
8.807291352505747
 20
3.687850984955249
 10
8.808188944456086
 20
3.688070516480451
 10
8.80902273167742
 20
3.688336189278605
 10
8.809782981244988
 20
3.688657015317074
 10
8.81047005363749
 20
3.689041646084546
 10
8.811083588376237
 20
3.689481430092337
 10
8.811614933972537
 20
3.689985018829133
 10
8.812072741915074
 20
3.690553133252315
 10
8.812448360715173
 20
3.691185052404498
 10
8.812741429894135
 20
3.691881136764372
 10
8.812952309930667
 20
3.692650398299316
 10
8.813089652313424
 20
3.693484185520644
 10
8.813126060661604
 20
3.694400161884421
 10
8.813098664280792
 20
3.695068849863481
 10
8.813007102692287
 20
3.695700769015666
 10
8.812860748342146
 20
3.696277895406214
 10
8.8126592407517
 20
3.696809241002518
 10
8.812411591888294
 20
3.69729444532587
 10
8.812118522709325
 20
3.697734229333659
 10
8.811779672736112
 20
3.6981282325472
 10
8.811404053936009
 20
3.698485466933862
 10
8.810982654341656
 20
3.698805932493633
 10
8.810533858366497
 20
3.699080617259164
 10
8.810048654043143
 20
3.699318893676496
 10
8.80953569286028
 20
3.699520401266955
 10
8.808445605286865
 20
3.699822842891981
 10
8.80727296809231
 20
3.699987581655563
 10
8.80727296809231
 20
3.700253254453712
 10
8.808408836459984
 20
3.700592104426929
 10
8.809416374412265
 20
3.701013504021277
 10
8.81027755801441
 20
3.70152646520414
 10
8.811001038755093
 20
3.702149372388951
 10
8.811569153178278
 20
3.702881865097015
 10
8.811798057149549
 20
3.703284880277923
 10
8.811990552772631
 20
3.703734036731783
 10
8.81224685312472
 20
3.70471381782456
 10
8.812329402745853
 20
3.705840674224854
 10
8.812292633918979
 20
3.706655716554051
 10
8.812173675949651
 20
3.707406954154247
 10
8.811981180326567
 20
3.708103038514126
 10
8.811715507528415
 20
3.708744330112373
 10
8.811386030001266
 20
3.709321456502927
 10
8.810982654341656
 20
3.709843429653159
 10
8.810524846399117
 20
3.710310610041761
 10
8.810002873248893
 20
3.710722637190056
 10
8.809425746858329
 20
3.711089244022782
 10
8.808793827706154
 20
3.711400697615185
 10
8.808115767281016
 20
3.711656997967266
 10
8.807392286540335
 20
3.71185850555772
 10
8.805816634164874
 20
3.71213355080194
 10
8.804085615471894
 20
3.712225112390445
 10
8.791848084737014
 20
3.712225112390445
 97
        0
 92
        3
 72
     0
 73
     1
 93
       58
 10
8.81738547692069
 20
3.695993838194632
 10
8.817449642128386
 20
3.694793804619259
 10
8.817632765305405
 20
3.693685693111102
 10
8.817935206930432
 20
3.692668782712754
 10
8.818338222111352
 20
3.691734421935545
 10
8.818832798880766
 20
3.690882610779465
 10
8.819409925271323
 20
3.690122361211894
 10
8.820060228836947
 20
3.689444661265454
 10
8.82077469761026
 20
3.688840138494093
 10
8.821553331591272
 20
3.688318165343853
 10
8.822377746366534
 20
3.687878381336062
 10
8.823229557522604
 20
3.68750276253596
 10
8.824117777026876
 20
3.687200681389633
 10
8.825024741423283
 20
3.686971416939667
 10
8.825940717787054
 20
3.686806678176088
 10
8.826856694150823
 20
3.686715116587582
 10
8.827763658547223
 20
3.6866783477607
 10
8.828670262464925
 20
3.686715116587582
 10
8.8295862388287
 20
3.686806678176088
 10
8.83050221519247
 20
3.686971416939667
 10
8.831399807142802
 20
3.687200681389633
 10
8.832288387125761
 20
3.68750276253596
 10
8.833149570727912
 20
3.687878381336062
 10
8.833973985503182
 20
3.688318165343853
 10
8.834743247038112
 20
3.688840138494093
 10
8.835466727778808
 20
3.689444661265454
 10
8.836117391823127
 20
3.690122361211894
 10
8.83669415773498
 20
3.690882610779465
 10
8.837189094983094
 20
3.691734421935545
 10
8.83759211016401
 20
3.692668782712754
 10
8.83789419131035
 20
3.693685693111102
 10
8.838077314487363
 20
3.694793804619259
 10
8.838141479695054
 20
3.695993838194632
 10
8.838141479695054
 20
3.712225112390445
 10
8.832022714327616
 20
3.712225112390445
 10
8.832022714327616
 20
3.696525183790929
 10
8.831967921565983
 20
3.695554054186838
 10
8.831802822323718
 20
3.694656462236499
 10
8.831519125590813
 20
3.693841419907301
 10
8.831088353550399
 20
3.693135963101355
 10
8.830511587638536
 20
3.692549824743435
 10
8.83016336521925
 20
3.692311548326099
 10
8.829778734451788
 20
3.692110040735641
 10
8.829338950443994
 20
3.691954313939439
 10
8.828862758088007
 20
3.691835355970115
 10
8.827763658547223
 20
3.691734421935545
 10
8.826664198527741
 20
3.691835355970115
 10
8.826188006171755
 20
3.691954313939439
 10
8.825748222163968
 20
3.692110040735641
 10
8.825363591396492
 20
3.692311548326099
 10
8.825015729455897
 20
3.692549824743435
 10
8.82443860306535
 20
3.693135963101355
 10
8.82400819150363
 20
3.693841419907301
 10
8.82372413429203
 20
3.694656462236499
 10
8.823559035049772
 20
3.695554054186838
 10
8.82350424228814
 20
3.696525183790929
 10
8.82350424228814
 20
3.712225112390445
 10
8.81738547692069
 20
3.712225112390445
 97
        0
 92
        3
 72
     0
 73
     1
 93
      105
 10
8.848519661321587
 20
3.699721908857415
 10
8.848547057702401
 20
3.700729446809692
 10
8.848638619290899
 20
3.7016638075869
 10
8.848785334119732
 20
3.702534003156417
 10
8.848986841710188
 20
3.703321649104806
 10
8.849234130094903
 20
3.70404549032419
 10
8.849536211241242
 20
3.704695793889807
 10
8.849884433660527
 20
3.705281932247735
 10
8.850278076395373
 20
3.705803905397976
 10
8.850708848435797
 20
3.706262073819207
 10
8.851176028824396
 20
3.706646704586681
 10
8.851679617561183
 20
3.706976542592527
 10
8.85221997512486
 20
3.707242215390675
 10
8.852788089548044
 20
3.707443722981134
 10
8.853383239873352
 20
3.707590077331262
 10
8.85399713509078
 20
3.707672626952399
 10
8.854638426689025
 20
3.707700023333217
 10
8.855435084604784
 20
3.707626846158142
 10
8.8562137185858
 20
3.707415966121616
 10
8.856955583739918
 20
3.707086488594472
 10
8.85766104054587
 20
3.706637692619306
 10
8.858302332144113
 20
3.706087962609565
 10
8.858861074121235
 20
3.705456043457378
 10
8.859327894031138
 20
3.704750586651442
 10
8.859694500863867
 20
3.70397195267043
 10
8.864741563071346
 20
3.706372019821156
 10
8.86380720229413
 20
3.707791584921724
 10
8.862790291895775
 20
3.70905578370478
 10
8.861672807941554
 20
3.710145871278195
 10
8.861077657616251
 20
3.710622063634175
 10
8.860454750431442
 20
3.711061847641964
 10
8.859804446865818
 20
3.711446478409436
 10
8.859126386440686
 20
3.711785328382657
 10
8.858411917667365
 20
3.71207839756162
 10
8.85767005251325
 20
3.712316673978957
 10
8.856900790978294
 20
3.712508809123343
 10
8.856094760616468
 20
3.712646511984804
 10
8.855251961427776
 20
3.712728701127246
 10
8.85437275389088
 20
3.712756097508052
 10
8.852962200757686
 20
3.712682920332985
 10
8.851642848734302
 20
3.712481412742531
 10
8.850397394843387
 20
3.712142562769315
 10
8.849243142062276
 20
3.711693766794151
 10
8.848171438902305
 20
3.711125652370965
 10
8.847191297330834
 20
3.710457324870597
 10
8.846293705380498
 20
3.709687702856963
 10
8.845487675018669
 20
3.708835891700883
 10
8.844773206245353
 20
3.707892518956292
 10
8.84415029906055
 20
3.706884981004014
 10
8.843618953464249
 20
3.705803905397976
 10
8.843179529935156
 20
3.704677409476369
 10
8.84284031948324
 20
3.703486748347073
 10
8.842593031098525
 20
3.702268330358273
 10
8.842446676748391
 20
3.701004131575215
 10
8.84239152350807
 20
3.699721908857415
 10
8.842446676748391
 20
3.698430313693541
 10
8.842602403544594
 20
3.697175487356546
 10
8.84286807634275
 20
3.695948057400372
 10
8.843225310729407
 20
3.694766408238449
 10
8.84369249111801
 20
3.693630539870779
 10
8.844251233095134
 20
3.692549824743435
 10
8.844901536660755
 20
3.691542286791155
 10
8.84565241378225
 20
3.690607926013936
 10
8.846504224938329
 20
3.689747102890493
 10
8.847438585715542
 20
3.688986492844222
 10
8.84846450808126
 20
3.688308792897786
 10
8.84958199203549
 20
3.687750050920675
 10
8.850782025610856
 20
3.687292242978136
 10
8.852073620774727
 20
3.68696240497229
 10
8.853447405081033
 20
3.686751524935767
 10
8.854903739008487
 20
3.6866783477607
 10
8.855645964641308
 20
3.686705744141511
 10
8.85637845734937
 20
3.686788293762647
 10
8.857825779309444
 20
3.687118131768493
 10
8.858521863669322
 20
3.687356047707135
 10
8.859208936061824
 20
3.687649477364797
 10
8.859877624040879
 20
3.687988327338013
 10
8.860518915639133
 20
3.688381970072855
 10
8.861746345595316
 20
3.68928893446925
 10
8.862872841516916
 20
3.690388034010041
 10
8.863871367501824
 20
3.691642860347032
 10
8.864329175444357
 20
3.692339305185604
 10
8.864741563071346
 20
3.693071797893668
 10
8.859960173662019
 20
3.695462492598324
 10
8.859502005240795
 20
3.69462906585569
 10
8.858943263263676
 20
3.69391459708237
 10
8.858311344111497
 20
3.693319086278374
 10
8.857624271718983
 20
3.692833881955028
 10
8.856919175391738
 20
3.692467275122302
 10
8.8562137185858
 20
3.692210974770218
 10
8.855536018639357
 20
3.692055247974015
 10
8.854903739008487
 20
3.69200009473369
 10
8.85399713509078
 20
3.692055247974015
 10
8.853172720315515
 20
3.692192590356774
 10
8.852430855161382
 20
3.692421494328046
 10
8.851771179149697
 20
3.692723935953074
 10
8.851176028824396
 20
3.693099554753173
 10
8.850663067641532
 20
3.6935299663149
 10
8.8502048992203
 20
3.694024543084323
 10
8.84981089600676
 20
3.694564900647993
 10
8.849481418479614
 20
3.69514202703855
 10
8.849206373235395
 20
3.695755561777291
 10
8.848977469264124
 20
3.69639685337554
 10
8.848803358054479
 20
3.697056529387226
 10
8.848583826529278
 20
3.698393905345349
 97
        0
 92
        3
 72
     0
 73
     1
 93
       12
 10
8.868203960935972
 20
3.687484378122523
 10
8.874322726303415
 20
3.687484378122523
 10
8.874322726303415
 20
3.697853187302988
 10
8.883638216737344
 20
3.697853187302988
 10
8.883638216737344
 20
3.687484378122523
 10
8.889756621626088
 20
3.687484378122523
 10
8.889756621626088
 20
3.712225112390445
 10
8.883638216737344
 20
3.712225112390445
 10
8.883638216737344
 20
3.703175294754672
 10
8.874322726303415
 20
3.703175294754672
 10
8.874322726303415
 20
3.712225112390445
 10
8.868203960935972
 20
3.712225112390445
 97
        0
 92
        3
 72
     0
 73
     1
 93
        8
 10
8.90572222302377
 20
3.707434350535061
 10
8.912106661189354
 20
3.707434350535061
 10
8.912106661189354
 20
3.712225112390445
 10
8.892944334725204
 20
3.712225112390445
 10
8.892944334725204
 20
3.707434350535061
 10
8.89960345765632
 20
3.707434350535061
 10
8.89960345765632
 20
3.687484378122523
 10
8.90572222302377
 20
3.687484378122523
 97
        0
 92
        3
 72
     0
 73
     1
 93
        8
 10
8.91023793963493
 20
3.687484378122523
 10
8.916897062566049
 20
3.687484378122523
 10
8.918225426556791
 20
3.69120343681793
 10
8.927265871746508
 20
3.69120343681793
 10
8.92860324770463
 20
3.687484378122523
 10
8.935253358668373
 20
3.687484378122523
 10
8.925937868234456
 20
3.712225112390445
 10
8.919553430068861
 20
3.712225112390445
 97
        0
 92
        3
 72
     0
 73
     1
 93
        6
 10
8.937909726171185
 20
3.687484378122523
 10
8.953874967090165
 20
3.687484378122523
 10
8.953874967090165
 20
3.692531440329989
 10
8.944294164336783
 20
3.692531440329989
 10
8.944294164336783
 20
3.712225112390445
 10
8.937909726171185
 20
3.712225112390445
 97
        0
 92
       18
 72
     0
 73
     1
 93
        3
 10
8.685961433372139
 20
3.709028387323959
 10
8.690486522429362
 20
3.696790856589081
 10
8.681171031995438
 20
3.696790856589081
 97
        0
 92
       18
 72
     0
 73
     1
 93
       29
 10
8.730926824818123
 20
3.709825045239723
 10
8.732401543159003
 20
3.709751868064654
 10
8.733637985082552
 20
3.709531976060762
 10
8.734169330678853
 20
3.709367237297183
 10
8.73464588351353
 20
3.709165729706731
 10
8.735076295075256
 20
3.70893646525676
 10
8.735451913875355
 20
3.708661780491237
 10
8.735772379435131
 20
3.708359699344908
 10
8.73604706420065
 20
3.708020488892986
 10
8.736276328650618
 20
3.707654242538958
 10
8.736459451827633
 20
3.70725122735805
 10
8.736697367766281
 20
3.706344262961649
 10
8.736779917387407
 20
3.705309328628555
 10
8.736715752179721
 20
3.704411736678221
 10
8.736495860175822
 20
3.703550553076075
 10
8.736322109444872
 20
3.703138525927788
 10
8.73610221744098
 20
3.702735510746881
 10
8.735836544642828
 20
3.702359891946779
 10
8.735516079083046
 20
3.70201166952749
 10
8.73514046028296
 20
3.701691203967719
 10
8.734700676275153
 20
3.701398134788755
 10
8.734196727059663
 20
3.701141834436674
 10
8.733637985082552
 20
3.70093095440015
 10
8.733006065930368
 20
3.700756843190504
 10
8.732300969603124
 20
3.700628873253811
 10
8.731512963176044
 20
3.700546323632674
 10
8.730661152019964
 20
3.700518927251856
 10
8.723205010694402
 20
3.700518927251856
 10
8.723205010694402
 20
3.709825045239723
 97
        0
 92
       18
 72
     0
 73
     1
 93
       64
 10
8.742926079135666
 20
3.700674654048065
 10
8.743027013170247
 20
3.701636411206089
 10
8.74318273996645
 20
3.702607180331494
 10
8.743402631970342
 20
3.703559925522146
 10
8.743695701149308
 20
3.70448491385329
 10
8.74405293553597
 20
3.70539187824969
 10
8.744473974651623
 20
3.706252701373143
 10
8.744959539453665
 20
3.707068104181033
 10
8.745518281430783
 20
3.707818981302527
 10
8.746150561061665
 20
3.708506053695033
 10
8.746846645421533
 20
3.709119948912468
 10
8.747615906956476
 20
3.709632910095328
 10
8.748449333699117
 20
3.710053949210987
 10
8.749365310062888
 20
3.710365402803393
 10
8.750345091155657
 20
3.710557898426476
 10
8.751398409902196
 20
3.710631075601545
 10
8.752461101094793
 20
3.710557898426476
 10
8.753441242666263
 20
3.710365402803393
 10
8.75433883461659
 20
3.710053949210987
 10
8.755163249391861
 20
3.709632910095328
 10
8.755905114545987
 20
3.709119948912468
 10
8.756583174971116
 20
3.708506053695033
 10
8.75718769774249
 20
3.707818981302527
 10
8.7577186828601
 20
3.707068104181033
 10
8.758185863248697
 20
3.706252701373143
 10
8.758579866462236
 20
3.70539187824969
 10
8.758918716435454
 20
3.70448491385329
 10
8.759184389233614
 20
3.703559925522146
 10
8.759394908791435
 20
3.702607180331494
 10
8.75953261165289
 20
3.701636411206089
 10
8.7596241732414
 20
3.700674654048065
 10
8.759651569622214
 20
3.699721908857415
 10
8.7596241732414
 20
3.698760151699384
 10
8.75953261165289
 20
3.697798394541358
 10
8.759394908791435
 20
3.696836637383325
 10
8.759184389233614
 20
3.695883892192682
 10
8.758918716435454
 20
3.69494953141547
 10
8.758579866462236
 20
3.694042927497764
 10
8.758185863248697
 20
3.693181743895615
 10
8.7577186828601
 20
3.692366701566414
 10
8.75718769774249
 20
3.691615463966218
 10
8.756583174971116
 20
3.69092839157372
 10
8.755905114545987
 20
3.69032386880235
 10
8.755163249391861
 20
3.689801895652112
 10
8.75433883461659
 20
3.689380496057764
 10
8.753441242666263
 20
3.689069042465359
 10
8.752461101094793
 20
3.688876907320968
 10
8.751398409902196
 20
3.688812742113276
 10
8.750345091155657
 20
3.688876907320968
 10
8.749365310062888
 20
3.689069042465359
 10
8.748449333699117
 20
3.689380496057764
 10
8.747615906956476
 20
3.689801895652112
 10
8.746846645421533
 20
3.69032386880235
 10
8.746150561061665
 20
3.69092839157372
 10
8.745518281430783
 20
3.691615463966218
 10
8.744959539453665
 20
3.692366701566414
 10
8.744473974651623
 20
3.693181743895615
 10
8.74405293553597
 20
3.694042927497764
 10
8.743695701149308
 20
3.69494953141547
 10
8.743402631970342
 20
3.695883892192682
 10
8.74318273996645
 20
3.696836637383325
 10
8.743027013170247
 20
3.697798394541358
 10
8.742926079135666
 20
3.698760151699384
 10
8.742898682754856
 20
3.699721908857415
 97
        0
 92
       18
 72
     0
 73
     1
 93
       26
 10
8.775085825423577
 20
3.709825045239723
 10
8.776395444522203
 20
3.709788636891533
 10
8.777522300922495
 20
3.709650934030075
 10
8.778484058080531
 20
3.709413018091438
 10
8.778905457674885
 20
3.709238906881792
 10
8.779271704028908
 20
3.709028387323959
 10
8.779601542034756
 20
3.708790110906623
 10
8.779885599246338
 20
3.708506053695033
 10
8.780123515184986
 20
3.708176215689191
 10
8.780316010808065
 20
3.707809969335162
 10
8.78047173760427
 20
3.707388569740813
 10
8.780581683606227
 20
3.706930761798271
 10
8.780673245194734
 20
3.705840674224854
 10
8.78057231116015
 20
3.704887929034201
 10
8.780453353190833
 20
3.704457517472476
 10
8.780279241981184
 20
3.704054502291569
 10
8.780068722423357
 20
3.703669871524095
 10
8.779812061592578
 20
3.703321649104806
 10
8.77917113047303
 20
3.702708114366058
 10
8.77837411207857
 20
3.702222549564014
 10
8.777906931689971
 20
3.702030053940931
 10
8.777412354920541
 20
3.701874327144731
 10
8.77631325537976
 20
3.701654795619526
 10
8.775085825423577
 20
3.701581257965767
 10
8.76736401129986
 20
3.701581257965767
 10
8.76736401129986
 20
3.709825045239723
 97
        0
 92
       18
 72
     0
 73
     1
 93
       28
 10
8.775085825423577
 20
3.699456236059255
 10
8.776578928177916
 20
3.699355662503376
 10
8.777879535309157
 20
3.699071605291787
 10
8.778447289253638
 20
3.698860725255263
 10
8.778969622882572
 20
3.698613436870553
 10
8.779445815238555
 20
3.698320367691593
 10
8.779867214832901
 20
3.697990890164441
 10
8.780242833632997
 20
3.697624283331714
 10
8.78057231116015
 20
3.697221268150801
 10
8.780847356404369
 20
3.696781484143004
 10
8.781066887929573
 20
3.696314303754405
 10
8.781240999139218
 20
3.695810715017609
 10
8.781369329554606
 20
3.695279369421312
 10
8.781469903110478
 20
3.694134489086266
 10
8.781387713968046
 20
3.693328458724442
 10
8.781158809996777
 20
3.692531440329989
 10
8.780755434337161
 20
3.691762178795047
 10
8.78016929597924
 20
3.691075106402548
 10
8.779812061592578
 20
3.690763652810141
 10
8.779400034444299
 20
3.690479595598552
 10
8.778941866023068
 20
3.690232307213839
 10
8.778438277286272
 20
3.690012415209945
 10
8.777879535309157
 20
3.68984767644637
 10
8.777265640091727
 20
3.689719346030985
 10
8.776596952112655
 20
3.689637156888546
 10
8.77588248333934
 20
3.689609400029031
 10
8.76736401129986
 20
3.689609400029031
 10
8.76736401129986
 20
3.699456236059255
 97
        0
 92
       18
 72
     0
 73
     1
 93
       19
 10
8.803022924279293
 20
3.707434350535061
 10
8.803691612258358
 20
3.707406954154247
 10
8.804305507475796
 20
3.707324404533114
 10
8.80484586503947
 20
3.70716867773691
 10
8.805313045428075
 20
3.706939773765646
 10
8.805688664228176
 20
3.706619308205866
 10
8.805972360961075
 20
3.706197908611512
 10
8.806146472170719
 20
3.705675574982581
 10
8.80621063737841
 20
3.705043655830403
 10
8.806146472170719
 20
3.704393352264784
 10
8.805972360961075
 20
3.703834610287666
 10
8.805688664228176
 20
3.703376802345127
 10
8.805313045428075
 20
3.703010195512399
 10
8.80484586503947
 20
3.702726138300814
 10
8.804305507475796
 20
3.702534003156417
 10
8.803691612258358
 20
3.702415045187099
 10
8.803022924279293
 20
3.70237827636022
 10
8.797701177306312
 20
3.70237827636022
 10
8.797701177306312
 20
3.707434350535061
 97
        0
 92
       18
 72
     0
 73
     1
 93
       19
 10
8.804085615471894
 20
3.697853187302988
 10
8.804818468658656
 20
3.697807406508731
 10
8.80544101536476
 20
3.697661052158594
 10
8.805944964580254
 20
3.697422775741261
 10
8.806347979761167
 20
3.69709293773542
 10
8.80664104894013
 20
3.696671538141061
 10
8.806851928976661
 20
3.696176961371644
 10
8.80697088694597
 20
3.695590823013712
 10
8.807007655772855
 20
3.694931507480717
 10
8.80697088694597
 20
3.694345008644101
 10
8.806833544563213
 20
3.693795639113048
 10
8.806586256178509
 20
3.693301062343629
 10
8.80621063737841
 20
3.69287029030321
 10
8.805688664228176
 20
3.692504043949179
 10
8.80499221938961
 20
3.692238371151026
 10
8.80410399988534
 20
3.692064259941388
 10
8.803022924279293
 20
3.69200009473369
 10
8.79796685010446
 20
3.69200009473369
 10
8.79796685010446
 20
3.697853187302988
 97
        0
 92
       18
 72
     0
 73
     1
 93
        3
 10
8.92275015513534
 20
3.706106347023006
 10
8.9256721954363
 20
3.695728165396476
 10
8.919553430068861
 20
3.695728165396476
 97
        0
 75
     0
 76
     1
 98
        0
  0
HATCH
  5
80
102
{ACAD_REACTORS
330
7F
102
}
330
1F
100
AcDbEntity
  8
XR$1$TB_1413_1
  6
AUSGEZOGEN
 62
     3
440
 33554687
370
    35
100
AcDbHatch
 10
0.0
 20
0.0
 30
0.0
210
0.0
220
0.0
230
1.0
  2
SOLID
 70
     1
 71
     0
 91
        1
 92
        3
 72
     0
 73
     1
 93
       22
 10
8.646052476579685
 20
3.687209693356999
 10
8.661221059582903
 20
3.687209693356999
 10
8.6599388368651
 20
3.688052492545709
 10
8.658693022495488
 20
3.688968468909477
 10
8.657492988920113
 20
3.689976006861756
 10
8.65635712055244
 20
3.691075106402548
 10
8.655303801805921
 20
3.692265767531842
 10
8.654333032680517
 20
3.693575747109155
 10
8.653462837111004
 20
3.694995312209719
 10
8.652702587543429
 20
3.696525183790929
 10
8.652235407154823
 20
3.697523709775831
 10
8.65183239197391
 20
3.69853124772811
 10
8.651484169554616
 20
3.699538785680395
 10
8.651191100375664
 20
3.700546323632674
 10
8.650788085194751
 20
3.702570771983299
 10
8.650604962017724
 20
3.704576475441796
 10
8.650641370365921
 20
3.706555142998172
 10
8.650870634815883
 20
3.708497041727667
 10
8.651292034410236
 20
3.710393159662903
 10
8.651575731143138
 20
3.71131814799405
 10
8.651905569148976
 20
3.712225112390445
 10
8.646052476579685
 20
3.712225112390445
 97
        0
 75
     0
 76
     1
 98
        0
  0
HATCH
  5
81
102
{ACAD_REACTORS
330
7F
102
}
330
1F
100
AcDbEntity
  8
XR$1$TB_1413_1
  6
AUSGEZOGEN
 62
     3
440
 33554687
370
    35
100
AcDbHatch
 10
0.0
 20
0.0
 30
0.0
210
0.0
220
0.0
230
1.0
  2
SOLID
 70
     1
 71
     0
 91
        1
 92
        3
 72
     0
 73
     1
 93
       24
 10
8.65861984532041
 20
3.69092839157372
 10
8.659828890863146
 20
3.689810907619491
 10
8.661156894375209
 20
3.688803369667208
 10
8.662594843889218
 20
3.687942546543762
 10
8.664143099883868
 20
3.687209693356999
 10
8.671058523167073
 20
3.687209693356999
 10
8.671058523167073
 20
3.712225112390445
 10
8.657492988920113
 20
3.712225112390445
 10
8.656934246943003
 20
3.711583820792197
 10
8.656458054587029
 20
3.710860340051508
 10
8.655633639811763
 20
3.709293699643422
 10
8.655258021011667
 20
3.708497041727667
 10
8.654928183005818
 20
3.707681638919769
 10
8.6546534982403
 20
3.706866596590573
 10
8.654424594269024
 20
3.706042181815314
 10
8.654103768230549
 20
3.704393352264784
 10
8.653966425847788
 20
3.702744522714253
 10
8.654003194674674
 20
3.701095693163716
 10
8.654204702265126
 20
3.699483632440075
 10
8.654570948619162
 20
3.697898968097237
 10
8.655093282248085
 20
3.696360445027354
 10
8.655770982194527
 20
3.694885726686464
 10
8.656586385002413
 20
3.693474813074576
 10
8.65753876971437
 20
3.692155821529894
 97
        0
 75
     0
 76
     1
 98
        0
  0
MTEXT
  5
82
330
1F
100
AcDbEntity
  8
XR$1$TB_1413_1
  6
AUSGEZOGEN
 62
     7
440
 33554687
370
    -3
100
AcDbMText
 10
8.552658
 20
4.970459
 30
0.0
 40
0.025
 41
0.405443
 46
0.0
 71
     7
 72
     5
  1
\W1.00;BAUKERAMIKFASSADE
  7
ARIAL
 73
     1
 44
1.0
  0
MTEXT
  5
83
330
1F
100
AcDbEntity
  8
XR$1$TB_1413_1
  6
AUSGEZOGEN
 62
     7
440
 33554687
370
    -3
100
AcDbMText
 10
8.55159
 20
4.912892
 30
0.0
 40
0.0175
 41
0.434598
 46
0.0
 71
     7
 72
     5
  1
\W1.00;FACADE CERAMIQUE DE BATIMENT
  7
ARIAL
 73
     1
 44
1.0
  0
MTEXT
  5
84
330
1F
100
AcDbEntity
  8
XR$1$TB_1413_1
  6
AUSGEZOGEN
 62
     7
440
 33554687
370
    -3
100
AcDbMText
 10
8.55159
 20
4.939142
 30
0.0
 40
0.0175
 41
0.457071
 46
0.0
 71
     7
 72
     5
  1
\W1.00;ARCHITECTURAL CERAMICS FACADE
  7
ARIAL
 73
     1
 44
1.0
  0
MTEXT
  5
85
330
1F
100
AcDbEntity
  8
XR$1$TB_1413_1
  6
AUSGEZOGEN
 62
     7
440
 33554687
370
    -3
100
AcDbMText
 10
8.550762
 20
4.852544
 30
0.0
 40
0.025
 41
0.271273
 46
0.0
 71
     7
 72
     5
  1
\W1.00;FENSTERBANK
  7
ARIAL
 73
     1
 44
1.0
  0
MTEXT
  5
86
330
1F
100
AcDbEntity
  8
XR$1$TB_1413_1
  6
AUSGEZOGEN
 62
     7
440
 33554687
370
    -3
100
AcDbMText
 10
8.550762
 20
4.823889
 30
0.0
 40
0.0175
 41
0.17325
 46
0.0
 71
     7
 72
     5
  1
\W1.00;WINDOW SILL
  7
ARIAL
 73
     1
 44
1.0
  0
MTEXT
  5
87
330
1F
100
AcDbEntity
  8
XR$1$TB_1413_1
  6
AUSGEZOGEN
 62
     7
440
 33554687
370
    -3
100
AcDbMText
 10
8.550762
 20
4.797639
 30
0.0
 40
0.0175
 41
0.244135
 46
0.0
 71
     7
 72
     5
  1
\W1.00;APPUI DE FENETRE
  7
ARIAL
 73
     1
 44
1.0
  0
MTEXT
  5
88
330
1F
100
AcDbEntity
  8
XR$1$TB_1413_1
  6
AUSGEZOGEN
 62
     7
440
 33554687
370
    -3
100
AcDbMText
 10
8.550212
 20
3.80549
 30
0.0
 40
0.0175
 41
0.743802
 46
0.0
 71
     7
 72
     5
  1
\W1.01;Die Verlegevorschriften des Klebemittelherstellers sind einzuhalten!
  7
ARIAL
 73
     1
 44
1.0
  0
MTEXT
  5
89
330
1F
100
AcDbEntity
  8
XR$1$TB_1413_1
  6
AUSGEZOGEN
 62
     7
440
 33554687
370
    -3
100
AcDbMText
 10
8.550212
 20
3.776102
 30
0.0
 40
0.0175
 41
0.766251
 46
0.0
 71
     7
 72
     5
  1
\W1.00;The laying instructions of the adhesive producer have to be observed!
  7
ARIAL
 73
     1
 44
1.0
  0
MTEXT
  5
8A
330
1F
100
AcDbEntity
  8
XR$1$TB_1413_1
  6
AUSGEZOGEN
 62
     7
440
 33554687
370
    -3
100
AcDbMText
 10
8.550212
 20
3.746714
 30
0.0
 40
0.0175
 41
0.832461
 46
0.0
 71
     7
 72
     5
  1
\W1.01;Les instructions de pose du fabricant de l'adzhésive doivent être observées!
  7
ARIAL
 73
     1
 44
1.0
  0
LINE
  5
8B
330
1F
100
AcDbEntity
  8
XR$1$TB_1413_1
  6
AUSGEZOGEN
 62
     1
440
 33554687
370
    70
100
AcDbLine
 10
8.432607
 20
3.563845
 30
0.0
 11
9.482607
 21
3.563845
 31
0.0
  0
MTEXT
  5
8C
330
1F
100
AcDbEntity
  8
XR$1$TB_1413_1
  6
AUSGEZOGEN
 62
     7
440
 33554687
370
    -3
100
AcDbMText
 10
8.550415
 20
3.631224
 30
0.0
 40
0.009
 41
0.89646
 46
0.0
 71
     7
 72
     5
  1
\W0.85;THESE ARE NOT BINDING CONSTRUCTION PROPOSALS WHICH HAVE TO BE VERIFIED FOR EACH INDIVIDUAL PROJECT AS REGARDS APPLICABILITY AND CORRECTNESS.
  7
ARIAL
 73
     1
 44
1.0
  0
MTEXT
  5
8D
330
1F
100
AcDbEntity
  8
XR$1$TB_1413_1
  6
AUSGEZOGEN
 62
     7
440
 33554687
370
    -3
100
AcDbMText
 10
8.550415
 20
3.649223
 30
0.0
 40
0.009
 41
0.8975
 46
0.0
 71
     7
 72
     5
  1
\W0.91;DIES SIND UNVERBINDLICHE KONSTRUKTIONSVORSCHLÄGE, DIE FÜR JEDES PROJEKT AUF ANWENDBARKEIT UND RICHTIGKEIT GEPRÜFT WERDEN MÜSSEN.
  7
ARIAL
 73
     1
 44
1.0
  0
MTEXT
  5
8E
330
1F
100
AcDbEntity
  8
XR$1$TB_1413_1
  6
AUSGEZOGEN
 62
     7
440
 33554687
370
    -3
100
AcDbMText
 10
8.550415
 20
3.613224
 30
0.0
 40
0.009
 41
0.895804
 46
0.0
 71
     7
 72
     5
  1
\W0.80;IL S' AGIT DE PROPOSITIONS DE CONSTRUCTION SANS ENGAGEMENT DE NOTRE PART QUI DOIVENT ETRE VERIFIEES POUR CHAQUE PROJET A LEUR EXACTITUDE ET FAISABILITE.
  7
ARIAL
 73
     1
 44
1.0
  0
MTEXT
  5
8F
330
1F
100
AcDbEntity
  8
XR$1$TB_1413_1
  6
AUSGEZOGEN
 62
     7
440
 33554687
370
    -3
100
AcDbMText
 10
8.965075
 20
3.687152
 30
0.0
 40
0.009
 41
0.348436
 46
0.0
 71
     7
 72
     5
  1
\W0.92;Tel. 09435 / 391 3238   e-mail: as.fassade@deutsche-steinzeug.de
  7
ARIAL
 73
     1
 44
1.0
  0
LINE
  5
90
330
1F
100
AcDbEntity
  8
XR$1$TB_1413_1
  6
AUSGEZOGEN
 62
    52
440
 33554687
370
    70
100
AcDbLine
 10
8.432596
 20
5.04883
 30
0.0
 11
8.432596
 21
3.563845
 31
0.0
  0
LINE
  5
91
330
1F
100
AcDbEntity
  8
XR$1$TB_1413_1
  6
AUSGEZOGEN
 62
    52
440
 33554687
370
    70
100
AcDbLine
 10
9.482586
 20
3.563845
 30
0.0
 11
9.482586
 21
5.04883
 31
0.0
  0
LINE
  5
92
330
1F
100
AcDbEntity
  8
XR$1$TB_1413_1
  6
AUSGEZOGEN
 62
    52
440
 33554687
370
    70
100
AcDbLine
 10
9.482586
 20
5.04883
 30
0.0
 11
8.432596
 21
5.04883
 31
0.0
  0
HATCH
  5
94
330
1F
100
AcDbEntity
  8
XR$1$TB_1413_1
  6
STRICHPUNKT2_S5
 62
     7
440
 33554687
370
    -3
100
AcDbHatch
 10
0.0
 20
0.0
 30
0.0
210
0.0
220
0.0
230
1.0
  2
SCHRAFFUR_35
 70
     0
 71
     0
 91
        1
 92
        0
 93
        4
 72
     1
 10
9.203971165245983
 20
3.899255081283012
 11
9.203971367985298
 21
4.432716891477656
 72
     1
 10
9.203971367985298
 20
4.432716891477656
 11
8.903971267144659
 21
4.432716997711196
 72
     1
 10
8.903971267144659
 20
4.432716997711196
 11
8.903971064405344
 21
3.899255187516542
 72
     1
 10
8.903971064405344
 20
3.899255187516542
 11
9.203971165245983
 21
3.899255081283012
 97
        0
 75
     0
 76
     2
 52
315.0
 41
0.005
 77
     0
 78
     2
 53
44.99999999999999
 43
0.0
 44
0.0
 45
-0.0353553390593274
 46
0.0353553390593274
 79
     0
 53
44.99999999999999
 43
-0.0176776695296637
 44
0.0176776695296637
 45
-0.0353553390593274
 46
0.0353553390593274
 79
     0
 98
        0
1001
ACAD
1010
0.0
1020
0.0
1030
0.0
1001
NEM_ODX
1002
{
1000
BZM_DEPEND
1070
     1
1000
BZM_SCALE
1040
5.0
1000
SCHRAFFUR_35
1002
}
  0
HATCH
  5
95
330
1F
100
AcDbEntity
  8
XR$1$TB_1413_1
  6
AUSGEZOGEN
 62
    14
440
 33554687
370
    -3
100
AcDbHatch
 10
0.0
 20
0.0
 30
0.0
210
0.0
220
0.0
230
1.0
  2
_USER
 70
     0
 71
     0
 91
        1
 92
        0
 93
        4
 72
     1
 10
8.903971267144659
 20
4.432716997711196
 11
8.861971267144659
 21
4.432716997711196
 72
     1
 10
8.861971267144657
 20
4.432716997711196
 11
8.861971267144657
 21
3.899254806833255
 72
     1
 10
8.861971267144657
 20
3.899254806833255
 11
8.903971267144657
 21
3.899254806833255
 72
     1
 10
8.903971267144659
 20
3.899254806833255
 11
8.903971267144659
 21
4.432716997711196
 97
        0
 75
     0
 76
     0
 52
90.0
 41
0.06
 77
     1
 78
     2
 53
90.00000000000001
 43
0.0
 44
0.0
 45
-0.06
 46
0.0
 79
     0
 53
180.0
 43
0.0
 44
0.0
 45
0.0
 46
-0.06
 79
     0
 98
        0
1001
ACAD
1010
0.0
1020
0.0
1030
0.0
1001
NEM_ODX
1002
{
1000
BZM_DEPEND
1070
     1
1000
BZM_SCALE
1040
5.0
1000
MUSTER_415
1002
}
  0
HATCH
  5
96
330
1F
100
AcDbEntity
  8
XR$1$TB_1413_1
  6
AUSGEZOGEN
 62
     7
440
 33554687
370
    -3
100
AcDbHatch
 10
0.0
 20
0.0
 30
0.0
210
0.0
220
0.0
230
1.0
  2
SCHRAFFUR_28
 70
     0
 71
     0
 91
        1
 92
        0
 93
        4
 72
     1
 10
9.203971274369739
 20
4.44271692111943
 11
9.20397128145195
 21
4.46271686183595
 72
     1
 10
9.20397128145195
 20
4.462716861835951
 11
9.087971270849692
 21
4.462716902912911
 72
     1
 10
9.087971270849692
 20
4.462716902912911
 11
9.08797126376748
 21
4.442716962196381
 72
     1
 10
9.08797126376748
 20
4.442716962196381
 11
9.203971274369739
 21
4.44271692111943
 97
        0
 75
     0
 76
     2
 52
45.0
 41
0.005
 77
     0
 78
     2
 53
135.0
 43
0.0
 44
0.0
 45
-0.0106066017177982
 46
-0.0106066017177982
 79
     0
 53
135.0
 43
-0.0053033008588991
 44
-0.0053033008588991
 45
-0.0106066017177982
 46
-0.0106066017177982
 79
     0
 98
        0
1001
ACAD
1010
0.0
1020
0.0
1030
0.0
1001
NEM_ODX
1002
{
1000
BZM_DEPEND
1070
     1
1000
BZM_SCALE
1040
5.0
1000
SCHRAFFUR_28
1002
}
  0
HATCH
  5
97
330
1F
100
AcDbEntity
  8
XR$1$TB_1413_1
  6
AUSGEZOGEN
 62
     7
440
 33554687
370
    -3
100
AcDbHatch
 10
0.0
 20
0.0
 30
0.0
210
0.0
220
0.0
230
1.0
  2
_USER
 70
     0
 71
     0
 91
        1
 92
        0
 93
        4
 72
     1
 10
9.007971267144653
 20
4.432716960883581
 11
9.087971267144653
 21
4.432716960883581
 72
     1
 10
9.087971267144653
 20
4.432716960883581
 11
9.087971275231183
 21
4.442716932554649
 72
     1
 10
9.087971275231183
 20
4.442716932554649
 11
9.00797126900158
 21
4.442716950778446
 72
     1
 10
9.007971269001578
 20
4.442716950778446
 11
9.00797126714465
 21
4.432716960883582
 97
        0
 75
     0
 76
     0
 52
90.0
 41
0.013
 77
     1
 78
     2
 53
90.00000000000001
 43
9.007971267144653
 44
4.432716960883581
 45
-0.013
 46
0.0
 79
     0
 53
180.0
 43
9.007971267144653
 44
4.432716960883581
 45
0.0
 46
-0.013
 79
     0
 98
        0
1001
ACAD
1010
9007.971267
1020
4432.716961
1030
0.0
1001
NEM_ODX
1002
{
1000
BZM_DEPEND
1070
     0
1000
MUSTER_447
1002
}
  0
HATCH
  5
98
330
1F
100
AcDbEntity
  8
XR$1$TB_1413_1
  6
AUSGEZOGEN
 62
    18
420
        0
440
 33554687
370
    -3
100
AcDbHatch
 10
0.0
 20
0.0
 30
0.0
210
0.0
220
0.0
230
1.0
  2
SOLID
 70
     1
 71
     0
 91
        1
 92
        3
 72
     0
 73
     1
 93
        8
 10
9.016728636147423
 20
4.496171304767255
 10
9.016728637209757
 20
4.499171304767255
 10
9.00672863720976
 20
4.499171308308366
 10
8.985515426262321
 20
4.477958112384615
 10
8.98551542378354
 20
4.470958112384616
 10
8.988515423876482
 20
4.471220577312856
 10
8.988515425822287
 20
4.476715470635166
 10
9.007971278927663
 20
4.496171309961456
 97
        0
 75
     0
 76
     1
 98
        0
  0
HATCH
  5
99
330
1F
100
AcDbEntity
  8
XR$1$TB_1413_1
  6
AUSGEZOGEN
 62
    18
420
        0
440
 33554687
370
    -3
100
AcDbHatch
 10
0.0
 20
0.0
 30
0.0
210
0.0
220
0.0
230
1.0
  2
SOLID
 70
     1
 71
     0
 91
        1
 92
        3
 72
     0
 73
     1
 93
       10
 10
8.795707826248657
 20
4.448340707750379
 10
9.005971277717823
 20
4.466736301081116
 10
9.005971283029497
 20
4.481736301081116
 10
9.002971283029497
 20
4.481736302143446
 10
9.002971278691273
 20
4.469485295665506
 10
8.79270782722211
 20
4.451089702334769
 10
8.79270780541829
 20
4.38951641225551
 10
8.808971267144658
 20
4.405779862463719
 10
8.806849947552282
 20
4.407901183558469
 10
8.795707807982993
 20
4.3967590518803
 97
        0
 75
     0
 76
     1
 98
        0
  0
HATCH
  5
9A
330
1F
100
AcDbEntity
  8
XR$1$TB_1413_1
  6
AUSGEZOGEN
 62
     9
440
 33554687
370
    -3
100
AcDbHatch
 10
0.0
 20
0.0
 30
0.0
210
0.0
220
0.0
230
1.0
  2
SOLID
 70
     1
 71
     0
 91
        1
 92
        3
 72
     0
 73
     1
 93
        4
 10
8.828971267144658
 20
4.432716997711196
 10
8.828971267144658
 20
3.899254806833255
 10
8.846971267144658
 20
3.899254806833255
 10
8.846971267144658
 20
4.432716997711196
 97
        0
 75
     0
 76
     1
 98
        0
  0
LINE
  5
9B
330
1F
100
AcDbEntity
  8
XR$1$TB_1413_1
  6
AUSGEZOGEN
 62
     7
440
 33554687
370
    -3
100
AcDbLine
 10
9.005971
 20
4.466736
 30
0.0
 11
9.005971
 21
4.481736
 31
0.0
  0
LINE
  5
9C
330
1F
100
AcDbEntity
  8
XR$1$TB_1413_1
  6
AUSGEZOGEN
 62
     7
440
 33554687
370
    -3
100
AcDbLine
 10
9.002971
 20
4.481736
 30
0.0
 11
9.005971
 21
4.481736
 31
0.0
  0
LINE
  5
9D
330
1F
100
AcDbEntity
  8
XR$1$TB_1413_1
  6
AUSGEZOGEN
 62
     7
440
 33554687
370
    -3
100
AcDbLine
 10
9.002971
 20
4.469485
 30
0.0
 11
9.002971
 21
4.481736
 31
0.0
  0
LINE
  5
9E
330
1F
100
AcDbEntity
  8
XR$1$TB_1413_1
  6
AUSGEZOGEN
 62
     7
440
 33554687
370
    -3
100
AcDbLine
 10
9.006729
 20
4.499171
 30
0.0
 11
9.016729
 21
4.499171
 31
0.0
  0
LINE
  5
9F
330
1F
100
AcDbEntity
  8
XR$1$TB_1413_1
  6
AUSGEZOGEN
 62
     7
440
 33554687
370
    -3
100
AcDbLine
 10
9.006729
 20
4.499171
 30
0.0
 11
8.985515
 21
4.477958
 31
0.0
  0
LINE
  5
A0
330
1F
100
AcDbEntity
  8
XR$1$TB_1413_1
  6
AUSGEZOGEN
 62
     7
440
 33554687
370
    -3
100
AcDbLine
 10
9.007971
 20
4.496171
 30
0.0
 11
8.988515
 21
4.476715
 31
0.0
  0
LINE
  5
A1
330
1F
100
AcDbEntity
  8
XR$1$TB_1413_1
  6
AUSGEZOGEN
 62
     7
440
 33554687
370
    -3
100
AcDbLine
 10
9.007971
 20
4.496171
 30
0.0
 11
9.016729
 21
4.496171
 31
0.0
  0
LINE
  5
A2
330
1F
100
AcDbEntity
  8
XR$1$TB_1413_1
  6
AUSGEZOGEN
 62
     7
440
 33554687
370
    -3
100
AcDbLine
 10
9.016729
 20
4.496171
 30
0.0
 11
9.016729
 21
4.499171
 31
0.0
  0
LINE
  5
A3
330
1F
100
AcDbEntity
  8
XR$1$TB_1413_1
  6
AUSGEZOGEN
 62
    32
440
 33554687
370
    50
100
AcDbLine
 10
9.203971
 20
4.432717
 30
0.0
 11
8.903971
 21
4.432717
 31
0.0
  0
LINE
  5
A4
330
1F
100
AcDbEntity
  8
XR$1$TB_1413_1
  6
AUSGEZOGEN
 62
     3
440
 33554687
370
    25
100
AcDbLine
 10
9.007971
 20
4.496171
 30
0.0
 11
9.007971
 21
4.432717
 31
0.0
  0
LINE
  5
A5
330
1F
100
AcDbEntity
  8
XR$1$TB_1413_1
  6
AUSGEZOGEN
 62
     7
440
 33554687
370
    -3
100
AcDbLine
 10
9.203971
 20
4.721466
 30
0.0
 11
9.203971
 21
4.462717
 31
0.0
  0
LINE
  5
A6
330
1F
100
AcDbEntity
  8
XR$1$TB_1413_1
  6
AUSGEZOGEN
 62
     7
440
 33554687
370
    -3
100
AcDbLine
 10
9.203971
 20
4.442717
 30
0.0
 11
9.203971
 21
4.432717
 31
0.0
  0
LINE
  5
A7
330
1F
100
AcDbEntity
  8
XR$1$TB_1413_1
  6
AUSGEZOGEN
 62
     7
440
 33554687
370
    -3
100
AcDbLine
 10
8.985515
 20
4.477958
 30
0.0
 11
8.985515
 21
4.470958
 31
0.0
  0
LINE
  5
A8
330
1F
100
AcDbEntity
  8
XR$1$TB_1413_1
  6
AUSGEZOGEN
 62
     7
440
 33554687
370
    -3
100
AcDbLine
 10
8.988515
 20
4.476715
 30
0.0
 11
8.988515
 21
4.471221
 31
0.0
  0
LINE
  5
A9
330
1F
100
AcDbEntity
  8
XR$1$TB_1413_1
  6
AUSGEZOGEN
 62
     7
440
 33554687
370
    -3
100
AcDbLine
 10
8.988515
 20
4.471221
 30
0.0
 11
8.985515
 21
4.470958
 31
0.0
  0
LINE
  5
AA
330
1F
100
AcDbEntity
  8
XR$1$TB_1413_1
  6
STRICHPUNKT2_S5
 62
     7
440
 33554687
370
    -3
100
AcDbLine
 10
8.733971
 20
4.721466
 30
0.0
 11
9.223971
 21
4.721466
 31
0.0
  0
LINE
  5
AB
330
1F
100
AcDbEntity
  8
XR$1$TB_1413_1
  6
AUSGEZOGEN
 62
    52
440
 33554687
370
    -3
100
AcDbLine
 10
9.001971
 20
4.432717
 30
0.0
 11
8.994971
 21
4.465774
 31
0.0
  0
LINE
  5
AC
330
1F
100
AcDbEntity
  8
XR$1$TB_1413_1
  6
AUSGEZOGEN
 62
    52
440
 33554687
370
    -3
100
AcDbLine
 10
8.994971
 20
4.465774
 30
0.0
 11
8.987971
 21
4.432717
 31
0.0
  0
LINE
  5
AD
330
1F
100
AcDbEntity
  8
XR$1$TB_1413_1
  6
AUSGEZOGEN
 62
    52
440
 33554687
370
    -3
100
AcDbLine
 10
8.987971
 20
4.432717
 30
0.0
 11
8.980971
 21
4.464549
 31
0.0
  0
LINE
  5
AE
330
1F
100
AcDbEntity
  8
XR$1$TB_1413_1
  6
AUSGEZOGEN
 62
    52
440
 33554687
370
    -3
100
AcDbLine
 10
8.980971
 20
4.464549
 30
0.0
 11
8.973971
 21
4.432717
 31
0.0
  0
LINE
  5
AF
330
1F
100
AcDbEntity
  8
XR$1$TB_1413_1
  6
AUSGEZOGEN
 62
    52
440
 33554687
370
    -3
100
AcDbLine
 10
8.973971
 20
4.432717
 30
0.0
 11
8.966971
 21
4.463324
 31
0.0
  0
LINE
  5
B0
330
1F
100
AcDbEntity
  8
XR$1$TB_1413_1
  6
AUSGEZOGEN
 62
    52
440
 33554687
370
    -3
100
AcDbLine
 10
8.966971
 20
4.463324
 30
0.0
 11
8.959971
 21
4.432717
 31
0.0
  0
LINE
  5
B1
330
1F
100
AcDbEntity
  8
XR$1$TB_1413_1
  6
AUSGEZOGEN
 62
    52
440
 33554687
370
    -3
100
AcDbLine
 10
8.959971
 20
4.432717
 30
0.0
 11
8.952971
 21
4.462099
 31
0.0
  0
LINE
  5
B2
330
1F
100
AcDbEntity
  8
XR$1$TB_1413_1
  6
AUSGEZOGEN
 62
    52
440
 33554687
370
    -3
100
AcDbLine
 10
8.952971
 20
4.462099
 30
0.0
 11
8.945971
 21
4.432717
 31
0.0
  0
LINE
  5
B3
330
1F
100
AcDbEntity
  8
XR$1$TB_1413_1
  6
AUSGEZOGEN
 62
    52
440
 33554687
370
    -3
100
AcDbLine
 10
8.945971
 20
4.432717
 30
0.0
 11
8.938971
 21
4.460875
 31
0.0
  0
LINE
  5
B4
330
1F
100
AcDbEntity
  8
XR$1$TB_1413_1
  6
AUSGEZOGEN
 62
    52
440
 33554687
370
    -3
100
AcDbLine
 10
8.938971
 20
4.460875
 30
0.0
 11
8.931971
 21
4.432717
 31
0.0
  0
LINE
  5
B5
330
1F
100
AcDbEntity
  8
XR$1$TB_1413_1
  6
AUSGEZOGEN
 62
    52
440
 33554687
370
    -3
100
AcDbLine
 10
8.931971
 20
4.432717
 30
0.0
 11
8.924971
 21
4.45965
 31
0.0
  0
LINE
  5
B6
330
1F
100
AcDbEntity
  8
XR$1$TB_1413_1
  6
AUSGEZOGEN
 62
    52
440
 33554687
370
    -3
100
AcDbLine
 10
8.924971
 20
4.45965
 30
0.0
 11
8.917971
 21
4.432717
 31
0.0
  0
LINE
  5
B7
330
1F
100
AcDbEntity
  8
XR$1$TB_1413_1
  6
AUSGEZOGEN
 62
    52
440
 33554687
370
    -3
100
AcDbLine
 10
8.917971
 20
4.432717
 30
0.0
 11
8.910971
 21
4.458425
 31
0.0
  0
LINE
  5
B8
330
1F
100
AcDbEntity
  8
XR$1$TB_1413_1
  6
AUSGEZOGEN
 62
    52
440
 33554687
370
    -3
100
AcDbLine
 10
8.910971
 20
4.458425
 30
0.0
 11
8.903971
 21
4.432717
 31
0.0
  0
LINE
  5
B9
330
1F
100
AcDbEntity
  8
XR$1$TB_1413_1
  6
AUSGEZOGEN
 62
    52
440
 33554687
370
    -3
100
AcDbLine
 10
9.007788
 20
4.466895
 30
0.0
 11
9.001971
 21
4.432717
 31
0.0
  0
LINE
  5
BA
330
1F
100
AcDbEntity
  8
XR$1$TB_1413_1
  6
AUSGEZOGEN
 62
     7
440
 33554687
370
    -3
100
AcDbLine
 10
9.002971
 20
4.469485
 30
0.0
 11
8.792708
 21
4.45109
 31
0.0
  0
LINE
  5
BB
330
1F
100
AcDbEntity
  8
XR$1$TB_1413_1
  6
AUSGEZOGEN
 62
     7
440
 33554687
370
    -3
100
AcDbLine
 10
8.792708
 20
4.45109
 30
0.0
 11
8.792708
 21
4.389516
 31
0.0
  0
LINE
  5
BC
330
1F
100
AcDbEntity
  8
XR$1$TB_1413_1
  6
AUSGEZOGEN
 62
     7
440
 33554687
370
    -3
100
AcDbLine
 10
8.792708
 20
4.389516
 30
0.0
 11
8.808971
 21
4.40578
 31
0.0
  0
LINE
  5
BD
330
1F
100
AcDbEntity
  8
XR$1$TB_1413_1
  6
AUSGEZOGEN
 62
     7
440
 33554687
370
    -3
100
AcDbLine
 10
8.795708
 20
4.396759
 30
0.0
 11
8.80685
 21
4.407901
 31
0.0
  0
LINE
  5
BE
330
1F
100
AcDbEntity
  8
XR$1$TB_1413_1
  6
AUSGEZOGEN
 62
     7
440
 33554687
370
    -3
100
AcDbLine
 10
8.795708
 20
4.448341
 30
0.0
 11
8.795708
 21
4.396759
 31
0.0
  0
LINE
  5
BF
330
1F
100
AcDbEntity
  8
XR$1$TB_1413_1
  6
AUSGEZOGEN
 62
     7
440
 33554687
370
    -3
100
AcDbLine
 10
8.808971
 20
4.40578
 30
0.0
 11
8.80685
 21
4.407901
 31
0.0
  0
LINE
  5
C0
330
1F
100
AcDbEntity
  8
XR$1$TB_1413_1
  6
AUSGEZOGEN
 62
     7
440
 33554687
370
    -3
100
AcDbLine
 10
8.806309
 20
4.726045
 30
0.0
 11
8.806309
 21
4.45228
 31
0.0
  0
LINE
  5
C1
330
1F
100
AcDbEntity
  8
XR$1$TB_1413_1
  6
AUSGEZOGEN
 62
     7
440
 33554687
370
    -3
100
AcDbLine
 10
9.007971
 20
4.466911
 30
0.0
 11
8.795708
 21
4.448341
 31
0.0
  0
LINE
  5
C2
330
1F
100
AcDbEntity
  8
XR$1$TB_1413_1
  6
AUSGEZOGEN
 62
    14
440
 33554687
370
    -3
100
AcDbLine
 10
8.846971
 20
4.432717
 30
0.0
 11
8.903971
 21
4.432717
 31
0.0
  0
LINE
  5
C3
330
1F
100
AcDbEntity
  8
XR$1$TB_1413_1
  6
AUSGEZOGEN
 62
    14
440
 33554687
370
    -3
100
AcDbLine
 10
8.828971
 20
4.432717
 30
0.0
 11
8.828971
 21
4.451251
 31
0.0
  0
LINE
  5
C4
330
1F
100
AcDbEntity
  8
XR$1$TB_1413_1
  6
AUSGEZOGEN
 62
    14
440
 33554687
370
    -3
100
AcDbLine
 10
8.903971
 20
4.432717
 30
0.0
 11
8.897401
 21
4.457238
 31
0.0
  0
LINE
  5
C5
330
1F
100
AcDbEntity
  8
XR$1$TB_1413_1
  6
AUSGEZOGEN
 62
    14
440
 33554687
370
    -3
100
AcDbLine
 10
8.897401
 20
4.457238
 30
0.0
 11
8.890831
 21
4.432717
 31
0.0
  0
LINE
  5
C6
330
1F
100
AcDbEntity
  8
XR$1$TB_1413_1
  6
AUSGEZOGEN
 62
    14
440
 33554687
370
    -3
100
AcDbLine
 10
8.890831
 20
4.432717
 30
0.0
 11
8.884561
 21
4.456114
 31
0.0
  0
LINE
  5
C7
330
1F
100
AcDbEntity
  8
XR$1$TB_1413_1
  6
AUSGEZOGEN
 62
    14
440
 33554687
370
    -3
100
AcDbLine
 10
8.884561
 20
4.456114
 30
0.0
 11
8.878292
 21
4.432717
 31
0.0
  0
LINE
  5
C8
330
1F
100
AcDbEntity
  8
XR$1$TB_1413_1
  6
AUSGEZOGEN
 62
    14
440
 33554687
370
    -3
100
AcDbLine
 10
8.878292
 20
4.432717
 30
0.0
 11
8.87231
 21
4.455042
 31
0.0
  0
LINE
  5
C9
330
1F
100
AcDbEntity
  8
XR$1$TB_1413_1
  6
AUSGEZOGEN
 62
    14
440
 33554687
370
    -3
100
AcDbLine
 10
8.87231
 20
4.455042
 30
0.0
 11
8.866328
 21
4.432717
 31
0.0
  0
LINE
  5
CA
330
1F
100
AcDbEntity
  8
XR$1$TB_1413_1
  6
AUSGEZOGEN
 62
    14
440
 33554687
370
    -3
100
AcDbLine
 10
8.866328
 20
4.432717
 30
0.0
 11
8.86062
 21
4.45402
 31
0.0
  0
LINE
  5
CB
330
1F
100
AcDbEntity
  8
XR$1$TB_1413_1
  6
AUSGEZOGEN
 62
    14
440
 33554687
370
    -3
100
AcDbLine
 10
8.86062
 20
4.45402
 30
0.0
 11
8.854912
 21
4.432717
 31
0.0
  0
LINE
  5
CC
330
1F
100
AcDbEntity
  8
XR$1$TB_1413_1
  6
AUSGEZOGEN
 62
    14
440
 33554687
370
    -3
100
AcDbLine
 10
8.854912
 20
4.432717
 30
0.0
 11
8.849465
 21
4.453044
 31
0.0
  0
LINE
  5
CD
330
1F
100
AcDbEntity
  8
XR$1$TB_1413_1
  6
AUSGEZOGEN
 62
    14
440
 33554687
370
    -3
100
AcDbLine
 10
8.83897
 20
4.452126
 30
0.0
 11
8.833769
 21
4.432717
 31
0.0
  0
LINE
  5
CE
330
1F
100
AcDbEntity
  8
XR$1$TB_1413_1
  6
AUSGEZOGEN
 62
    14
440
 33554687
370
    -3
100
AcDbLine
 10
8.833769
 20
4.432717
 30
0.0
 11
8.828814
 21
4.451209
 31
0.0
  0
LINE
  5
CF
330
1F
100
AcDbEntity
  8
XR$1$TB_1413_1
  6
AUSGEZOGEN
 62
    14
440
 33554687
370
    -3
100
AcDbLine
 10
8.849465
 20
4.453044
 30
0.0
 11
8.844096
 21
4.432717
 31
0.0
  0
LINE
  5
D0
330
1F
100
AcDbEntity
  8
XR$1$TB_1413_1
  6
AUSGEZOGEN
 62
    14
440
 33554687
370
    -3
100
AcDbLine
 10
8.844096
 20
4.432717
 30
0.0
 11
8.83897
 21
4.452126
 31
0.0
  0
LINE
  5
D1
330
1F
100
AcDbEntity
  8
XR$1$TB_1413_1
  6
AUSGEZOGEN
 62
    14
440
 33554687
370
    25
100
AcDbLine
 10
8.828971
 20
4.432717
 30
0.0
 11
8.846971
 21
4.432717
 31
0.0
  0
LINE
  5
D2
330
1F
100
AcDbEntity
  8
XR$1$TB_1413_1
  6
AUSGEZOGEN
 62
    32
440
 33554687
370
    50
100
AcDbLine
 10
8.903971
 20
4.432717
 30
0.0
 11
8.903971
 21
3.899255
 31
0.0
  0
LINE
  5
D3
330
1F
100
AcDbEntity
  8
XR$1$TB_1413_1
  6
AUSGEZOGEN
 62
    32
440
 33554687
370
    50
100
AcDbLine
 10
9.203971
 20
4.432717
 30
0.0
 11
9.203971
 21
3.899255
 31
0.0
  0
LINE
  5
D4
330
1F
100
AcDbEntity
  8
XR$1$TB_1413_1
  6
STRICHPUNKT2_S5
 62
     7
440
 33554687
370
    -3
100
AcDbLine
 10
8.753971
 20
3.899255
 30
0.0
 11
9.223971
 21
3.899255
 31
0.0
  0
LINE
  5
D5
330
1F
100
AcDbEntity
  8
XR$1$TB_1413_1
  6
AUSGEZOGEN
 62
    94
440
 33554687
370
    25
100
AcDbLine
 10
8.846971
 20
4.432717
 30
0.0
 11
8.846971
 21
3.899255
 31
0.0
  0
LINE
  5
D6
330
1F
100
AcDbEntity
  8
XR$1$TB_1413_1
  6
AUSGEZOGEN
 62
    54
440
 33554687
370
    -3
100
AcDbLine
 10
8.861971
 20
4.432717
 30
0.0
 11
8.861971
 21
3.899255
 31
0.0
  0
LINE
  5
D7
330
1F
100
AcDbEntity
  8
XR$1$TB_1413_1
  6
AUSGEZOGEN
 62
    94
440
 33554687
370
    25
100
AcDbLine
 10
8.828971
 20
4.432717
 30
0.0
 11
8.828971
 21
3.899255
 31
0.0
  0
LINE
  5
D8
330
1F
100
AcDbEntity
  8
XR$1$TB_1413_1
  6
VERDECKT2_S2
 62
     7
440
 33554687
370
    50
100
AcDbLine
 10
8.862171
 20
4.432717
 30
0.0
 11
8.862171
 21
3.899255
 31
0.0
  0
LINE
  5
D9
330
1F
100
AcDbEntity
  8
XR$1$TB_1413_1
  6
AUSGEZOGEN
 62
     7
440
 33554687
370
    -3
100
AcDbLine
 10
8.749935
 20
4.358395
 30
0.0
 11
8.970322
 21
4.358395
 31
0.0
  0
MTEXT
  5
DA
330
1F
100
AcDbEntity
  8
XR$1$TB_1413_1
  6
AUSGEZOGEN
 62
     7
440
 33554687
370
    -3
100
AcDbMText
 10
8.725255
 20
4.350829
 30
0.0
 40
0.0175
 41
0.021605
 46
0.0
 71
     7
 72
     5
  1
\W0.90;1
  7
ARIAL
 73
     1
 44
1.0
  0
CIRCLE
  5
DB
330
1F
100
AcDbEntity
  8
XR$1$TB_1413_1
  6
AUSGEZOGEN
 62
     7
440
 33554687
370
    -3
100
AcDbCircle
 10
8.732144
 20
4.358395
 30
0.0
 40
0.0177913987405051
  0
LINE
  5
DC
330
1F
100
AcDbEntity
  8
XR$1$TB_1413_1
  6
AUSGEZOGEN
 62
     7
440
 33554687
370
    -3
100
AcDbLine
 10
8.750761
 20
4.258395
 30
0.0
 11
8.880327
 21
4.258395
 31
0.0
  0
MTEXT
  5
DD
330
1F
100
AcDbEntity
  8
XR$1$TB_1413_1
  6
AUSGEZOGEN
 62
     7
440
 33554687
370
    -3
100
AcDbMText
 10
8.726081
 20
4.250885
 30
0.0
 40
0.0175
 41
0.022374
 46
0.0
 71
     7
 72
     5
  1
\W0.99;2
  7
ARIAL
 73
     1
 44
1.0
  0
CIRCLE
  5
DE
330
1F
100
AcDbEntity
  8
XR$1$TB_1413_1
  6
AUSGEZOGEN
 62
     7
440
 33554687
370
    -3
100
AcDbCircle
 10
8.732969
 20
4.258452
 30
0.0
 40
0.0177913987405051
  0
LINE
  5
DF
330
1F
100
AcDbEntity
  8
XR$1$TB_1413_1
  6
AUSGEZOGEN
 62
     7
440
 33554687
370
    -3
100
AcDbLine
 10
8.749935
 20
4.158395
 30
0.0
 11
8.862171
 21
4.158395
 31
0.0
  0
CIRCLE
  5
E0
330
1F
100
AcDbEntity
  8
XR$1$TB_1413_1
  6
AUSGEZOGEN
 62
     7
440
 33554687
370
    -3
100
AcDbCircle
 10
8.732144
 20
4.158452
 30
0.0
 40
0.0177913987405051
  0
MTEXT
  5
E1
330
1F
100
AcDbEntity
  8
XR$1$TB_1413_1
  6
AUSGEZOGEN
 62
     7
440
 33554687
370
    -3
100
AcDbMText
 10
8.725255
 20
4.150885
 30
0.0
 40
0.0175
 41
0.022374
 46
0.0
 71
     7
 72
     5
  1
\W0.99;3
  7
ARIAL
 73
     1
 44
1.0
  0
LINE
  5
E2
330
1F
100
AcDbEntity
  8
XR$1$TB_1413_1
  6
AUSGEZOGEN
 62
     7
440
 33554687
370
    -3
100
AcDbLine
 10
8.852224
 20
4.058395
 30
0.0
 11
8.749109
 21
4.058395
 31
0.0
  0
CIRCLE
  5
E3
330
1F
100
AcDbEntity
  8
XR$1$TB_1413_1
  6
AUSGEZOGEN
 62
     7
440
 33554687
370
    -3
100
AcDbCircle
 10
8.731318
 20
4.058814
 30
0.0
 40
0.0177913987405051
  0
MTEXT
  5
E4
330
1F
100
AcDbEntity
  8
XR$1$TB_1413_1
  6
AUSGEZOGEN
 62
     7
440
 33554687
370
    -3
100
AcDbMText
 10
8.724429
 20
4.051247
 30
0.0
 40
0.0175
 41
0.022374
 46
0.0
 71
     7
 72
     5
  1
\W0.99;4
  7
ARIAL
 73
     1
 44
1.0
  0
LINE
  5
E5
330
1F
100
AcDbEntity
  8
XR$1$TB_1413_1
  6
AUSGEZOGEN
 62
     7
440
 33554687
370
    -3
100
AcDbLine
 10
8.749109
 20
3.958395
 30
0.0
 11
8.837209
 21
3.958395
 31
0.0
  0
CIRCLE
  5
E6
330
1F
100
AcDbEntity
  8
XR$1$TB_1413_1
  6
AUSGEZOGEN
 62
     7
440
 33554687
370
    -3
100
AcDbCircle
 10
8.731318
 20
3.958395
 30
0.0
 40
0.0177913987405051
  0
MTEXT
  5
E7
330
1F
100
AcDbEntity
  8
XR$1$TB_1413_1
  6
AUSGEZOGEN
 62
     7
440
 33554687
370
    -3
100
AcDbMText
 10
8.724429
 20
3.950828
 30
0.0
 40
0.0175
 41
0.022374
 46
0.0
 71
     7
 72
     5
  1
\W0.99;5
  7
ARIAL
 73
     1
 44
1.0
  0
LINE
  5
E8
330
1F
100
AcDbEntity
  8
XR$1$TB_1413_1
  6
AUSGEZOGEN
 62
     3
440
 33554687
370
    25
100
AcDbLine
 10
9.087971
 20
4.492717
 30
0.0
 11
9.102971
 21
4.492717
 31
0.0
  0
LINE
  5
E9
330
1F
100
AcDbEntity
  8
XR$1$TB_1413_1
  6
AUSGEZOGEN
 62
     3
440
 33554687
370
    25
100
AcDbLine
 10
9.102971
 20
4.572717
 30
0.0
 11
9.042971
 21
4.572717
 31
0.0
  0
LINE
  5
EA
330
1F
100
AcDbEntity
  8
XR$1$TB_1413_1
  6
AUSGEZOGEN
 62
     3
440
 33554687
370
    25
100
AcDbLine
 10
9.042971
 20
4.517717
 30
0.0
 11
9.042971
 21
4.572717
 31
0.0
  0
LINE
  5
EB
330
1F
100
AcDbEntity
  8
XR$1$TB_1413_1
  6
AUSGEZOGEN
 62
     3
440
 33554687
370
    25
100
AcDbLine
 10
9.102971
 20
4.492717
 30
0.0
 11
9.102971
 21
4.572717
 31
0.0
  0
LINE
  5
EC
330
1F
100
AcDbEntity
  8
XR$1$TB_1413_1
  6
AUSGEZOGEN
 62
     3
440
 33554687
370
    25
100
AcDbLine
 10
9.087971
 20
4.517717
 30
0.0
 11
9.087971
 21
4.432717
 31
0.0
  0
LINE
  5
ED
330
1F
100
AcDbEntity
  8
XR$1$TB_1413_1
  6
AUSGEZOGEN
 62
     3
440
 33554687
370
    25
100
AcDbLine
 10
9.087971
 20
4.442717
 30
0.0
 11
9.007971
 21
4.442717
 31
0.0
  0
LINE
  5
EE
330
1F
100
AcDbEntity
  8
XR$1$TB_1413_1
  6
AUSGEZOGEN
 62
     3
440
 33554687
370
    25
100
AcDbLine
 10
9.087971
 20
4.517717
 30
0.0
 11
9.007971
 21
4.517717
 31
0.0
  0
LINE
  5
EF
330
1F
100
AcDbEntity
  8
XR$1$TB_1413_1
  6
AUSGEZOGEN
 62
     7
440
 33554687
370
    -3
100
AcDbLine
 10
9.007971
 20
4.721466
 30
0.0
 11
9.007971
 21
4.517717
 31
0.0
  0
LINE
  5
F0
330
1F
100
AcDbEntity
  8
XR$1$TB_1413_1
  6
AUSGEZOGEN
 62
     3
440
 33554687
370
    25
100
AcDbLine
 10
9.007971
 20
4.517717
 30
0.0
 11
9.007971
 21
4.499171
 31
0.0
  0
LINE
  5
F1
330
1F
100
AcDbEntity
  8
XR$1$TB_1413_1
  6
AUSGEZOGEN
 62
     3
440
 33554687
370
    25
100
AcDbLine
 10
9.203971
 20
4.442717
 30
0.0
 11
9.203971
 21
4.447717
 31
0.0
  0
LINE
  5
F2
330
1F
100
AcDbEntity
  8
XR$1$TB_1413_1
  6
AUSGEZOGEN
 62
     3
440
 33554687
370
    25
100
AcDbLine
 10
9.007971
 20
4.442717
 30
0.0
 11
9.203971
 21
4.442717
 31
0.0
  0
LINE
  5
F3
330
1F
100
AcDbEntity
  8
XR$1$TB_1413_1
  6
AUSGEZOGEN
 62
     3
440
 33554687
370
    25
100
AcDbLine
 10
9.203971
 20
4.442717
 30
0.0
 11
9.203971
 21
4.462717
 31
0.0
  0
LINE
  5
F4
330
1F
100
AcDbEntity
  8
XR$1$TB_1413_1
  6
AUSGEZOGEN
 62
     3
440
 33554687
370
    25
100
AcDbLine
 10
9.087971
 20
4.462717
 30
0.0
 11
9.203971
 21
4.462717
 31
0.0
  0
LINE
  5
F5
330
1F
100
AcDbEntity
  8
XR$1$TB_1413_1
  6
AUSGEZOGEN
 62
     7
440
 33554687
370
    -3
100
AcDbLine
 10
9.102971
 20
4.721466
 30
0.0
 11
9.102971
 21
4.572717
 31
0.0
  0
LINE
  5
F6
330
1F
100
AcDbEntity
  8
XR$1$TB_1413_1
  6
AUSGEZOGEN
 62
     7
440
 33554687
370
    -3
100
AcDbLine
 10
9.084971
 20
4.721466
 30
0.0
 11
9.084971
 21
4.572717
 31
0.0
  0
LINE
  5
F7
330
1F
100
AcDbEntity
  8
XR$1$TB_1413_1
  6
AUSGEZOGEN
 62
     7
440
 33554687
370
    -3
100
AcDbLine
 10
9.080971
 20
4.721466
 30
0.0
 11
9.080971
 21
4.572717
 31
0.0
  0
LINE
  5
F8
330
1F
100
AcDbEntity
  8
XR$1$TB_1413_1
  6
AUSGEZOGEN
 62
     7
440
 33554687
370
    -3
100
AcDbLine
 10
9.064971
 20
4.721466
 30
0.0
 11
9.064971
 21
4.572717
 31
0.0
  0
LINE
  5
F9
330
1F
100
AcDbEntity
  8
XR$1$TB_1413_1
  6
AUSGEZOGEN
 62
     7
440
 33554687
370
    -3
100
AcDbLine
 10
9.060971
 20
4.721466
 30
0.0
 11
9.060971
 21
4.572717
 31
0.0
  0
LINE
  5
FA
330
1F
100
AcDbEntity
  8
XR$1$TB_1413_1
  6
AUSGEZOGEN
 62
     7
440
 33554687
370
    -3
100
AcDbLine
 10
9.042971
 20
4.721466
 30
0.0
 11
9.042971
 21
4.572717
 31
0.0
  0
MTEXT
  5
FB
330
1F
100
AcDbEntity
  8
XR$1$TB_1413_1
  6
AUSGEZOGEN
 62
     7
440
 33554687
370
    -3
100
AcDbMText
 10
8.964624
 20
3.703394
 30
0.0
 40
0.009
 41
0.418059
 46
0.0
 71
     7
 72
     5
  1
\W1.00;AGROB BUCHTAL GmbH   Architektenservice   D - 92521 Schwarzenfeld
  7
ARIAL
 73
     1
 44
1.0
  0
MTEXT
  5
FC
330
1F
100
AcDbEntity
  8
XR$1$TB_1413_1
  6
AUSGEZOGEN
 62
     7
440
 33554687
370
    -3
100
AcDbMText
 10
9.329582
 20
3.667508
 30
0.0
 40
0.009
 41
0.095517
 46
0.0
 71
     7
 72
     5
  1
\W0.91;STAND: Juli 2019
  7
ARIAL
 73
     1
 44
1.0
  0
VIEWPORT
  5
72
330
6E
100
AcDbEntity
 67
     1
  8
0
100
AcDbViewport
 10
0.105001
 20
0.148499
 30
0.0
 40
0.210202
 41
0.297197
 68
     1
 69
     1
 12
0.105001
 22
0.148499
 13
0.0
 23
0.0
 14
0.5
 24
0.5
 15
0.5
 25
0.5
 16
0.0
 26
0.0
 36
1.0
 17
0.0
 27
0.0
 37
0.0
 42
50.0
 43
0.0
 44
0.0
 45
0.297197
 50
0.0
 51
0.0
 72
   100
 90
   557152
  1

281
     0
 71
     1
 74
     0
110
0.0
120
0.0
130
0.0
111
1.0
121
0.0
131
0.0
112
0.0
122
1.0
132
0.0
 79
     0
146
0.0
170
     0
 61
     5
348
2F
292
     1
282
     1
141
0.0
142
0.0
 63
   256
361
73
  0
VIEWPORT
  5
FF
330
6E
100
AcDbEntity
 67
     1
  8
PLAN_1413
  6
AUSGEZOGEN
 62
     7
370
    35
100
AcDbViewport
 10
0.105001
 20
0.148499
 30
0.0
 40
0.210202
 41
0.297197
 68
     2
 69
     2
 12
0.0
 22
0.0
 13
0.0
 23
0.0
 14
1.0
 24
1.0
 15
0.0
 25
0.0
 16
0.0
 26
0.0
 36
1.0
 17
8.957601
 27
4.306338
 37
0.0
 42
50.0
 43
0.0
 44
0.0
 45
1.485985
 50
0.0
 51
0.0
 72
   100
331
10
331
76
331
78
 90
   557280
  1

281
     0
 71
     1
 74
     0
110
0.0
120
0.0
130
0.0
111
1.0
121
0.0
131
0.0
112
0.0
122
1.0
132
0.0
 79
     0
146
0.0
170
     0
 61
     5
348
2F
292
     1
282
     1
141
0.0
142
0.0
 63
   256
361
100
  0
ENDSEC
  0
SECTION
  2
OBJECTS
  0
DICTIONARY
  5
C
330
0
100
AcDbDictionary
281
     1
  3
ACAD_DETAILVIEWSTYLE
350
138
  3
ACAD_GROUP
350
D
  3
ACAD_LAYOUT
350
1A
  3
ACAD_MATERIAL
350
43
  3
ACAD_MLEADERSTYLE
350
6B
  3
ACAD_MLINESTYLE
350
17
  3
ACAD_PLOTSETTINGS
350
19
  3
ACAD_PLOTSTYLENAME
350
E
  3
ACAD_SCALELIST
350
47
  3
ACAD_SECTIONVIEWSTYLE
350
139
  3
ACAD_TABLESTYLE
350
69
  3
ACAD_VISUALSTYLE
350
2A
  3
ACDB_RECOMPOSE_DATA
350
135
  3
AcDbVariableDictionary
350
101
  0
SUN
  5
6D
330
29
100
AcDbSun
 90
        1
290
     0
 63
     7
421
 16777215
 40
1.0
291
     1
 91
  2455826
 92
 54000000
292
     0
 70
     2
 71
   256
280
     1
  0
DICTIONARY
  5
FD
330
1F
100
AcDbDictionary
280
     1
281
     1
  3
ACAD_SORTENTS
360
FE
  0
SUN
  5
73
330
72
100
AcDbSun
 90
        1
290
     0
 63
     7
421
 16777215
 40
1.0
291
     1
 91
  2455826
 92
 54000000
292
     0
 70
     2
 71
   256
280
     1
  0
SUN
  5
100
330
FF
100
AcDbSun
 90
        1
290
     0
 63
     7
421
 16777215
 40
1.0
291
     1
 91
  2455826
 92
 54000000
292
     0
 70
     2
 71
   256
280
     1
  0
DICTIONARY
  5
138
102
{ACAD_REACTORS
330
C
102
}
330
C
100
AcDbDictionary
281
     1
  0
DICTIONARY
  5
D
102
{ACAD_REACTORS
330
C
102
}
330
C
100
AcDbDictionary
281
     1
  3
VERBUNDBLOCK_0
350
7F
  0
DICTIONARY
  5
1A
102
{ACAD_REACTORS
330
C
102
}
330
C
100
AcDbDictionary
281
     1
  3
Baukeramikfassade 14
350
6F
  3
Model
350
22
  0
DICTIONARY
  5
43
102
{ACAD_REACTORS
330
C
102
}
330
C
100
AcDbDictionary
281
     1
  3
ByBlock
350
45
  3
ByLayer
350
44
  3
Global
350
46
  0
DICTIONARY
  5
6B
102
{ACAD_REACTORS
330
C
102
}
330
C
100
AcDbDictionary
281
     1
  3
Standard
350
6C
  0
DICTIONARY
  5
17
102
{ACAD_REACTORS
330
C
102
}
330
C
100
AcDbDictionary
281
     1
  3
Standard
350
18
  0
DICTIONARY
  5
19
102
{ACAD_REACTORS
330
C
102
}
330
C
100
AcDbDictionary
281
     1
  0
ACDBDICTIONARYWDFLT
  5
E
102
{ACAD_REACTORS
330
C
102
}
330
C
100
AcDbDictionary
281
     1
  3
Normal
350
F
100
AcDbDictionaryWithDefault
340
F
  0
DICTIONARY
  5
47
102
{ACAD_REACTORS
330
C
102
}
330
C
100
AcDbDictionary
281
     1
  3
A0
350
48
  3
A1
350
49
  3
A2
350
4A
  3
A3
350
4B
  3
A4
350
4C
  3
A5
350
4D
  3
A6
350
4E
  3
A7
350
4F
  3
A8
350
50
  3
A9
350
51
  3
B0
350
52
  3
B1
350
53
  3
B2
350
54
  3
B3
350
55
  3
B4
350
56
  3
B5
350
57
  3
B6
350
58
  3
B7
350
59
  3
B8
350
5A
  3
B9
350
5B
  3
C0
350
5C
  3
C1
350
5D
  3
C2
350
5E
  3
C3
350
5F
  3
C4
350
60
  3
C5
350
61
  3
C6
350
62
  3
C7
350
63
  3
C8
350
64
  3
C9
350
65
  3
D0
350
66
  3
D1
350
67
  3
D2
350
68
  0
DICTIONARY
  5
139
102
{ACAD_REACTORS
330
C
102
}
330
C
100
AcDbDictionary
281
     1
  0
DICTIONARY
  5
69
102
{ACAD_REACTORS
330
C
102
}
330
C
100
AcDbDictionary
281
     1
  3
Standard
350
6A
  0
DICTIONARY
  5
2A
102
{ACAD_REACTORS
330
C
102
}
330
C
100
AcDbDictionary
281
     1
  3
2dWireframe
350
2F
  3
Basic
350
32
  3
Brighten
350
36
  3
ColorChange
350
3A
  3
Conceptual
350
34
  3
Dim
350
35
  3
EdgeColorOff
350
3D
  3
Facepattern
350
39
  3
Flat
350
2B
  3
FlatWithEdges
350
2C
  3
Gouraud
350
2D
  3
GouraudWithEdges
350
2E
  3
Hidden
350
31
  3
JitterOff
350
3B
  3
Linepattern
350
38
  3
OverhangOff
350
3C
  3
Realistic
350
33
  3
Shaded
350
42
  3
Shaded with edges
350
41
  3
Shades of Gray
350
3E
  3
Sketchy
350
3F
  3
Thicken
350
37
  3
Wireframe
350
30
  3
X-Ray
350
40
  0
XRECORD
  5
135
102
{ACAD_REACTORS
330
C
102
}
330
C
100
AcDbXrecord
280
     1
 90
        1
330
6A
  0
DICTIONARY
  5
101
102
{ACAD_REACTORS
330
C
102
}
330
C
100
AcDbDictionary
281
     1
  3
CANNOSCALE
350
102
  3
CMLEADERSTYLE
350
137
  3
CTABLESTYLE
350
136
  0
SORTENTSTABLE
  5
FE
102
{ACAD_REACTORS
330
FD
102
}
330
FD
100
AcDbSortentsTable
330
1F
331
82
  5
85
331
83
  5
86
331
84
  5
87
331
85
  5
88
331
86
  5
89
331
87
  5
8A
331
88
  5
8B
331
89
  5
8C
331
8A
  5
8D
331
8B
  5
8E
331
8C
  5
8F
331
8D
  5
90
331
8E
  5
91
331
8F
  5
92
331
90
  5
94
331
91
  5
95
331
92
  5
96
331
94
  5
97
331
95
  5
98
331
96
  5
99
331
97
  5
9A
331
98
  5
82
331
99
  5
83
331
9A
  5
84
  0
GROUP
  5
7F
102
{ACAD_REACTORS
330
D
102
}
330
D
100
AcDbGroup
300

 70
     0
 71
     1
340
80
340
81
  0
LAYOUT
  5
6F
102
{ACAD_REACTORS
330
1A
102
}
330
1A
100
AcDbPlotSettings
  1

  2
none_device
  4
none_user_media
  6

 40
0.0
 41
0.0
 42
0.0
 43
0.0
 44
297.0
 45
209.9
 46
0.0
 47
0.0
 48
0.0
 49
0.0
140
0.0
141
0.0
142
1000.0
143
1.0
 70
   688
 72
     1
 73
     1
 74
     5
  7

 75
    33
 76
     0
 77
     2
 78
   300
147
1000.0
148
0.0
149
0.0
100
AcDbLayout
  1
Baukeramikfassade 14
 70
     0
 71
     1
 10
-0.0001
 20
-0.0001
 11
0.210102
 21
0.297097
 12
0.0
 22
0.0
 32
0.0
 14
-0.0001
 24
-0.0001
 34
0.0
 15
0.210102
 25
0.297097
 35
0.0
146
0.0
 13
0.0
 23
0.0
 33
0.0
 16
1.0
 26
0.0
 36
0.0
 17
0.0
 27
1.0
 37
0.0
 76
     0
330
6E
331
72
  0
LAYOUT
  5
22
102
{ACAD_REACTORS
330
1A
102
}
330
1A
100
AcDbPlotSettings
  1

  2
none_device
  4
Letter_(8.50_x_11.00_Inches)
  6

 40
6.35
 41
6.35
 42
6.350005
 43
6.350005
 44
215.9
 45
279.4
 46
0.0
 47
0.0
 48
0.0
 49
0.0
140
0.0
141
0.0
142
1.0
143
1.0
 70
  1712
 72
     0
 73
     0
 74
     0
  7

 75
     0
 76
     0
 77
     2
 78
   300
147
1.0
148
0.0
149
0.0
100
AcDbLayout
  1
Model
 70
     1
 71
     0
 10
8.432596
 20
3.563845
 11
9.482607
 21
5.04883
 12
0.0
 22
0.0
 32
0.0
 14
8.432596
 24
3.563845
 34
8.432596
 15
9.482607
 25
5.04883
 35
9.482607
146
0.0
 13
0.0
 23
0.0
 33
0.0
 16
1.0
 26
0.0
 36
0.0
 17
0.0
 27
1.0
 37
0.0
 76
     0
330
1F
331
29
  0
MATERIAL
  5
45
102
{ACAD_REACTORS
330
43
102
}
330
43
100
AcDbMaterial
  1
ByBlock
 72
     1
 94
      127
  0
MATERIAL
  5
44
102
{ACAD_REACTORS
330
43
102
}
330
43
100
AcDbMaterial
  1
ByLayer
 72
     1
 94
      127
  0
MATERIAL
  5
46
102
{ACAD_REACTORS
330
43
102
}
330
43
100
AcDbMaterial
  1
Global
 72
     1
 94
      127
  0
MLEADERSTYLE
  5
6C
102
{ACAD_REACTORS
330
6B
102
}
330
6B
100
AcDbMLeaderStyle
179
     2
170
     2
171
     1
172
     0
 90
        2
 40
0.0
 41
0.0
173
     1
 91
-1056964608
340
14
 92
       -2
290
     1
 42
0.09
291
     1
 43
0.36
  3
Standard
341
0
 44
0.18
300

342
11
174
     1
178
     6
175
     1
176
     0
 93
-1056964608
 45
0.18
292
     0
297
     0
 46
0.18
343
0
 94
-1056964608
 47
1.0
 49
1.0
140
1.0
293
     1
141
0.0
294
     1
177
     0
142
1.0
295
     0
296
     0
143
0.125
271
     0
272
     9
273
     9
  0
MLINESTYLE
  5
18
102
{ACAD_REACTORS
330
17
102
}
330
17
100
AcDbMlineStyle
  2
Standard
 70
     0
  3

 62
   256
 51
90.0
 52
90.0
 71
     2
 49
0.5
 62
   256
  6
BYLAYER
 49
-0.5
 62
   256
  6
BYLAYER
  0
ACDBPLACEHOLDER
  5
F
102
{ACAD_REACTORS
330
E
102
}
330
E
  0
SCALE
  5
48
102
{ACAD_REACTORS
330
47
102
}
330
47
100
AcDbScale
 70
     0
300
1:1
140
1.0
141
1.0
290
     1
  0
SCALE
  5
49
102
{ACAD_REACTORS
330
47
102
}
330
47
100
AcDbScale
 70
     0
300
1:2
140
1.0
141
2.0
290
     0
  0
SCALE
  5
4A
102
{ACAD_REACTORS
330
47
102
}
330
47
100
AcDbScale
 70
     0
300
1:4
140
1.0
141
4.0
290
     0
  0
SCALE
  5
4B
102
{ACAD_REACTORS
330
47
102
}
330
47
100
AcDbScale
 70
     0
300
1:5
140
1.0
141
5.0
290
     0
  0
SCALE
  5
4C
102
{ACAD_REACTORS
330
47
102
}
330
47
100
AcDbScale
 70
     0
300
1:8
140
1.0
141
8.0
290
     0
  0
SCALE
  5
4D
102
{ACAD_REACTORS
330
47
102
}
330
47
100
AcDbScale
 70
     0
300
1:10
140
1.0
141
10.0
290
     0
  0
SCALE
  5
4E
102
{ACAD_REACTORS
330
47
102
}
330
47
100
AcDbScale
 70
     0
300
1:16
140
1.0
141
16.0
290
     0
  0
SCALE
  5
4F
102
{ACAD_REACTORS
330
47
102
}
330
47
100
AcDbScale
 70
     0
300
1:20
140
1.0
141
20.0
290
     0
  0
SCALE
  5
50
102
{ACAD_REACTORS
330
47
102
}
330
47
100
AcDbScale
 70
     0
300
1:30
140
1.0
141
30.0
290
     0
  0
SCALE
  5
51
102
{ACAD_REACTORS
330
47
102
}
330
47
100
AcDbScale
 70
     0
300
1:40
140
1.0
141
40.0
290
     0
  0
SCALE
  5
52
102
{ACAD_REACTORS
330
47
102
}
330
47
100
AcDbScale
 70
     0
300
1:50
140
1.0
141
50.0
290
     0
  0
SCALE
  5
53
102
{ACAD_REACTORS
330
47
102
}
330
47
100
AcDbScale
 70
     0
300
1:100
140
1.0
141
100.0
290
     0
  0
SCALE
  5
54
102
{ACAD_REACTORS
330
47
102
}
330
47
100
AcDbScale
 70
     0
300
2:1
140
2.0
141
1.0
290
     0
  0
SCALE
  5
55
102
{ACAD_REACTORS
330
47
102
}
330
47
100
AcDbScale
 70
     0
300
4:1
140
4.0
141
1.0
290
     0
  0
SCALE
  5
56
102
{ACAD_REACTORS
330
47
102
}
330
47
100
AcDbScale
 70
     0
300
8:1
140
8.0
141
1.0
290
     0
  0
SCALE
  5
57
102
{ACAD_REACTORS
330
47
102
}
330
47
100
AcDbScale
 70
     0
300
10:1
140
10.0
141
1.0
290
     0
  0
SCALE
  5
58
102
{ACAD_REACTORS
330
47
102
}
330
47
100
AcDbScale
 70
     0
300
100:1
140
100.0
141
1.0
290
     0
  0
SCALE
  5
59
102
{ACAD_REACTORS
330
47
102
}
330
47
100
AcDbScale
 70
     0
300
1/128" = 1'-0"
140
0.007812
141
12.0
290
     0
  0
SCALE
  5
5A
102
{ACAD_REACTORS
330
47
102
}
330
47
100
AcDbScale
 70
     0
300
1/64" = 1'-0"
140
0.015625
141
12.0
290
     0
  0
SCALE
  5
5B
102
{ACAD_REACTORS
330
47
102
}
330
47
100
AcDbScale
 70
     0
300
1/32" = 1'-0"
140
0.03125
141
12.0
290
     0
  0
SCALE
  5
5C
102
{ACAD_REACTORS
330
47
102
}
330
47
100
AcDbScale
 70
     0
300
1/16" = 1'-0"
140
0.0625
141
12.0
290
     0
  0
SCALE
  5
5D
102
{ACAD_REACTORS
330
47
102
}
330
47
100
AcDbScale
 70
     0
300
3/32" = 1'-0"
140
0.09375
141
12.0
290
     0
  0
SCALE
  5
5E
102
{ACAD_REACTORS
330
47
102
}
330
47
100
AcDbScale
 70
     0
300
1/8" = 1'-0"
140
0.125
141
12.0
290
     0
  0
SCALE
  5
5F
102
{ACAD_REACTORS
330
47
102
}
330
47
100
AcDbScale
 70
     0
300
3/16" = 1'-0"
140
0.1875
141
12.0
290
     0
  0
SCALE
  5
60
102
{ACAD_REACTORS
330
47
102
}
330
47
100
AcDbScale
 70
     0
300
1/4" = 1'-0"
140
0.25
141
12.0
290
     0
  0
SCALE
  5
61
102
{ACAD_REACTORS
330
47
102
}
330
47
100
AcDbScale
 70
     0
300
3/8" = 1'-0"
140
0.375
141
12.0
290
     0
  0
SCALE
  5
62
102
{ACAD_REACTORS
330
47
102
}
330
47
100
AcDbScale
 70
     0
300
1/2" = 1'-0"
140
0.5
141
12.0
290
     0
  0
SCALE
  5
63
102
{ACAD_REACTORS
330
47
102
}
330
47
100
AcDbScale
 70
     0
300
3/4" = 1'-0"
140
0.75
141
12.0
290
     0
  0
SCALE
  5
64
102
{ACAD_REACTORS
330
47
102
}
330
47
100
AcDbScale
 70
     0
300
1" = 1'-0"
140
1.0
141
12.0
290
     0
  0
SCALE
  5
65
102
{ACAD_REACTORS
330
47
102
}
330
47
100
AcDbScale
 70
     0
300
1-1/2" = 1'-0"
140
1.5
141
12.0
290
     0
  0
SCALE
  5
66
102
{ACAD_REACTORS
330
47
102
}
330
47
100
AcDbScale
 70
     0
300
3" = 1'-0"
140
3.0
141
12.0
290
     0
  0
SCALE
  5
67
102
{ACAD_REACTORS
330
47
102
}
330
47
100
AcDbScale
 70
     0
300
6" = 1'-0"
140
6.0
141
12.0
290
     0
  0
SCALE
  5
68
102
{ACAD_REACTORS
330
47
102
}
330
47
100
AcDbScale
 70
     0
300
1'-0" = 1'-0"
140
12.0
141
12.0
290
     0
  0
TABLESTYLE
  5
6A
102
{ACAD_REACTORS
330
69
102
}
102
{ACAD_XDICTIONARY
360
133
102
}
330
69
100
AcDbTableStyle
  3
Standard
 70
     0
 71
     0
 40
0.06
 41
0.06
280
     0
281
     0
  7
Standard
140
0.18
170
     2
 62
     0
 63
   257
283
     0
 90
        4
 91
        0
  1

274
    -2
284
     1
 64
     0
275
    -2
285
     1
 65
     0
276
    -2
286
     1
 66
     0
277
    -2
287
     1
 67
     0
278
    -2
288
     1
 68
     0
279
    -2
289
     1
 69
     0
  7
Standard
140
0.25
170
     5
 62
     0
 63
   257
283
     0
 90
        4
 91
        0
  1

274
    -2
284
     1
 64
     0
275
    -2
285
     1
 65
     0
276
    -2
286
     1
 66
     0
277
    -2
287
     1
 67
     0
278
    -2
288
     1
 68
     0
279
    -2
289
     1
 69
     0
  7
Standard
140
0.18
170
     5
 62
     0
 63
   257
283
     0
 90
        4
 91
        0
  1

274
    -2
284
     1
 64
     0
275
    -2
285
     1
 65
     0
276
    -2
286
     1
 66
     0
277
    -2
287
     1
 67
     0
278
    -2
288
     1
 68
     0
279
    -2
289
     1
 69
     0
  0
VISUALSTYLE
  5
2F
102
{ACAD_REACTORS
330
2A
102
}
102
{ACAD_XDICTIONARY
360
10B
102
}
330
2A
100
AcDbVisualStyle
  2
2dWireframe
 70
     4
177
     2
291
     0
 71
     0
176
     1
 72
     2
176
     1
 73
     0
176
     1
 90
        0
176
     1
 40
0.6
176
     1
 41
30.0
176
     1
 62
     5
 63
     7
421
 16777215
176
     1
 74
     1
176
     1
 91
        4
176
     1
 64
     7
176
     1
 65
   257
176
     1
 75
     1
176
     1
175
     1
176
     1
 42
1.0
176
     1
 92
        0
176
     1
 66
   257
176
     1
 43
1.0
176
     1
 76
     1
176
     1
 77
     6
176
     1
 78
     2
176
     1
 67
     7
176
     1
 79
     5
176
     1
170
     0
176
     1
171
     0
176
     1
290
     0
176
     1
 93
        1
176
     1
 44
0.0
176
     1
173
     0
176
     1
  0
VISUALSTYLE
  5
32
102
{ACAD_REACTORS
330
2A
102
}
102
{ACAD_XDICTIONARY
360
111
102
}
330
2A
100
AcDbVisualStyle
  2
Basic
 70
     7
177
     2
291
     1
 71
     1
176
     1
 72
     0
176
     1
 73
     1
176
     1
 90
        0
176
     1
 40
0.6
176
     1
 41
30.0
176
     1
 62
     5
 63
     7
421
 16777215
176
     1
 74
     0
176
     1
 91
        4
176
     1
 64
     7
176
     1
 65
   257
176
     1
 75
     1
176
     1
175
     1
176
     1
 42
1.0
176
     1
 92
        8
176
     1
 66
     7
176
     1
 43
1.0
176
     1
 76
     1
176
     1
 77
     6
176
     1
 78
     2
176
     1
 67
     7
176
     1
 79
     5
176
     1
170
     0
176
     1
171
     0
176
     1
290
     0
176
     1
 93
        1
176
     1
 44
0.0
176
     1
173
     0
176
     1
  0
VISUALSTYLE
  5
36
102
{ACAD_REACTORS
330
2A
102
}
102
{ACAD_XDICTIONARY
360
119
102
}
330
2A
100
AcDbVisualStyle
  2
Brighten
 70
    12
177
     2
291
     1
 71
     2
176
     1
 72
     2
176
     1
 73
     0
176
     1
 90
        0
176
     1
 40
0.6
176
     1
 41
30.0
176
     1
 62
     5
 63
     7
421
 16777215
176
     1
 74
     1
176
     1
 91
        4
176
     1
 64
     7
176
     1
 65
   257
176
     1
 75
     1
176
     1
175
     1
176
     1
 42
1.0
176
     1
 92
        8
176
     1
 66
     7
176
     1
 43
1.0
176
     1
 76
     1
176
     1
 77
     6
176
     1
 78
     2
176
     1
 67
     7
176
     1
 79
     5
176
     1
170
     0
176
     1
171
     0
176
     1
290
     0
176
     1
 93
        1
176
     1
 44
50.0
176
     1
173
     0
176
     1
  0
VISUALSTYLE
  5
3A
102
{ACAD_REACTORS
330
2A
102
}
102
{ACAD_XDICTIONARY
360
121
102
}
330
2A
100
AcDbVisualStyle
  2
ColorChange
 70
    16
177
     2
291
     1
 71
     2
176
     1
 72
     2
176
     1
 73
     3
176
     1
 90
        0
176
     1
 40
0.6
176
     1
 41
30.0
176
     1
 62
     5
 63
     8
421
  8421504
176
     1
 74
     1
176
     1
 91
        4
176
     1
 64
     7
176
     1
 65
   257
176
     1
 75
     1
176
     1
175
     1
176
     1
 42
1.0
176
     1
 92
        8
176
     1
 66
     8
424
  8421504
176
     1
 43
1.0
176
     1
 76
     1
176
     1
 77
     6
176
     1
 78
     2
176
     1
 67
     7
176
     1
 79
     5
176
     1
170
     0
176
     1
171
     0
176
     1
290
     0
176
     1
 93
        1
176
     1
 44
0.0
176
     1
173
     0
176
     1
  0
VISUALSTYLE
  5
34
102
{ACAD_REACTORS
330
2A
102
}
102
{ACAD_XDICTIONARY
360
115
102
}
330
2A
100
AcDbVisualStyle
  2
Conceptual
 70
     9
177
     2
291
     0
 71
     3
176
     1
 72
     2
176
     1
 73
     0
176
     1
 90
        0
176
     1
 40
0.6
176
     1
 41
30.0
176
     1
 62
     5
 63
     7
421
 16777215
176
     1
 74
     2
176
     1
 91
        2
176
     1
 64
     7
176
     1
 65
   257
176
     1
 75
     1
176
     1
175
     1
176
     1
 42
179.0
176
     1
 92
        8
176
     1
 66
     7
176
     1
 43
1.0
176
     1
 76
     1
176
     1
 77
     6
176
     1
 78
     2
176
     1
 67
     7
176
     1
 79
     3
176
     1
170
     0
176
     1
171
     0
176
     1
290
     0
176
     1
 93
        1
176
     1
 44
0.0
176
     1
173
     0
176
     1
  0
VISUALSTYLE
  5
35
102
{ACAD_REACTORS
330
2A
102
}
102
{ACAD_XDICTIONARY
360
117
102
}
330
2A
100
AcDbVisualStyle
  2
Dim
 70
    11
177
     2
291
     1
 71
     2
176
     1
 72
     2
176
     1
 73
     0
176
     1
 90
        0
176
     1
 40
0.6
176
     1
 41
30.0
176
     1
 62
     5
 63
     7
421
 16777215
176
     1
 74
     1
176
     1
 91
        4
176
     1
 64
     7
176
     1
 65
   257
176
     1
 75
     1
176
     1
175
     1
176
     1
 42
1.0
176
     1
 92
        8
176
     1
 66
     7
176
     1
 43
1.0
176
     1
 76
     1
176
     1
 77
     6
176
     1
 78
     2
176
     1
 67
     7
176
     1
 79
     5
176
     1
170
     0
176
     1
171
     0
176
     1
290
     0
176
     1
 93
        1
176
     1
 44
-50.0
176
     1
173
     0
176
     1
  0
VISUALSTYLE
  5
3D
102
{ACAD_REACTORS
330
2A
102
}
102
{ACAD_XDICTIONARY
360
127
102
}
330
2A
100
AcDbVisualStyle
  2
EdgeColorOff
 70
    22
177
     2
291
     1
 71
     2
176
     0
 72
     2
176
     0
 73
     0
176
     0
 90
        0
176
     0
 40
0.6
176
     0
 41
30.0
176
     0
 62
     5
 63
     7
421
 16777215
176
     0
 74
     1
176
     0
 91
        4
176
     0
 64
     7
176
     0
 65
   257
176
     0
 75
     1
176
     0
175
     1
176
     0
 42
1.0
176
     0
 92
        8
176
     2
 66
     7
176
     0
 43
1.0
176
     0
 76
     1
176
     0
 77
     6
176
     0
 78
     2
176
     0
 67
     7
176
     0
 79
     5
176
     0
170
     0
176
     0
171
     0
176
     0
290
     0
176
     0
 93
        1
176
     0
 44
0.0
176
     0
173
     0
176
     0
  0
VISUALSTYLE
  5
39
102
{ACAD_REACTORS
330
2A
102
}
102
{ACAD_XDICTIONARY
360
11F
102
}
330
2A
100
AcDbVisualStyle
  2
Facepattern
 70
    15
177
     2
291
     1
 71
     2
176
     1
 72
     2
176
     1
 73
     0
176
     1
 90
        0
176
     1
 40
0.6
176
     1
 41
30.0
176
     1
 62
     5
 63
     7
421
 16777215
176
     1
 74
     1
176
     1
 91
        4
176
     1
 64
     7
176
     1
 65
   257
176
     1
 75
     1
176
     1
175
     1
176
     1
 42
1.0
176
     1
 92
        8
176
     1
 66
     7
176
     1
 43
1.0
176
     1
 76
     1
176
     1
 77
     6
176
     1
 78
     2
176
     1
 67
     7
176
     1
 79
     5
176
     1
170
     0
176
     1
171
     0
176
     1
290
     0
176
     1
 93
        1
176
     1
 44
0.0
176
     1
173
     0
176
     1
  0
VISUALSTYLE
  5
2B
102
{ACAD_REACTORS
330
2A
102
}
102
{ACAD_XDICTIONARY
360
103
102
}
330
2A
100
AcDbVisualStyle
  2
Flat
 70
     0
177
     2
291
     1
 71
     2
176
     1
 72
     1
176
     1
 73
     1
176
     1
 90
        2
176
     1
 40
0.6
176
     1
 41
30.0
176
     1
 62
     5
 63
     7
421
 16777215
176
     1
 74
     0
176
     1
 91
        0
176
     1
 64
     7
176
     1
 65
   257
176
     1
 75
     1
176
     1
175
     1
176
     1
 42
1.0
176
     1
 92
        8
176
     1
 66
     7
176
     1
 43
1.0
176
     1
 76
     1
176
     1
 77
     6
176
     1
 78
     2
176
     1
 67
     7
176
     1
 79
     5
176
     1
170
     0
176
     1
171
     0
176
     1
290
     0
176
     1
 93
       13
176
     1
 44
0.0
176
     1
173
     0
176
     1
  0
VISUALSTYLE
  5
2C
102
{ACAD_REACTORS
330
2A
102
}
102
{ACAD_XDICTIONARY
360
105
102
}
330
2A
100
AcDbVisualStyle
  2
FlatWithEdges
 70
     1
177
     2
291
     1
 71
     2
176
     1
 72
     1
176
     1
 73
     1
176
     1
 90
        2
176
     1
 40
0.6
176
     1
 41
30.0
176
     1
 62
     5
 63
     7
421
 16777215
176
     1
 74
     1
176
     1
 91
        0
176
     1
 64
     7
176
     1
 65
   257
176
     1
 75
     1
176
     1
175
     1
176
     1
 42
1.0
176
     1
 92
        0
176
     1
 66
   257
176
     1
 43
1.0
176
     1
 76
     1
176
     1
 77
     6
176
     1
 78
     2
176
     1
 67
     7
176
     1
 79
     5
176
     1
170
     0
176
     1
171
     0
176
     1
290
     0
176
     1
 93
       13
176
     1
 44
0.0
176
     1
173
     0
176
     1
  0
VISUALSTYLE
  5
2D
102
{ACAD_REACTORS
330
2A
102
}
102
{ACAD_XDICTIONARY
360
107
102
}
330
2A
100
AcDbVisualStyle
  2
Gouraud
 70
     2
177
     2
291
     1
 71
     2
176
     1
 72
     2
176
     1
 73
     1
176
     1
 90
        2
176
     1
 40
0.6
176
     1
 41
30.0
176
     1
 62
     5
 63
     7
421
 16777215
176
     1
 74
     0
176
     1
 91
        0
176
     1
 64
     7
176
     1
 65
   257
176
     1
 75
     1
176
     1
175
     1
176
     1
 42
1.0
176
     1
 92
        0
176
     1
 66
     7
176
     1
 43
1.0
176
     1
 76
     1
176
     1
 77
     6
176
     1
 78
     2
176
     1
 67
     7
176
     1
 79
     5
176
     1
170
     0
176
     1
171
     0
176
     1
290
     0
176
     1
 93
       13
176
     1
 44
0.0
176
     1
173
     0
176
     1
  0
VISUALSTYLE
  5
2E
102
{ACAD_REACTORS
330
2A
102
}
102
{ACAD_XDICTIONARY
360
109
102
}
330
2A
100
AcDbVisualStyle
  2
GouraudWithEdges
 70
     3
177
     2
291
     1
 71
     2
176
     1
 72
     2
176
     1
 73
     1
176
     1
 90
        2
176
     1
 40
0.6
176
     1
 41
30.0
176
     1
 62
     5
 63
     7
421
 16777215
176
     1
 74
     1
176
     1
 91
        0
176
     1
 64
     7
176
     1
 65
   257
176
     1
 75
     1
176
     1
175
     1
176
     1
 42
1.0
176
     1
 92
        0
176
     1
 66
   257
176
     1
 43
1.0
176
     1
 76
     1
176
     1
 77
     6
176
     1
 78
     2
176
     1
 67
     7
176
     1
 79
     5
176
     1
170
     0
176
     1
171
     0
176
     1
290
     0
176
     1
 93
       13
176
     1
 44
0.0
176
     1
173
     0
176
     1
  0
VISUALSTYLE
  5
31
102
{ACAD_REACTORS
330
2A
102
}
102
{ACAD_XDICTIONARY
360
10F
102
}
330
2A
100
AcDbVisualStyle
  2
Hidden
 70
     6
177
     2
291
     0
 71
     1
176
     1
 72
     2
176
     1
 73
     2
176
     1
 90
        0
176
     1
 40
0.6
176
     1
 41
30.0
176
     1
 62
     5
 63
     7
421
 16777215
176
     1
 74
     2
176
     1
 91
        2
176
     1
 64
     7
176
     1
 65
   257
176
     1
 75
     2
176
     1
175
     1
176
     1
 42
40.0
176
     1
 92
        0
176
     1
 66
   257
176
     1
 43
1.0
176
     1
 76
     1
176
     1
 77
     6
176
     1
 78
     2
176
     1
 67
     7
176
     1
 79
     3
176
     1
170
     0
176
     1
171
     0
176
     1
290
     0
176
     1
 93
        1
176
     1
 44
0.0
176
     1
173
     0
176
     1
  0
VISUALSTYLE
  5
3B
102
{ACAD_REACTORS
330
2A
102
}
102
{ACAD_XDICTIONARY
360
123
102
}
330
2A
100
AcDbVisualStyle
  2
JitterOff
 70
    20
177
     2
291
     1
 71
     2
176
     0
 72
     2
176
     0
 73
     0
176
     0
 90
        0
176
     0
 40
0.6
176
     0
 41
30.0
176
     0
 62
     5
 63
     7
421
 16777215
176
     0
 74
     1
176
     0
 91
        4
176
     0
 64
     7
176
     0
 65
   257
176
     0
 75
     1
176
     0
175
     1
176
     0
 42
1.0
176
     0
 92
       10
176
     2
 66
     7
176
     0
 43
1.0
176
     0
 76
     1
176
     0
 77
     6
176
     0
 78
     2
176
     0
 67
     7
176
     0
 79
     5
176
     0
170
     0
176
     0
171
     0
176
     0
290
     0
176
     0
 93
        1
176
     0
 44
0.0
176
     0
173
     0
176
     0
  0
VISUALSTYLE
  5
38
102
{ACAD_REACTORS
330
2A
102
}
102
{ACAD_XDICTIONARY
360
11D
102
}
330
2A
100
AcDbVisualStyle
  2
Linepattern
 70
    14
177
     2
291
     1
 71
     2
176
     1
 72
     2
176
     1
 73
     0
176
     1
 90
        0
176
     1
 40
0.6
176
     1
 41
30.0
176
     1
 62
     5
 63
     7
421
 16777215
176
     1
 74
     1
176
     1
 91
        4
176
     1
 64
     7
176
     1
 65
   257
176
     1
 75
     7
176
     1
175
     7
176
     1
 42
1.0
176
     1
 92
        8
176
     1
 66
     7
176
     1
 43
1.0
176
     1
 76
     1
176
     1
 77
     6
176
     1
 78
     2
176
     1
 67
     7
176
     1
 79
     5
176
     1
170
     0
176
     1
171
     0
176
     1
290
     0
176
     1
 93
        1
176
     1
 44
0.0
176
     1
173
     0
176
     1
  0
VISUALSTYLE
  5
3C
102
{ACAD_REACTORS
330
2A
102
}
102
{ACAD_XDICTIONARY
360
125
102
}
330
2A
100
AcDbVisualStyle
  2
OverhangOff
 70
    21
177
     2
291
     1
 71
     2
176
     0
 72
     2
176
     0
 73
     0
176
     0
 90
        0
176
     0
 40
0.6
176
     0
 41
30.0
176
     0
 62
     5
 63
     7
421
 16777215
176
     0
 74
     1
176
     0
 91
        4
176
     0
 64
     7
176
     0
 65
   257
176
     0
 75
     1
176
     0
175
     1
176
     0
 42
1.0
176
     0
 92
        9
176
     2
 66
     7
176
     0
 43
1.0
176
     0
 76
     1
176
     0
 77
     6
176
     0
 78
     2
176
     0
 67
     7
176
     0
 79
     5
176
     0
170
     0
176
     0
171
     0
176
     0
290
     0
176
     0
 93
        1
176
     0
 44
0.0
176
     0
173
     0
176
     0
  0
VISUALSTYLE
  5
33
102
{ACAD_REACTORS
330
2A
102
}
102
{ACAD_XDICTIONARY
360
113
102
}
330
2A
100
AcDbVisualStyle
  2
Realistic
 70
     8
177
     2
291
     0
 71
     2
176
     1
 72
     3
176
     1
 73
     0
176
     1
 90
        2
176
     1
 40
0.6
176
     1
 41
30.0
176
     1
 62
     5
 63
     7
421
 16777215
176
     1
 74
     0
176
     1
 91
        0
176
     1
 64
     7
176
     1
 65
   257
176
     1
 75
     1
176
     1
175
     1
176
     1
 42
1.0
176
     1
 92
        8
176
     1
 66
   257
176
     1
 43
1.0
176
     1
 76
     1
176
     1
 77
     6
176
     1
 78
     2
176
     1
 67
     7
176
     1
 79
     3
176
     1
170
     0
176
     1
171
     0
176
     1
290
     0
176
     1
 93
       13
176
     1
 44
0.0
176
     1
173
     0
176
     1
  0
VISUALSTYLE
  5
42
102
{ACAD_REACTORS
330
2A
102
}
102
{ACAD_XDICTIONARY
360
131
102
}
330
2A
100
AcDbVisualStyle
  2
Shaded
 70
    27
177
     2
291
     0
 71
     2
176
     1
 72
     2
176
     1
 73
     1
176
     1
 90
        2
176
     1
 40
0.6
176
     1
 41
30.0
176
     1
 62
     5
 63
     7
421
 16777215
176
     1
 74
     0
176
     1
 91
        4
176
     1
 64
     7
176
     1
 65
   257
176
     1
 75
     1
176
     1
175
     1
176
     1
 42
1.0
176
     1
 92
        8
176
     1
 66
   257
176
     1
 43
1.0
176
     1
 76
     1
176
     1
 77
     6
176
     1
 78
     2
176
     1
 67
     8
425
  7895160
176
     1
 79
     3
176
     1
170
     0
176
     1
171
     0
176
     1
290
     0
176
     1
 93
        5
176
     1
 44
0.0
176
     1
173
     0
176
     1
  0
VISUALSTYLE
  5
41
102
{ACAD_REACTORS
330
2A
102
}
102
{ACAD_XDICTIONARY
360
12F
102
}
330
2A
100
AcDbVisualStyle
  2
Shaded with edges
 70
    26
177
     2
291
     0
 71
     2
176
     1
 72
     2
176
     1
 73
     1
176
     1
 90
        2
176
     1
 40
0.6
176
     1
 41
30.0
176
     1
 62
     5
 63
     7
421
 16777215
176
     1
 74
     1
176
     1
 91
       10
176
     1
 64
     7
176
     1
 65
   257
176
     1
 75
     2
176
     1
175
     1
176
     1
 42
1.0
176
     1
 92
        8
176
     1
 66
   257
176
     1
 43
1.0
176
     1
 76
     1
176
     1
 77
     6
176
     1
 78
     2
176
     1
 67
     7
176
     1
 79
     3
176
     1
170
     0
176
     1
171
     0
176
     1
290
     0
176
     1
 93
        5
176
     1
 44
0.0
176
     1
173
     0
176
     1
  0
VISUALSTYLE
  5
3E
102
{ACAD_REACTORS
330
2A
102
}
102
{ACAD_XDICTIONARY
360
129
102
}
330
2A
100
AcDbVisualStyle
  2
Shades of Gray
 70
    23
177
     2
291
     0
 71
     2
176
     1
 72
     2
176
     1
 73
     3
176
     1
 90
        0
176
     1
 40
0.6
176
     1
 41
30.0
176
     1
 62
     5
 63
     7
421
 16777215
176
     1
 74
     2
176
     1
 91
        2
176
     1
 64
     7
176
     1
 65
     7
176
     1
 75
     1
176
     1
175
     1
176
     1
 42
40.0
176
     1
 92
        8
176
     1
 66
     7
176
     1
 43
1.0
176
     1
 76
     1
176
     1
 77
     6
176
     1
 78
     2
176
     1
 67
     7
176
     1
 79
     3
176
     1
170
     0
176
     1
171
     0
176
     1
290
     0
176
     1
 93
        1
176
     1
 44
0.0
176
     1
173
     0
176
     1
  0
VISUALSTYLE
  5
3F
102
{ACAD_REACTORS
330
2A
102
}
102
{ACAD_XDICTIONARY
360
12B
102
}
330
2A
100
AcDbVisualStyle
  2
Sketchy
 70
    24
177
     2
291
     0
 71
     1
176
     1
 72
     2
176
     1
 73
     2
176
     1
 90
        0
176
     1
 40
0.6
176
     1
 41
30.0
176
     1
 62
     5
 63
     7
421
 16777215
176
     1
 74
     2
176
     1
 91
        2
176
     1
 64
     7
176
     1
 65
     7
176
     1
 75
     1
176
     1
175
     1
176
     1
 42
40.0
176
     1
 92
       11
176
     1
 66
     7
176
     1
 43
1.0
176
     1
 76
     1
176
     1
 77
     6
176
     1
 78
     2
176
     1
 67
     7
176
     1
 79
     6
176
     1
170
     0
176
     1
171
     0
176
     1
290
     0
176
     1
 93
        1
176
     1
 44
0.0
176
     1
173
     0
176
     1
  0
VISUALSTYLE
  5
37
102
{ACAD_REACTORS
330
2A
102
}
102
{ACAD_XDICTIONARY
360
11B
102
}
330
2A
100
AcDbVisualStyle
  2
Thicken
 70
    13
177
     2
291
     1
 71
     2
176
     1
 72
     2
176
     1
 73
     0
176
     1
 90
        0
176
     1
 40
0.6
176
     1
 41
30.0
176
     1
 62
     5
 63
     7
421
 16777215
176
     1
 74
     1
176
     1
 91
        4
176
     1
 64
     7
176
     1
 65
   257
176
     1
 75
     1
176
     1
175
     1
176
     1
 42
1.0
176
     1
 92
       12
176
     1
 66
     7
176
     1
 43
1.0
176
     1
 76
     1
176
     1
 77
     6
176
     1
 78
     2
176
     1
 67
     7
176
     1
 79
     5
176
     1
170
     0
176
     1
171
     0
176
     1
290
     0
176
     1
 93
        1
176
     1
 44
0.0
176
     1
173
     0
176
     1
  0
VISUALSTYLE
  5
30
102
{ACAD_REACTORS
330
2A
102
}
102
{ACAD_XDICTIONARY
360
10D
102
}
330
2A
100
AcDbVisualStyle
  2
Wireframe
 70
     5
177
     2
291
     0
 71
     0
176
     1
 72
     2
176
     1
 73
     0
176
     1
 90
        0
176
     1
 40
0.6
176
     1
 41
30.0
176
     1
 62
     5
 63
     7
421
 16777215
176
     1
 74
     1
176
     1
 91
        4
176
     1
 64
     7
176
     1
 65
   257
176
     1
 75
     1
176
     1
175
     1
176
     1
 42
1.0
176
     1
 92
        0
176
     1
 66
   257
176
     1
 43
1.0
176
     1
 76
     1
176
     1
 77
     6
176
     1
 78
     2
176
     1
 67
     7
176
     1
 79
     3
176
     1
170
     0
176
     1
171
     0
176
     1
290
     0
176
     1
 93
        1
176
     1
 44
0.0
176
     1
173
     0
176
     1
  0
VISUALSTYLE
  5
40
102
{ACAD_REACTORS
330
2A
102
}
102
{ACAD_XDICTIONARY
360
12D
102
}
330
2A
100
AcDbVisualStyle
  2
X-Ray
 70
    25
177
     2
291
     0
 71
     2
176
     1
 72
     2
176
     1
 73
     1
176
     1
 90
        1
176
     1
 40
0.5
176
     1
 41
30.0
176
     1
 62
     5
 63
     7
421
 16777215
176
     1
 74
     1
176
     1
 91
        0
176
     1
 64
     7
176
     1
 65
   257
176
     1
 75
     1
176
     1
175
     1
176
     1
 42
1.0
176
     1
 92
        8
176
     1
 66
     7
176
     1
 43
1.0
176
     1
 76
     1
176
     1
 77
     6
176
     1
 78
     2
176
     1
 67
     7
176
     1
 79
     3
176
     1
170
     0
176
     1
171
     0
176
     1
290
     0
176
     1
 93
       13
176
     1
 44
0.0
176
     1
173
     0
176
     1
  0
DICTIONARYVAR
  5
102
102
{ACAD_REACTORS
330
101
102
}
330
101
100
DictionaryVariables
280
     0
  1
1:1
  0
DICTIONARYVAR
  5
137
102
{ACAD_REACTORS
330
101
102
}
330
101
100
DictionaryVariables
280
     0
  1
Standard
  0
DICTIONARYVAR
  5
136
102
{ACAD_REACTORS
330
101
102
}
330
101
100
DictionaryVariables
280
     0
  1
Standard
  0
DICTIONARY
  5
133
330
6A
100
AcDbDictionary
280
     1
281
     1
  3
ACAD_ROUNDTRIP_2008_TABLESTYLE_CELLSTYLEMAP
360
134
  0
DICTIONARY
  5
10B
330
2F
100
AcDbDictionary
280
     1
281
     1
  3
ACAD_XREC_ROUNDTRIP
360
10C
  0
DICTIONARY
  5
111
330
32
100
AcDbDictionary
280
     1
281
     1
  3
ACAD_XREC_ROUNDTRIP
360
112
  0
DICTIONARY
  5
119
330
36
100
AcDbDictionary
280
     1
281
     1
  3
ACAD_XREC_ROUNDTRIP
360
11A
  0
DICTIONARY
  5
121
330
3A
100
AcDbDictionary
280
     1
281
     1
  3
ACAD_XREC_ROUNDTRIP
360
122
  0
DICTIONARY
  5
115
330
34
100
AcDbDictionary
280
     1
281
     1
  3
ACAD_XREC_ROUNDTRIP
360
116
  0
DICTIONARY
  5
117
330
35
100
AcDbDictionary
280
     1
281
     1
  3
ACAD_XREC_ROUNDTRIP
360
118
  0
DICTIONARY
  5
127
330
3D
100
AcDbDictionary
280
     1
281
     1
  3
ACAD_XREC_ROUNDTRIP
360
128
  0
DICTIONARY
  5
11F
330
39
100
AcDbDictionary
280
     1
281
     1
  3
ACAD_XREC_ROUNDTRIP
360
120
  0
DICTIONARY
  5
103
330
2B
100
AcDbDictionary
280
     1
281
     1
  3
ACAD_XREC_ROUNDTRIP
360
104
  0
DICTIONARY
  5
105
330
2C
100
AcDbDictionary
280
     1
281
     1
  3
ACAD_XREC_ROUNDTRIP
360
106
  0
DICTIONARY
  5
107
330
2D
100
AcDbDictionary
280
     1
281
     1
  3
ACAD_XREC_ROUNDTRIP
360
108
  0
DICTIONARY
  5
109
330
2E
100
AcDbDictionary
280
     1
281
     1
  3
ACAD_XREC_ROUNDTRIP
360
10A
  0
DICTIONARY
  5
10F
330
31
100
AcDbDictionary
280
     1
281
     1
  3
ACAD_XREC_ROUNDTRIP
360
110
  0
DICTIONARY
  5
123
330
3B
100
AcDbDictionary
280
     1
281
     1
  3
ACAD_XREC_ROUNDTRIP
360
124
  0
DICTIONARY
  5
11D
330
38
100
AcDbDictionary
280
     1
281
     1
  3
ACAD_XREC_ROUNDTRIP
360
11E
  0
DICTIONARY
  5
125
330
3C
100
AcDbDictionary
280
     1
281
     1
  3
ACAD_XREC_ROUNDTRIP
360
126
  0
DICTIONARY
  5
113
330
33
100
AcDbDictionary
280
     1
281
     1
  3
ACAD_XREC_ROUNDTRIP
360
114
  0
DICTIONARY
  5
131
330
42
100
AcDbDictionary
280
     1
281
     1
  3
ACAD_XREC_ROUNDTRIP
360
132
  0
DICTIONARY
  5
12F
330
41
100
AcDbDictionary
280
     1
281
     1
  3
ACAD_XREC_ROUNDTRIP
360
130
  0
DICTIONARY
  5
129
330
3E
100
AcDbDictionary
280
     1
281
     1
  3
ACAD_XREC_ROUNDTRIP
360
12A
  0
DICTIONARY
  5
12B
330
3F
100
AcDbDictionary
280
     1
281
     1
  3
ACAD_XREC_ROUNDTRIP
360
12C
  0
DICTIONARY
  5
11B
330
37
100
AcDbDictionary
280
     1
281
     1
  3
ACAD_XREC_ROUNDTRIP
360
11C
  0
DICTIONARY
  5
10D
330
30
100
AcDbDictionary
280
     1
281
     1
  3
ACAD_XREC_ROUNDTRIP
360
10E
  0
DICTIONARY
  5
12D
330
40
100
AcDbDictionary
280
     1
281
     1
  3
ACAD_XREC_ROUNDTRIP
360
12E
  0
CELLSTYLEMAP
  5
134
102
{ACAD_REACTORS
330
133
102
}
330
133
100
AcDbCellStyleMap
 90
        3
300
CELLSTYLE
  1
TABLEFORMAT_BEGIN
 90
        5
170
     1
 91
        0
 92
    32768
 62
   257
 93
        1
300
CONTENTFORMAT
  1
CONTENTFORMAT_BEGIN
 90
        0
 91
        0
 92
        4
 93
        0
300

 40
0.0
140
1.0
 94
        5
 62
     0
340
11
144
0.25
309
CONTENTFORMAT_END
171
     1
301
MARGIN
  1
CELLMARGIN_BEGIN
 40
0.06
 40
0.06
 40
0.06
 40
0.06
 40
0.06
 40
0.06
309
CELLMARGIN_END
 94
        6
 95
        1
302
GRIDFORMAT
  1
GRIDFORMAT_BEGIN
 90
        0
 91
        1
 62
     0
 92
       -2
340
14
 93
        0
 40
0.045
309
GRIDFORMAT_END
 95
        2
302
GRIDFORMAT
  1
GRIDFORMAT_BEGIN
 90
        0
 91
        1
 62
     0
 92
       -2
340
14
 93
        0
 40
0.045
309
GRIDFORMAT_END
 95
        4
302
GRIDFORMAT
  1
GRIDFORMAT_BEGIN
 90
        0
 91
        1
 62
     0
 92
       -2
340
14
 93
        0
 40
0.045
309
GRIDFORMAT_END
 95
        8
302
GRIDFORMAT
  1
GRIDFORMAT_BEGIN
 90
        0
 91
        1
 62
     0
 92
       -2
340
14
 93
        0
 40
0.045
309
GRIDFORMAT_END
 95
       16
302
GRIDFORMAT
  1
GRIDFORMAT_BEGIN
 90
        0
 91
        1
 62
     0
 92
       -2
340
14
 93
        0
 40
0.045
309
GRIDFORMAT_END
 95
       32
302
GRIDFORMAT
  1
GRIDFORMAT_BEGIN
 90
        0
 91
        1
 62
     0
 92
       -2
340
14
 93
        0
 40
0.045
309
GRIDFORMAT_END
309
TABLEFORMAT_END
  1
CELLSTYLE_BEGIN
 90
        1
 91
        1
300
_TITLE
309
CELLSTYLE_END
300
CELLSTYLE
  1
TABLEFORMAT_BEGIN
 90
        5
170
     1
 91
        0
 92
        0
 62
   257
 93
        1
300
CONTENTFORMAT
  1
CONTENTFORMAT_BEGIN
 90
        0
 91
        0
 92
        4
 93
        0
300

 40
0.0
140
1.0
 94
        5
 62
     0
340
11
144
0.18
309
CONTENTFORMAT_END
171
     1
301
MARGIN
  1
CELLMARGIN_BEGIN
 40
0.06
 40
0.06
 40
0.06
 40
0.06
 40
0.06
 40
0.06
309
CELLMARGIN_END
 94
        6
 95
        1
302
GRIDFORMAT
  1
GRIDFORMAT_BEGIN
 90
        0
 91
        1
 62
     0
 92
       -2
340
14
 93
        0
 40
0.045
309
GRIDFORMAT_END
 95
        2
302
GRIDFORMAT
  1
GRIDFORMAT_BEGIN
 90
        0
 91
        1
 62
     0
 92
       -2
340
14
 93
        0
 40
0.045
309
GRIDFORMAT_END
 95
        4
302
GRIDFORMAT
  1
GRIDFORMAT_BEGIN
 90
        0
 91
        1
 62
     0
 92
       -2
340
14
 93
        0
 40
0.045
309
GRIDFORMAT_END
 95
        8
302
GRIDFORMAT
  1
GRIDFORMAT_BEGIN
 90
        0
 91
        1
 62
     0
 92
       -2
340
14
 93
        0
 40
0.045
309
GRIDFORMAT_END
 95
       16
302
GRIDFORMAT
  1
GRIDFORMAT_BEGIN
 90
        0
 91
        1
 62
     0
 92
       -2
340
14
 93
        0
 40
0.045
309
GRIDFORMAT_END
 95
       32
302
GRIDFORMAT
  1
GRIDFORMAT_BEGIN
 90
        0
 91
        1
 62
     0
 92
       -2
340
14
 93
        0
 40
0.045
309
GRIDFORMAT_END
309
TABLEFORMAT_END
  1
CELLSTYLE_BEGIN
 90
        2
 91
        1
300
_HEADER
309
CELLSTYLE_END
300
CELLSTYLE
  1
TABLEFORMAT_BEGIN
 90
        5
170
     1
 91
        0
 92
        0
 62
   257
 93
        1
300
CONTENTFORMAT
  1
CONTENTFORMAT_BEGIN
 90
        0
 91
        0
 92
        4
 93
        0
300

 40
0.0
140
1.0
 94
        2
 62
     0
340
11
144
0.18
309
CONTENTFORMAT_END
171
     1
301
MARGIN
  1
CELLMARGIN_BEGIN
 40
0.06
 40
0.06
 40
0.06
 40
0.06
 40
0.06
 40
0.06
309
CELLMARGIN_END
 94
        6
 95
        1
302
GRIDFORMAT
  1
GRIDFORMAT_BEGIN
 90
        0
 91
        1
 62
     0
 92
       -2
340
14
 93
        0
 40
0.045
309
GRIDFORMAT_END
 95
        2
302
GRIDFORMAT
  1
GRIDFORMAT_BEGIN
 90
        0
 91
        1
 62
     0
 92
       -2
340
14
 93
        0
 40
0.045
309
GRIDFORMAT_END
 95
        4
302
GRIDFORMAT
  1
GRIDFORMAT_BEGIN
 90
        0
 91
        1
 62
     0
 92
       -2
340
14
 93
        0
 40
0.045
309
GRIDFORMAT_END
 95
        8
302
GRIDFORMAT
  1
GRIDFORMAT_BEGIN
 90
        0
 91
        1
 62
     0
 92
       -2
340
14
 93
        0
 40
0.045
309
GRIDFORMAT_END
 95
       16
302
GRIDFORMAT
  1
GRIDFORMAT_BEGIN
 90
        0
 91
        1
 62
     0
 92
       -2
340
14
 93
        0
 40
0.045
309
GRIDFORMAT_END
 95
       32
302
GRIDFORMAT
  1
GRIDFORMAT_BEGIN
 90
        0
 91
        1
 62
     0
 92
       -2
340
14
 93
        0
 40
0.045
309
GRIDFORMAT_END
309
TABLEFORMAT_END
  1
CELLSTYLE_BEGIN
 90
        3
 91
        2
300
_DATA
309
CELLSTYLE_END
  0
XRECORD
  5
10C
102
{ACAD_REACTORS
330
10B
102
}
330
10B
100
AcDbXrecord
280
     1
102
RTVSPost2010Prop28
280
     1
102
RTVSPost2010PropOp28
 70
     1
102
RTVSPost2010Prop29
280
     1
102
RTVSPost2010PropOp29
 70
     1
102
RTVSPost2010Prop30
280
     0
102
RTVSPost2010PropOp30
 70
     1
102
RTVSPost2010Prop31
280
     0
102
RTVSPost2010PropOp31
 70
     1
102
RTVSPost2010Prop32
280
     0
102
RTVSPost2010PropOp32
 70
     1
102
RTVSPost2010Prop33
280
     0
102
RTVSPost2010PropOp33
 70
     1
102
RTVSPost2010Prop34
280
     0
102
RTVSPost2010PropOp34
 70
     1
102
RTVSPost2010Prop35
280
     0
102
RTVSPost2010PropOp35
 70
     1
102
RTVSPost2010Prop36
280
     0
102
RTVSPost2010PropOp36
 70
     1
102
RTVSPost2010Prop37
 90
       50
102
RTVSPost2010PropOp37
 70
     1
102
RTVSPost2010Prop38
140
0.0
102
RTVSPost2010PropOp38
 70
     1
102
RTVSPost2010Prop39
140
1.0
102
RTVSPost2010PropOp39
 70
     1
102
RTVSPost2010Prop40
 90
        0
102
RTVSPost2010PropOp40
 70
     1
102
RTVSPost2010Prop41ColorIndex
 90
       18
102
RTVSPost2010Prop41ColorRGB
 90
        0
102
RTVSPost2010PropOp41
 70
     1
102
RTVSPost2010Prop42
 90
       50
102
RTVSPost2010PropOp42
 70
     1
102
RTVSPost2010Prop43
 90
        3
102
RTVSPost2010PropOp43
 70
     1
102
RTVSPost2010Prop44ColorIndex
 90
        5
102
RTVSPost2010Prop44ColorRGB
 90
      255
102
RTVSPost2010PropOp44
 70
     1
102
RTVSPost2010Prop45
280
     0
102
RTVSPost2010PropOp45
 70
     1
102
RTVSPost2010Prop46
 90
       50
102
RTVSPost2010PropOp46
 70
     1
102
RTVSPost2010Prop47
 90
       50
102
RTVSPost2010PropOp47
 70
     1
102
RTVSPost2010Prop48
 90
       50
102
RTVSPost2010PropOp48
 70
     1
102
RTVSPost2010Prop49
280
     0
102
RTVSPost2010PropOp49
 70
     1
102
RTVSPost2010Prop50
 90
       50
102
RTVSPost2010PropOp50
 70
     1
102
RTVSPost2010Prop51ColorIndex
 90
      256
102
RTVSPost2010Prop51ColorRGB
 90
-16777216
102
RTVSPost2010PropOp51
 70
     0
102
RTVSPost2010Prop52
140
1.0
102
RTVSPost2010PropOp52
 70
     0
102
RTVSPost2010Prop53
 90
        2
102
RTVSPost2010PropOp53
 70
     1
102
RTVSPost2010Prop54
  1
strokes_ogs.tif
102
RTVSPost2010PropOp54
 70
     1
102
RTVSPost2010Prop55
280
     0
102
RTVSPost2010PropOp55
 70
     1
102
RTVSPost2010Prop56
140
1.0
102
RTVSPost2010PropOp56
 70
     1
102
RTVSPost2010Prop57
140
1.0
102
RTVSPost2010PropOp57
 70
     1
  0
XRECORD
  5
112
102
{ACAD_REACTORS
330
111
102
}
330
111
100
AcDbXrecord
280
     1
102
RTVSPost2010Prop28
280
     0
102
RTVSPost2010PropOp28
 70
     1
102
RTVSPost2010Prop29
280
     1
102
RTVSPost2010PropOp29
 70
     1
102
RTVSPost2010Prop30
280
     1
102
RTVSPost2010PropOp30
 70
     1
102
RTVSPost2010Prop31
280
     0
102
RTVSPost2010PropOp31
 70
     1
102
RTVSPost2010Prop32
280
     0
102
RTVSPost2010PropOp32
 70
     1
102
RTVSPost2010Prop33
280
     0
102
RTVSPost2010PropOp33
 70
     1
102
RTVSPost2010Prop34
280
     0
102
RTVSPost2010PropOp34
 70
     1
102
RTVSPost2010Prop35
280
     0
102
RTVSPost2010PropOp35
 70
     1
102
RTVSPost2010Prop36
280
     0
102
RTVSPost2010PropOp36
 70
     1
102
RTVSPost2010Prop37
 90
       50
102
RTVSPost2010PropOp37
 70
     1
102
RTVSPost2010Prop38
140
0.0
102
RTVSPost2010PropOp38
 70
     1
102
RTVSPost2010Prop39
140
1.0
102
RTVSPost2010PropOp39
 70
     1
102
RTVSPost2010Prop40
 90
        0
102
RTVSPost2010PropOp40
 70
     1
102
RTVSPost2010Prop41ColorIndex
 90
       18
102
RTVSPost2010Prop41ColorRGB
 90
        0
102
RTVSPost2010PropOp41
 70
     1
102
RTVSPost2010Prop42
 90
       50
102
RTVSPost2010PropOp42
 70
     1
102
RTVSPost2010Prop43
 90
        3
102
RTVSPost2010PropOp43
 70
     1
102
RTVSPost2010Prop44ColorIndex
 90
        5
102
RTVSPost2010Prop44ColorRGB
 90
      255
102
RTVSPost2010PropOp44
 70
     1
102
RTVSPost2010Prop45
280
     0
102
RTVSPost2010PropOp45
 70
     1
102
RTVSPost2010Prop46
 90
       50
102
RTVSPost2010PropOp46
 70
     1
102
RTVSPost2010Prop47
 90
       50
102
RTVSPost2010PropOp47
 70
     1
102
RTVSPost2010Prop48
 90
       50
102
RTVSPost2010PropOp48
 70
     1
102
RTVSPost2010Prop49
280
     0
102
RTVSPost2010PropOp49
 70
     1
102
RTVSPost2010Prop50
 90
       50
102
RTVSPost2010PropOp50
 70
     1
102
RTVSPost2010Prop51ColorIndex
 90
      256
102
RTVSPost2010Prop51ColorRGB
 90
-16777216
102
RTVSPost2010PropOp51
 70
     0
102
RTVSPost2010Prop52
140
1.0
102
RTVSPost2010PropOp52
 70
     0
102
RTVSPost2010Prop53
 90
        2
102
RTVSPost2010PropOp53
 70
     1
102
RTVSPost2010Prop54
  1
strokes_ogs.tif
102
RTVSPost2010PropOp54
 70
     1
102
RTVSPost2010Prop55
280
     0
102
RTVSPost2010PropOp55
 70
     1
102
RTVSPost2010Prop56
140
1.0
102
RTVSPost2010PropOp56
 70
     1
102
RTVSPost2010Prop57
140
1.0
102
RTVSPost2010PropOp57
 70
     1
  0
XRECORD
  5
11A
102
{ACAD_REACTORS
330
119
102
}
330
119
100
AcDbXrecord
280
     1
102
RTVSPost2010Prop28
280
     0
102
RTVSPost2010PropOp28
 70
     1
102
RTVSPost2010Prop29
280
     1
102
RTVSPost2010PropOp29
 70
     1
102
RTVSPost2010Prop30
280
     1
102
RTVSPost2010PropOp30
 70
     1
102
RTVSPost2010Prop31
280
     0
102
RTVSPost2010PropOp31
 70
     1
102
RTVSPost2010Prop32
280
     0
102
RTVSPost2010PropOp32
 70
     1
102
RTVSPost2010Prop33
280
     0
102
RTVSPost2010PropOp33
 70
     1
102
RTVSPost2010Prop34
280
     0
102
RTVSPost2010PropOp34
 70
     1
102
RTVSPost2010Prop35
280
     0
102
RTVSPost2010PropOp35
 70
     1
102
RTVSPost2010Prop36
280
     0
102
RTVSPost2010PropOp36
 70
     1
102
RTVSPost2010Prop37
 90
       50
102
RTVSPost2010PropOp37
 70
     1
102
RTVSPost2010Prop38
140
0.0
102
RTVSPost2010PropOp38
 70
     1
102
RTVSPost2010Prop39
140
1.0
102
RTVSPost2010PropOp39
 70
     1
102
RTVSPost2010Prop40
 90
        0
102
RTVSPost2010PropOp40
 70
     1
102
RTVSPost2010Prop41ColorIndex
 90
       18
102
RTVSPost2010Prop41ColorRGB
 90
        0
102
RTVSPost2010PropOp41
 70
     1
102
RTVSPost2010Prop42
 90
       50
102
RTVSPost2010PropOp42
 70
     1
102
RTVSPost2010Prop43
 90
        3
102
RTVSPost2010PropOp43
 70
     1
102
RTVSPost2010Prop44ColorIndex
 90
        5
102
RTVSPost2010Prop44ColorRGB
 90
      255
102
RTVSPost2010PropOp44
 70
     1
102
RTVSPost2010Prop45
280
     0
102
RTVSPost2010PropOp45
 70
     1
102
RTVSPost2010Prop46
 90
       50
102
RTVSPost2010PropOp46
 70
     1
102
RTVSPost2010Prop47
 90
       50
102
RTVSPost2010PropOp47
 70
     1
102
RTVSPost2010Prop48
 90
       50
102
RTVSPost2010PropOp48
 70
     1
102
RTVSPost2010Prop49
280
     0
102
RTVSPost2010PropOp49
 70
     1
102
RTVSPost2010Prop50
 90
       50
102
RTVSPost2010PropOp50
 70
     1
102
RTVSPost2010Prop51ColorIndex
 90
      256
102
RTVSPost2010Prop51ColorRGB
 90
-16777216
102
RTVSPost2010PropOp51
 70
     0
102
RTVSPost2010Prop52
140
1.0
102
RTVSPost2010PropOp52
 70
     0
102
RTVSPost2010Prop53
 90
        2
102
RTVSPost2010PropOp53
 70
     1
102
RTVSPost2010Prop54
  1
strokes_ogs.tif
102
RTVSPost2010PropOp54
 70
     1
102
RTVSPost2010Prop55
280
     0
102
RTVSPost2010PropOp55
 70
     1
102
RTVSPost2010Prop56
140
1.0
102
RTVSPost2010PropOp56
 70
     1
102
RTVSPost2010Prop57
140
1.0
102
RTVSPost2010PropOp57
 70
     1
  0
XRECORD
  5
122
102
{ACAD_REACTORS
330
121
102
}
330
121
100
AcDbXrecord
280
     1
102
RTVSPost2010Prop28
280
     0
102
RTVSPost2010PropOp28
 70
     1
102
RTVSPost2010Prop29
280
     1
102
RTVSPost2010PropOp29
 70
     1
102
RTVSPost2010Prop30
280
     1
102
RTVSPost2010PropOp30
 70
     1
102
RTVSPost2010Prop31
280
     0
102
RTVSPost2010PropOp31
 70
     1
102
RTVSPost2010Prop32
280
     0
102
RTVSPost2010PropOp32
 70
     1
102
RTVSPost2010Prop33
280
     0
102
RTVSPost2010PropOp33
 70
     1
102
RTVSPost2010Prop34
280
     0
102
RTVSPost2010PropOp34
 70
     1
102
RTVSPost2010Prop35
280
     0
102
RTVSPost2010PropOp35
 70
     1
102
RTVSPost2010Prop36
280
     0
102
RTVSPost2010PropOp36
 70
     1
102
RTVSPost2010Prop37
 90
       50
102
RTVSPost2010PropOp37
 70
     1
102
RTVSPost2010Prop38
140
0.0
102
RTVSPost2010PropOp38
 70
     1
102
RTVSPost2010Prop39
140
1.0
102
RTVSPost2010PropOp39
 70
     1
102
RTVSPost2010Prop40
 90
        0
102
RTVSPost2010PropOp40
 70
     1
102
RTVSPost2010Prop41ColorIndex
 90
       18
102
RTVSPost2010Prop41ColorRGB
 90
        0
102
RTVSPost2010PropOp41
 70
     1
102
RTVSPost2010Prop42
 90
       50
102
RTVSPost2010PropOp42
 70
     1
102
RTVSPost2010Prop43
 90
        3
102
RTVSPost2010PropOp43
 70
     1
102
RTVSPost2010Prop44ColorIndex
 90
        5
102
RTVSPost2010Prop44ColorRGB
 90
      255
102
RTVSPost2010PropOp44
 70
     1
102
RTVSPost2010Prop45
280
     0
102
RTVSPost2010PropOp45
 70
     1
102
RTVSPost2010Prop46
 90
       50
102
RTVSPost2010PropOp46
 70
     1
102
RTVSPost2010Prop47
 90
       50
102
RTVSPost2010PropOp47
 70
     1
102
RTVSPost2010Prop48
 90
       50
102
RTVSPost2010PropOp48
 70
     1
102
RTVSPost2010Prop49
280
     0
102
RTVSPost2010PropOp49
 70
     1
102
RTVSPost2010Prop50
 90
       50
102
RTVSPost2010PropOp50
 70
     1
102
RTVSPost2010Prop51ColorIndex
 90
      256
102
RTVSPost2010Prop51ColorRGB
 90
-16777216
102
RTVSPost2010PropOp51
 70
     0
102
RTVSPost2010Prop52
140
1.0
102
RTVSPost2010PropOp52
 70
     0
102
RTVSPost2010Prop53
 90
        2
102
RTVSPost2010PropOp53
 70
     1
102
RTVSPost2010Prop54
  1
strokes_ogs.tif
102
RTVSPost2010PropOp54
 70
     1
102
RTVSPost2010Prop55
280
     0
102
RTVSPost2010PropOp55
 70
     1
102
RTVSPost2010Prop56
140
1.0
102
RTVSPost2010PropOp56
 70
     1
102
RTVSPost2010Prop57
140
1.0
102
RTVSPost2010PropOp57
 70
     1
  0
XRECORD
  5
116
102
{ACAD_REACTORS
330
115
102
}
330
115
100
AcDbXrecord
280
     1
102
RTVSPost2010Prop28
280
     0
102
RTVSPost2010PropOp28
 70
     1
102
RTVSPost2010Prop29
280
     1
102
RTVSPost2010PropOp29
 70
     1
102
RTVSPost2010Prop30
280
     1
102
RTVSPost2010PropOp30
 70
     1
102
RTVSPost2010Prop31
280
     0
102
RTVSPost2010PropOp31
 70
     1
102
RTVSPost2010Prop32
280
     0
102
RTVSPost2010PropOp32
 70
     1
102
RTVSPost2010Prop33
280
     0
102
RTVSPost2010PropOp33
 70
     1
102
RTVSPost2010Prop34
280
     0
102
RTVSPost2010PropOp34
 70
     1
102
RTVSPost2010Prop35
280
     0
102
RTVSPost2010PropOp35
 70
     1
102
RTVSPost2010Prop36
280
     0
102
RTVSPost2010PropOp36
 70
     1
102
RTVSPost2010Prop37
 90
       50
102
RTVSPost2010PropOp37
 70
     1
102
RTVSPost2010Prop38
140
0.0
102
RTVSPost2010PropOp38
 70
     1
102
RTVSPost2010Prop39
140
1.0
102
RTVSPost2010PropOp39
 70
     1
102
RTVSPost2010Prop40
 90
        0
102
RTVSPost2010PropOp40
 70
     1
102
RTVSPost2010Prop41ColorIndex
 90
       18
102
RTVSPost2010Prop41ColorRGB
 90
        0
102
RTVSPost2010PropOp41
 70
     1
102
RTVSPost2010Prop42
 90
       50
102
RTVSPost2010PropOp42
 70
     1
102
RTVSPost2010Prop43
 90
        3
102
RTVSPost2010PropOp43
 70
     1
102
RTVSPost2010Prop44ColorIndex
 90
        5
102
RTVSPost2010Prop44ColorRGB
 90
      255
102
RTVSPost2010PropOp44
 70
     1
102
RTVSPost2010Prop45
280
     0
102
RTVSPost2010PropOp45
 70
     1
102
RTVSPost2010Prop46
 90
       50
102
RTVSPost2010PropOp46
 70
     1
102
RTVSPost2010Prop47
 90
       50
102
RTVSPost2010PropOp47
 70
     1
102
RTVSPost2010Prop48
 90
       50
102
RTVSPost2010PropOp48
 70
     1
102
RTVSPost2010Prop49
280
     0
102
RTVSPost2010PropOp49
 70
     1
102
RTVSPost2010Prop50
 90
       50
102
RTVSPost2010PropOp50
 70
     1
102
RTVSPost2010Prop51ColorIndex
 90
      256
102
RTVSPost2010Prop51ColorRGB
 90
-16777216
102
RTVSPost2010PropOp51
 70
     0
102
RTVSPost2010Prop52
140
1.0
102
RTVSPost2010PropOp52
 70
     0
102
RTVSPost2010Prop53
 90
        2
102
RTVSPost2010PropOp53
 70
     1
102
RTVSPost2010Prop54
  1
strokes_ogs.tif
102
RTVSPost2010PropOp54
 70
     1
102
RTVSPost2010Prop55
280
     0
102
RTVSPost2010PropOp55
 70
     1
102
RTVSPost2010Prop56
140
1.0
102
RTVSPost2010PropOp56
 70
     1
102
RTVSPost2010Prop57
140
1.0
102
RTVSPost2010PropOp57
 70
     1
  0
XRECORD
  5
118
102
{ACAD_REACTORS
330
117
102
}
330
117
100
AcDbXrecord
280
     1
102
RTVSPost2010Prop28
280
     0
102
RTVSPost2010PropOp28
 70
     1
102
RTVSPost2010Prop29
280
     1
102
RTVSPost2010PropOp29
 70
     1
102
RTVSPost2010Prop30
280
     1
102
RTVSPost2010PropOp30
 70
     1
102
RTVSPost2010Prop31
280
     0
102
RTVSPost2010PropOp31
 70
     1
102
RTVSPost2010Prop32
280
     0
102
RTVSPost2010PropOp32
 70
     1
102
RTVSPost2010Prop33
280
     0
102
RTVSPost2010PropOp33
 70
     1
102
RTVSPost2010Prop34
280
     0
102
RTVSPost2010PropOp34
 70
     1
102
RTVSPost2010Prop35
280
     0
102
RTVSPost2010PropOp35
 70
     1
102
RTVSPost2010Prop36
280
     0
102
RTVSPost2010PropOp36
 70
     1
102
RTVSPost2010Prop37
 90
       50
102
RTVSPost2010PropOp37
 70
     1
102
RTVSPost2010Prop38
140
0.0
102
RTVSPost2010PropOp38
 70
     1
102
RTVSPost2010Prop39
140
1.0
102
RTVSPost2010PropOp39
 70
     1
102
RTVSPost2010Prop40
 90
        0
102
RTVSPost2010PropOp40
 70
     1
102
RTVSPost2010Prop41ColorIndex
 90
       18
102
RTVSPost2010Prop41ColorRGB
 90
        0
102
RTVSPost2010PropOp41
 70
     1
102
RTVSPost2010Prop42
 90
       50
102
RTVSPost2010PropOp42
 70
     1
102
RTVSPost2010Prop43
 90
        3
102
RTVSPost2010PropOp43
 70
     1
102
RTVSPost2010Prop44ColorIndex
 90
        5
102
RTVSPost2010Prop44ColorRGB
 90
      255
102
RTVSPost2010PropOp44
 70
     1
102
RTVSPost2010Prop45
280
     0
102
RTVSPost2010PropOp45
 70
     1
102
RTVSPost2010Prop46
 90
       50
102
RTVSPost2010PropOp46
 70
     1
102
RTVSPost2010Prop47
 90
       50
102
RTVSPost2010PropOp47
 70
     1
102
RTVSPost2010Prop48
 90
       50
102
RTVSPost2010PropOp48
 70
     1
102
RTVSPost2010Prop49
280
     0
102
RTVSPost2010PropOp49
 70
     1
102
RTVSPost2010Prop50
 90
       50
102
RTVSPost2010PropOp50
 70
     1
102
RTVSPost2010Prop51ColorIndex
 90
      256
102
RTVSPost2010Prop51ColorRGB
 90
-16777216
102
RTVSPost2010PropOp51
 70
     0
102
RTVSPost2010Prop52
140
1.0
102
RTVSPost2010PropOp52
 70
     0
102
RTVSPost2010Prop53
 90
        2
102
RTVSPost2010PropOp53
 70
     1
102
RTVSPost2010Prop54
  1
strokes_ogs.tif
102
RTVSPost2010PropOp54
 70
     1
102
RTVSPost2010Prop55
280
     0
102
RTVSPost2010PropOp55
 70
     1
102
RTVSPost2010Prop56
140
1.0
102
RTVSPost2010PropOp56
 70
     1
102
RTVSPost2010Prop57
140
1.0
102
RTVSPost2010PropOp57
 70
     1
  0
XRECORD
  5
128
102
{ACAD_REACTORS
330
127
102
}
330
127
100
AcDbXrecord
280
     1
102
RTVSPost2010Prop28
280
     0
102
RTVSPost2010PropOp28
 70
     0
102
RTVSPost2010Prop29
280
     1
102
RTVSPost2010PropOp29
 70
     0
102
RTVSPost2010Prop30
280
     1
102
RTVSPost2010PropOp30
 70
     0
102
RTVSPost2010Prop31
280
     0
102
RTVSPost2010PropOp31
 70
     0
102
RTVSPost2010Prop32
280
     0
102
RTVSPost2010PropOp32
 70
     0
102
RTVSPost2010Prop33
280
     0
102
RTVSPost2010PropOp33
 70
     0
102
RTVSPost2010Prop34
280
     0
102
RTVSPost2010PropOp34
 70
     0
102
RTVSPost2010Prop35
280
     0
102
RTVSPost2010PropOp35
 70
     0
102
RTVSPost2010Prop36
280
     0
102
RTVSPost2010PropOp36
 70
     0
102
RTVSPost2010Prop37
 90
       50
102
RTVSPost2010PropOp37
 70
     0
102
RTVSPost2010Prop38
140
0.0
102
RTVSPost2010PropOp38
 70
     0
102
RTVSPost2010Prop39
140
1.0
102
RTVSPost2010PropOp39
 70
     0
102
RTVSPost2010Prop40
 90
        0
102
RTVSPost2010PropOp40
 70
     0
102
RTVSPost2010Prop41ColorIndex
 90
       18
102
RTVSPost2010Prop41ColorRGB
 90
        0
102
RTVSPost2010PropOp41
 70
     0
102
RTVSPost2010Prop42
 90
       50
102
RTVSPost2010PropOp42
 70
     0
102
RTVSPost2010Prop43
 90
        3
102
RTVSPost2010PropOp43
 70
     0
102
RTVSPost2010Prop44ColorIndex
 90
        5
102
RTVSPost2010Prop44ColorRGB
 90
      255
102
RTVSPost2010PropOp44
 70
     0
102
RTVSPost2010Prop45
280
     0
102
RTVSPost2010PropOp45
 70
     0
102
RTVSPost2010Prop46
 90
       50
102
RTVSPost2010PropOp46
 70
     0
102
RTVSPost2010Prop47
 90
       50
102
RTVSPost2010PropOp47
 70
     0
102
RTVSPost2010Prop48
 90
       50
102
RTVSPost2010PropOp48
 70
     0
102
RTVSPost2010Prop49
280
     0
102
RTVSPost2010PropOp49
 70
     0
102
RTVSPost2010Prop50
 90
       50
102
RTVSPost2010PropOp50
 70
     0
102
RTVSPost2010Prop51ColorIndex
 90
      256
102
RTVSPost2010Prop51ColorRGB
 90
-16777216
102
RTVSPost2010PropOp51
 70
     0
102
RTVSPost2010Prop52
140
1.0
102
RTVSPost2010PropOp52
 70
     0
102
RTVSPost2010Prop53
 90
        2
102
RTVSPost2010PropOp53
 70
     0
102
RTVSPost2010Prop54
  1
strokes_ogs.tif
102
RTVSPost2010PropOp54
 70
     0
102
RTVSPost2010Prop55
280
     0
102
RTVSPost2010PropOp55
 70
     0
102
RTVSPost2010Prop56
140
1.0
102
RTVSPost2010PropOp56
 70
     0
102
RTVSPost2010Prop57
140
1.0
102
RTVSPost2010PropOp57
 70
     0
  0
XRECORD
  5
120
102
{ACAD_REACTORS
330
11F
102
}
330
11F
100
AcDbXrecord
280
     1
102
RTVSPost2010Prop28
280
     0
102
RTVSPost2010PropOp28
 70
     1
102
RTVSPost2010Prop29
280
     1
102
RTVSPost2010PropOp29
 70
     1
102
RTVSPost2010Prop30
280
     1
102
RTVSPost2010PropOp30
 70
     1
102
RTVSPost2010Prop31
280
     0
102
RTVSPost2010PropOp31
 70
     1
102
RTVSPost2010Prop32
280
     0
102
RTVSPost2010PropOp32
 70
     1
102
RTVSPost2010Prop33
280
     0
102
RTVSPost2010PropOp33
 70
     1
102
RTVSPost2010Prop34
280
     0
102
RTVSPost2010PropOp34
 70
     1
102
RTVSPost2010Prop35
280
     0
102
RTVSPost2010PropOp35
 70
     1
102
RTVSPost2010Prop36
280
     0
102
RTVSPost2010PropOp36
 70
     1
102
RTVSPost2010Prop37
 90
       50
102
RTVSPost2010PropOp37
 70
     1
102
RTVSPost2010Prop38
140
0.0
102
RTVSPost2010PropOp38
 70
     1
102
RTVSPost2010Prop39
140
1.0
102
RTVSPost2010PropOp39
 70
     1
102
RTVSPost2010Prop40
 90
        0
102
RTVSPost2010PropOp40
 70
     1
102
RTVSPost2010Prop41ColorIndex
 90
       18
102
RTVSPost2010Prop41ColorRGB
 90
        0
102
RTVSPost2010PropOp41
 70
     1
102
RTVSPost2010Prop42
 90
       50
102
RTVSPost2010PropOp42
 70
     1
102
RTVSPost2010Prop43
 90
        3
102
RTVSPost2010PropOp43
 70
     1
102
RTVSPost2010Prop44ColorIndex
 90
        5
102
RTVSPost2010Prop44ColorRGB
 90
      255
102
RTVSPost2010PropOp44
 70
     1
102
RTVSPost2010Prop45
280
     0
102
RTVSPost2010PropOp45
 70
     1
102
RTVSPost2010Prop46
 90
       50
102
RTVSPost2010PropOp46
 70
     1
102
RTVSPost2010Prop47
 90
       50
102
RTVSPost2010PropOp47
 70
     1
102
RTVSPost2010Prop48
 90
       50
102
RTVSPost2010PropOp48
 70
     1
102
RTVSPost2010Prop49
280
     0
102
RTVSPost2010PropOp49
 70
     1
102
RTVSPost2010Prop50
 90
       50
102
RTVSPost2010PropOp50
 70
     1
102
RTVSPost2010Prop51ColorIndex
 90
      256
102
RTVSPost2010Prop51ColorRGB
 90
-16777216
102
RTVSPost2010PropOp51
 70
     0
102
RTVSPost2010Prop52
140
1.0
102
RTVSPost2010PropOp52
 70
     0
102
RTVSPost2010Prop53
 90
        2
102
RTVSPost2010PropOp53
 70
     1
102
RTVSPost2010Prop54
  1
strokes_ogs.tif
102
RTVSPost2010PropOp54
 70
     1
102
RTVSPost2010Prop55
280
     0
102
RTVSPost2010PropOp55
 70
     1
102
RTVSPost2010Prop56
140
1.0
102
RTVSPost2010PropOp56
 70
     1
102
RTVSPost2010Prop57
140
1.0
102
RTVSPost2010PropOp57
 70
     1
  0
XRECORD
  5
104
102
{ACAD_REACTORS
330
103
102
}
330
103
100
AcDbXrecord
280
     1
102
RTVSPost2010Prop28
280
     0
102
RTVSPost2010PropOp28
 70
     1
102
RTVSPost2010Prop29
280
     1
102
RTVSPost2010PropOp29
 70
     1
102
RTVSPost2010Prop30
280
     1
102
RTVSPost2010PropOp30
 70
     1
102
RTVSPost2010Prop31
280
     0
102
RTVSPost2010PropOp31
 70
     1
102
RTVSPost2010Prop32
280
     0
102
RTVSPost2010PropOp32
 70
     1
102
RTVSPost2010Prop33
280
     0
102
RTVSPost2010PropOp33
 70
     1
102
RTVSPost2010Prop34
280
     0
102
RTVSPost2010PropOp34
 70
     1
102
RTVSPost2010Prop35
280
     0
102
RTVSPost2010PropOp35
 70
     1
102
RTVSPost2010Prop36
280
     0
102
RTVSPost2010PropOp36
 70
     1
102
RTVSPost2010Prop37
 90
       50
102
RTVSPost2010PropOp37
 70
     1
102
RTVSPost2010Prop38
140
0.0
102
RTVSPost2010PropOp38
 70
     1
102
RTVSPost2010Prop39
140
1.0
102
RTVSPost2010PropOp39
 70
     1
102
RTVSPost2010Prop40
 90
        0
102
RTVSPost2010PropOp40
 70
     1
102
RTVSPost2010Prop41ColorIndex
 90
       18
102
RTVSPost2010Prop41ColorRGB
 90
        0
102
RTVSPost2010PropOp41
 70
     1
102
RTVSPost2010Prop42
 90
       50
102
RTVSPost2010PropOp42
 70
     1
102
RTVSPost2010Prop43
 90
        3
102
RTVSPost2010PropOp43
 70
     1
102
RTVSPost2010Prop44ColorIndex
 90
        5
102
RTVSPost2010Prop44ColorRGB
 90
      255
102
RTVSPost2010PropOp44
 70
     1
102
RTVSPost2010Prop45
280
     0
102
RTVSPost2010PropOp45
 70
     1
102
RTVSPost2010Prop46
 90
       50
102
RTVSPost2010PropOp46
 70
     1
102
RTVSPost2010Prop47
 90
       50
102
RTVSPost2010PropOp47
 70
     1
102
RTVSPost2010Prop48
 90
       50
102
RTVSPost2010PropOp48
 70
     1
102
RTVSPost2010Prop49
280
     0
102
RTVSPost2010PropOp49
 70
     1
102
RTVSPost2010Prop50
 90
       50
102
RTVSPost2010PropOp50
 70
     1
102
RTVSPost2010Prop51ColorIndex
 90
      256
102
RTVSPost2010Prop51ColorRGB
 90
-16777216
102
RTVSPost2010PropOp51
 70
     0
102
RTVSPost2010Prop52
140
1.0
102
RTVSPost2010PropOp52
 70
     0
102
RTVSPost2010Prop53
 90
        2
102
RTVSPost2010PropOp53
 70
     1
102
RTVSPost2010Prop54
  1
strokes_ogs.tif
102
RTVSPost2010PropOp54
 70
     1
102
RTVSPost2010Prop55
280
     0
102
RTVSPost2010PropOp55
 70
     1
102
RTVSPost2010Prop56
140
1.0
102
RTVSPost2010PropOp56
 70
     1
102
RTVSPost2010Prop57
140
1.0
102
RTVSPost2010PropOp57
 70
     1
  0
XRECORD
  5
106
102
{ACAD_REACTORS
330
105
102
}
330
105
100
AcDbXrecord
280
     1
102
RTVSPost2010Prop28
280
     0
102
RTVSPost2010PropOp28
 70
     1
102
RTVSPost2010Prop29
280
     1
102
RTVSPost2010PropOp29
 70
     1
102
RTVSPost2010Prop30
280
     1
102
RTVSPost2010PropOp30
 70
     1
102
RTVSPost2010Prop31
280
     0
102
RTVSPost2010PropOp31
 70
     1
102
RTVSPost2010Prop32
280
     0
102
RTVSPost2010PropOp32
 70
     1
102
RTVSPost2010Prop33
280
     0
102
RTVSPost2010PropOp33
 70
     1
102
RTVSPost2010Prop34
280
     0
102
RTVSPost2010PropOp34
 70
     1
102
RTVSPost2010Prop35
280
     0
102
RTVSPost2010PropOp35
 70
     1
102
RTVSPost2010Prop36
280
     0
102
RTVSPost2010PropOp36
 70
     1
102
RTVSPost2010Prop37
 90
       50
102
RTVSPost2010PropOp37
 70
     1
102
RTVSPost2010Prop38
140
0.0
102
RTVSPost2010PropOp38
 70
     1
102
RTVSPost2010Prop39
140
1.0
102
RTVSPost2010PropOp39
 70
     1
102
RTVSPost2010Prop40
 90
        0
102
RTVSPost2010PropOp40
 70
     1
102
RTVSPost2010Prop41ColorIndex
 90
       18
102
RTVSPost2010Prop41ColorRGB
 90
        0
102
RTVSPost2010PropOp41
 70
     1
102
RTVSPost2010Prop42
 90
       50
102
RTVSPost2010PropOp42
 70
     1
102
RTVSPost2010Prop43
 90
        3
102
RTVSPost2010PropOp43
 70
     1
102
RTVSPost2010Prop44ColorIndex
 90
        5
102
RTVSPost2010Prop44ColorRGB
 90
      255
102
RTVSPost2010PropOp44
 70
     1
102
RTVSPost2010Prop45
280
     0
102
RTVSPost2010PropOp45
 70
     1
102
RTVSPost2010Prop46
 90
       50
102
RTVSPost2010PropOp46
 70
     1
102
RTVSPost2010Prop47
 90
       50
102
RTVSPost2010PropOp47
 70
     1
102
RTVSPost2010Prop48
 90
       50
102
RTVSPost2010PropOp48
 70
     1
102
RTVSPost2010Prop49
280
     0
102
RTVSPost2010PropOp49
 70
     1
102
RTVSPost2010Prop50
 90
       50
102
RTVSPost2010PropOp50
 70
     1
102
RTVSPost2010Prop51ColorIndex
 90
      256
102
RTVSPost2010Prop51ColorRGB
 90
-16777216
102
RTVSPost2010PropOp51
 70
     0
102
RTVSPost2010Prop52
140
1.0
102
RTVSPost2010PropOp52
 70
     0
102
RTVSPost2010Prop53
 90
        2
102
RTVSPost2010PropOp53
 70
     1
102
RTVSPost2010Prop54
  1
strokes_ogs.tif
102
RTVSPost2010PropOp54
 70
     1
102
RTVSPost2010Prop55
280
     0
102
RTVSPost2010PropOp55
 70
     1
102
RTVSPost2010Prop56
140
1.0
102
RTVSPost2010PropOp56
 70
     1
102
RTVSPost2010Prop57
140
1.0
102
RTVSPost2010PropOp57
 70
     1
  0
XRECORD
  5
108
102
{ACAD_REACTORS
330
107
102
}
330
107
100
AcDbXrecord
280
     1
102
RTVSPost2010Prop28
280
     0
102
RTVSPost2010PropOp28
 70
     1
102
RTVSPost2010Prop29
280
     1
102
RTVSPost2010PropOp29
 70
     1
102
RTVSPost2010Prop30
280
     1
102
RTVSPost2010PropOp30
 70
     1
102
RTVSPost2010Prop31
280
     0
102
RTVSPost2010PropOp31
 70
     1
102
RTVSPost2010Prop32
280
     0
102
RTVSPost2010PropOp32
 70
     1
102
RTVSPost2010Prop33
280
     0
102
RTVSPost2010PropOp33
 70
     1
102
RTVSPost2010Prop34
280
     0
102
RTVSPost2010PropOp34
 70
     1
102
RTVSPost2010Prop35
280
     0
102
RTVSPost2010PropOp35
 70
     1
102
RTVSPost2010Prop36
280
     0
102
RTVSPost2010PropOp36
 70
     1
102
RTVSPost2010Prop37
 90
       50
102
RTVSPost2010PropOp37
 70
     1
102
RTVSPost2010Prop38
140
0.0
102
RTVSPost2010PropOp38
 70
     1
102
RTVSPost2010Prop39
140
1.0
102
RTVSPost2010PropOp39
 70
     1
102
RTVSPost2010Prop40
 90
        0
102
RTVSPost2010PropOp40
 70
     1
102
RTVSPost2010Prop41ColorIndex
 90
       18
102
RTVSPost2010Prop41ColorRGB
 90
        0
102
RTVSPost2010PropOp41
 70
     1
102
RTVSPost2010Prop42
 90
       50
102
RTVSPost2010PropOp42
 70
     1
102
RTVSPost2010Prop43
 90
        3
102
RTVSPost2010PropOp43
 70
     1
102
RTVSPost2010Prop44ColorIndex
 90
        5
102
RTVSPost2010Prop44ColorRGB
 90
      255
102
RTVSPost2010PropOp44
 70
     1
102
RTVSPost2010Prop45
280
     0
102
RTVSPost2010PropOp45
 70
     1
102
RTVSPost2010Prop46
 90
       50
102
RTVSPost2010PropOp46
 70
     1
102
RTVSPost2010Prop47
 90
       50
102
RTVSPost2010PropOp47
 70
     1
102
RTVSPost2010Prop48
 90
       50
102
RTVSPost2010PropOp48
 70
     1
102
RTVSPost2010Prop49
280
     0
102
RTVSPost2010PropOp49
 70
     1
102
RTVSPost2010Prop50
 90
       50
102
RTVSPost2010PropOp50
 70
     1
102
RTVSPost2010Prop51ColorIndex
 90
      256
102
RTVSPost2010Prop51ColorRGB
 90
-16777216
102
RTVSPost2010PropOp51
 70
     0
102
RTVSPost2010Prop52
140
1.0
102
RTVSPost2010PropOp52
 70
     0
102
RTVSPost2010Prop53
 90
        2
102
RTVSPost2010PropOp53
 70
     1
102
RTVSPost2010Prop54
  1
strokes_ogs.tif
102
RTVSPost2010PropOp54
 70
     1
102
RTVSPost2010Prop55
280
     0
102
RTVSPost2010PropOp55
 70
     1
102
RTVSPost2010Prop56
140
1.0
102
RTVSPost2010PropOp56
 70
     1
102
RTVSPost2010Prop57
140
1.0
102
RTVSPost2010PropOp57
 70
     1
  0
XRECORD
  5
10A
102
{ACAD_REACTORS
330
109
102
}
330
109
100
AcDbXrecord
280
     1
102
RTVSPost2010Prop28
280
     0
102
RTVSPost2010PropOp28
 70
     1
102
RTVSPost2010Prop29
280
     1
102
RTVSPost2010PropOp29
 70
     1
102
RTVSPost2010Prop30
280
     1
102
RTVSPost2010PropOp30
 70
     1
102
RTVSPost2010Prop31
280
     0
102
RTVSPost2010PropOp31
 70
     1
102
RTVSPost2010Prop32
280
     0
102
RTVSPost2010PropOp32
 70
     1
102
RTVSPost2010Prop33
280
     0
102
RTVSPost2010PropOp33
 70
     1
102
RTVSPost2010Prop34
280
     0
102
RTVSPost2010PropOp34
 70
     1
102
RTVSPost2010Prop35
280
     0
102
RTVSPost2010PropOp35
 70
     1
102
RTVSPost2010Prop36
280
     0
102
RTVSPost2010PropOp36
 70
     1
102
RTVSPost2010Prop37
 90
       50
102
RTVSPost2010PropOp37
 70
     1
102
RTVSPost2010Prop38
140
0.0
102
RTVSPost2010PropOp38
 70
     1
102
RTVSPost2010Prop39
140
1.0
102
RTVSPost2010PropOp39
 70
     1
102
RTVSPost2010Prop40
 90
        0
102
RTVSPost2010PropOp40
 70
     1
102
RTVSPost2010Prop41ColorIndex
 90
       18
102
RTVSPost2010Prop41ColorRGB
 90
        0
102
RTVSPost2010PropOp41
 70
     1
102
RTVSPost2010Prop42
 90
       50
102
RTVSPost2010PropOp42
 70
     1
102
RTVSPost2010Prop43
 90
        3
102
RTVSPost2010PropOp43
 70
     1
102
RTVSPost2010Prop44ColorIndex
 90
        5
102
RTVSPost2010Prop44ColorRGB
 90
      255
102
RTVSPost2010PropOp44
 70
     1
102
RTVSPost2010Prop45
280
     0
102
RTVSPost2010PropOp45
 70
     1
102
RTVSPost2010Prop46
 90
       50
102
RTVSPost2010PropOp46
 70
     1
102
RTVSPost2010Prop47
 90
       50
102
RTVSPost2010PropOp47
 70
     1
102
RTVSPost2010Prop48
 90
       50
102
RTVSPost2010PropOp48
 70
     1
102
RTVSPost2010Prop49
280
     0
102
RTVSPost2010PropOp49
 70
     1
102
RTVSPost2010Prop50
 90
       50
102
RTVSPost2010PropOp50
 70
     1
102
RTVSPost2010Prop51ColorIndex
 90
      256
102
RTVSPost2010Prop51ColorRGB
 90
-16777216
102
RTVSPost2010PropOp51
 70
     0
102
RTVSPost2010Prop52
140
1.0
102
RTVSPost2010PropOp52
 70
     0
102
RTVSPost2010Prop53
 90
        2
102
RTVSPost2010PropOp53
 70
     1
102
RTVSPost2010Prop54
  1
strokes_ogs.tif
102
RTVSPost2010PropOp54
 70
     1
102
RTVSPost2010Prop55
280
     0
102
RTVSPost2010PropOp55
 70
     1
102
RTVSPost2010Prop56
140
1.0
102
RTVSPost2010PropOp56
 70
     1
102
RTVSPost2010Prop57
140
1.0
102
RTVSPost2010PropOp57
 70
     1
  0
XRECORD
  5
110
102
{ACAD_REACTORS
330
10F
102
}
330
10F
100
AcDbXrecord
280
     1
102
RTVSPost2010Prop28
280
     0
102
RTVSPost2010PropOp28
 70
     1
102
RTVSPost2010Prop29
280
     1
102
RTVSPost2010PropOp29
 70
     1
102
RTVSPost2010Prop30
280
     1
102
RTVSPost2010PropOp30
 70
     1
102
RTVSPost2010Prop31
280
     0
102
RTVSPost2010PropOp31
 70
     1
102
RTVSPost2010Prop32
280
     0
102
RTVSPost2010PropOp32
 70
     1
102
RTVSPost2010Prop33
280
     0
102
RTVSPost2010PropOp33
 70
     1
102
RTVSPost2010Prop34
280
     0
102
RTVSPost2010PropOp34
 70
     1
102
RTVSPost2010Prop35
280
     0
102
RTVSPost2010PropOp35
 70
     1
102
RTVSPost2010Prop36
280
     0
102
RTVSPost2010PropOp36
 70
     1
102
RTVSPost2010Prop37
 90
       50
102
RTVSPost2010PropOp37
 70
     1
102
RTVSPost2010Prop38
140
0.0
102
RTVSPost2010PropOp38
 70
     1
102
RTVSPost2010Prop39
140
1.0
102
RTVSPost2010PropOp39
 70
     1
102
RTVSPost2010Prop40
 90
        0
102
RTVSPost2010PropOp40
 70
     1
102
RTVSPost2010Prop41ColorIndex
 90
       18
102
RTVSPost2010Prop41ColorRGB
 90
        0
102
RTVSPost2010PropOp41
 70
     1
102
RTVSPost2010Prop42
 90
       50
102
RTVSPost2010PropOp42
 70
     1
102
RTVSPost2010Prop43
 90
        3
102
RTVSPost2010PropOp43
 70
     1
102
RTVSPost2010Prop44ColorIndex
 90
        5
102
RTVSPost2010Prop44ColorRGB
 90
      255
102
RTVSPost2010PropOp44
 70
     1
102
RTVSPost2010Prop45
280
     0
102
RTVSPost2010PropOp45
 70
     1
102
RTVSPost2010Prop46
 90
       50
102
RTVSPost2010PropOp46
 70
     1
102
RTVSPost2010Prop47
 90
       50
102
RTVSPost2010PropOp47
 70
     1
102
RTVSPost2010Prop48
 90
       50
102
RTVSPost2010PropOp48
 70
     1
102
RTVSPost2010Prop49
280
     0
102
RTVSPost2010PropOp49
 70
     1
102
RTVSPost2010Prop50
 90
       50
102
RTVSPost2010PropOp50
 70
     1
102
RTVSPost2010Prop51ColorIndex
 90
      256
102
RTVSPost2010Prop51ColorRGB
 90
-16777216
102
RTVSPost2010PropOp51
 70
     0
102
RTVSPost2010Prop52
140
1.0
102
RTVSPost2010PropOp52
 70
     0
102
RTVSPost2010Prop53
 90
        2
102
RTVSPost2010PropOp53
 70
     1
102
RTVSPost2010Prop54
  1
strokes_ogs.tif
102
RTVSPost2010PropOp54
 70
     1
102
RTVSPost2010Prop55
280
     0
102
RTVSPost2010PropOp55
 70
     1
102
RTVSPost2010Prop56
140
1.0
102
RTVSPost2010PropOp56
 70
     1
102
RTVSPost2010Prop57
140
1.0
102
RTVSPost2010PropOp57
 70
     1
  0
XRECORD
  5
124
102
{ACAD_REACTORS
330
123
102
}
330
123
100
AcDbXrecord
280
     1
102
RTVSPost2010Prop28
280
     0
102
RTVSPost2010PropOp28
 70
     0
102
RTVSPost2010Prop29
280
     1
102
RTVSPost2010PropOp29
 70
     0
102
RTVSPost2010Prop30
280
     1
102
RTVSPost2010PropOp30
 70
     0
102
RTVSPost2010Prop31
280
     0
102
RTVSPost2010PropOp31
 70
     0
102
RTVSPost2010Prop32
280
     0
102
RTVSPost2010PropOp32
 70
     0
102
RTVSPost2010Prop33
280
     0
102
RTVSPost2010PropOp33
 70
     0
102
RTVSPost2010Prop34
280
     0
102
RTVSPost2010PropOp34
 70
     0
102
RTVSPost2010Prop35
280
     0
102
RTVSPost2010PropOp35
 70
     0
102
RTVSPost2010Prop36
280
     0
102
RTVSPost2010PropOp36
 70
     0
102
RTVSPost2010Prop37
 90
       50
102
RTVSPost2010PropOp37
 70
     0
102
RTVSPost2010Prop38
140
0.0
102
RTVSPost2010PropOp38
 70
     0
102
RTVSPost2010Prop39
140
1.0
102
RTVSPost2010PropOp39
 70
     0
102
RTVSPost2010Prop40
 90
        0
102
RTVSPost2010PropOp40
 70
     0
102
RTVSPost2010Prop41ColorIndex
 90
       18
102
RTVSPost2010Prop41ColorRGB
 90
        0
102
RTVSPost2010PropOp41
 70
     0
102
RTVSPost2010Prop42
 90
       50
102
RTVSPost2010PropOp42
 70
     0
102
RTVSPost2010Prop43
 90
        3
102
RTVSPost2010PropOp43
 70
     0
102
RTVSPost2010Prop44ColorIndex
 90
        5
102
RTVSPost2010Prop44ColorRGB
 90
      255
102
RTVSPost2010PropOp44
 70
     0
102
RTVSPost2010Prop45
280
     0
102
RTVSPost2010PropOp45
 70
     0
102
RTVSPost2010Prop46
 90
       50
102
RTVSPost2010PropOp46
 70
     0
102
RTVSPost2010Prop47
 90
       50
102
RTVSPost2010PropOp47
 70
     0
102
RTVSPost2010Prop48
 90
       50
102
RTVSPost2010PropOp48
 70
     0
102
RTVSPost2010Prop49
280
     0
102
RTVSPost2010PropOp49
 70
     0
102
RTVSPost2010Prop50
 90
       50
102
RTVSPost2010PropOp50
 70
     0
102
RTVSPost2010Prop51ColorIndex
 90
      256
102
RTVSPost2010Prop51ColorRGB
 90
-16777216
102
RTVSPost2010PropOp51
 70
     0
102
RTVSPost2010Prop52
140
1.0
102
RTVSPost2010PropOp52
 70
     0
102
RTVSPost2010Prop53
 90
        2
102
RTVSPost2010PropOp53
 70
     0
102
RTVSPost2010Prop54
  1
strokes_ogs.tif
102
RTVSPost2010PropOp54
 70
     0
102
RTVSPost2010Prop55
280
     0
102
RTVSPost2010PropOp55
 70
     0
102
RTVSPost2010Prop56
140
1.0
102
RTVSPost2010PropOp56
 70
     0
102
RTVSPost2010Prop57
140
1.0
102
RTVSPost2010PropOp57
 70
     0
  0
XRECORD
  5
11E
102
{ACAD_REACTORS
330
11D
102
}
330
11D
100
AcDbXrecord
280
     1
102
RTVSPost2010Prop28
280
     0
102
RTVSPost2010PropOp28
 70
     1
102
RTVSPost2010Prop29
280
     1
102
RTVSPost2010PropOp29
 70
     1
102
RTVSPost2010Prop30
280
     1
102
RTVSPost2010PropOp30
 70
     1
102
RTVSPost2010Prop31
280
     0
102
RTVSPost2010PropOp31
 70
     1
102
RTVSPost2010Prop32
280
     0
102
RTVSPost2010PropOp32
 70
     1
102
RTVSPost2010Prop33
280
     0
102
RTVSPost2010PropOp33
 70
     1
102
RTVSPost2010Prop34
280
     0
102
RTVSPost2010PropOp34
 70
     1
102
RTVSPost2010Prop35
280
     0
102
RTVSPost2010PropOp35
 70
     1
102
RTVSPost2010Prop36
280
     0
102
RTVSPost2010PropOp36
 70
     1
102
RTVSPost2010Prop37
 90
       50
102
RTVSPost2010PropOp37
 70
     1
102
RTVSPost2010Prop38
140
0.0
102
RTVSPost2010PropOp38
 70
     1
102
RTVSPost2010Prop39
140
1.0
102
RTVSPost2010PropOp39
 70
     1
102
RTVSPost2010Prop40
 90
        0
102
RTVSPost2010PropOp40
 70
     1
102
RTVSPost2010Prop41ColorIndex
 90
       18
102
RTVSPost2010Prop41ColorRGB
 90
        0
102
RTVSPost2010PropOp41
 70
     1
102
RTVSPost2010Prop42
 90
       50
102
RTVSPost2010PropOp42
 70
     1
102
RTVSPost2010Prop43
 90
        3
102
RTVSPost2010PropOp43
 70
     1
102
RTVSPost2010Prop44ColorIndex
 90
        5
102
RTVSPost2010Prop44ColorRGB
 90
      255
102
RTVSPost2010PropOp44
 70
     1
102
RTVSPost2010Prop45
280
     0
102
RTVSPost2010PropOp45
 70
     1
102
RTVSPost2010Prop46
 90
       50
102
RTVSPost2010PropOp46
 70
     1
102
RTVSPost2010Prop47
 90
       50
102
RTVSPost2010PropOp47
 70
     1
102
RTVSPost2010Prop48
 90
       50
102
RTVSPost2010PropOp48
 70
     1
102
RTVSPost2010Prop49
280
     0
102
RTVSPost2010PropOp49
 70
     1
102
RTVSPost2010Prop50
 90
       50
102
RTVSPost2010PropOp50
 70
     1
102
RTVSPost2010Prop51ColorIndex
 90
      256
102
RTVSPost2010Prop51ColorRGB
 90
-16777216
102
RTVSPost2010PropOp51
 70
     0
102
RTVSPost2010Prop52
140
1.0
102
RTVSPost2010PropOp52
 70
     0
102
RTVSPost2010Prop53
 90
        2
102
RTVSPost2010PropOp53
 70
     1
102
RTVSPost2010Prop54
  1
strokes_ogs.tif
102
RTVSPost2010PropOp54
 70
     1
102
RTVSPost2010Prop55
280
     0
102
RTVSPost2010PropOp55
 70
     1
102
RTVSPost2010Prop56
140
1.0
102
RTVSPost2010PropOp56
 70
     1
102
RTVSPost2010Prop57
140
1.0
102
RTVSPost2010PropOp57
 70
     1
  0
XRECORD
  5
126
102
{ACAD_REACTORS
330
125
102
}
330
125
100
AcDbXrecord
280
     1
102
RTVSPost2010Prop28
280
     0
102
RTVSPost2010PropOp28
 70
     0
102
RTVSPost2010Prop29
280
     1
102
RTVSPost2010PropOp29
 70
     0
102
RTVSPost2010Prop30
280
     1
102
RTVSPost2010PropOp30
 70
     0
102
RTVSPost2010Prop31
280
     0
102
RTVSPost2010PropOp31
 70
     0
102
RTVSPost2010Prop32
280
     0
102
RTVSPost2010PropOp32
 70
     0
102
RTVSPost2010Prop33
280
     0
102
RTVSPost2010PropOp33
 70
     0
102
RTVSPost2010Prop34
280
     0
102
RTVSPost2010PropOp34
 70
     0
102
RTVSPost2010Prop35
280
     0
102
RTVSPost2010PropOp35
 70
     0
102
RTVSPost2010Prop36
280
     0
102
RTVSPost2010PropOp36
 70
     0
102
RTVSPost2010Prop37
 90
       50
102
RTVSPost2010PropOp37
 70
     0
102
RTVSPost2010Prop38
140
0.0
102
RTVSPost2010PropOp38
 70
     0
102
RTVSPost2010Prop39
140
1.0
102
RTVSPost2010PropOp39
 70
     0
102
RTVSPost2010Prop40
 90
        0
102
RTVSPost2010PropOp40
 70
     0
102
RTVSPost2010Prop41ColorIndex
 90
       18
102
RTVSPost2010Prop41ColorRGB
 90
        0
102
RTVSPost2010PropOp41
 70
     0
102
RTVSPost2010Prop42
 90
       50
102
RTVSPost2010PropOp42
 70
     0
102
RTVSPost2010Prop43
 90
        3
102
RTVSPost2010PropOp43
 70
     0
102
RTVSPost2010Prop44ColorIndex
 90
        5
102
RTVSPost2010Prop44ColorRGB
 90
      255
102
RTVSPost2010PropOp44
 70
     0
102
RTVSPost2010Prop45
280
     0
102
RTVSPost2010PropOp45
 70
     0
102
RTVSPost2010Prop46
 90
       50
102
RTVSPost2010PropOp46
 70
     0
102
RTVSPost2010Prop47
 90
       50
102
RTVSPost2010PropOp47
 70
     0
102
RTVSPost2010Prop48
 90
       50
102
RTVSPost2010PropOp48
 70
     0
102
RTVSPost2010Prop49
280
     0
102
RTVSPost2010PropOp49
 70
     0
102
RTVSPost2010Prop50
 90
       50
102
RTVSPost2010PropOp50
 70
     0
102
RTVSPost2010Prop51ColorIndex
 90
      256
102
RTVSPost2010Prop51ColorRGB
 90
-16777216
102
RTVSPost2010PropOp51
 70
     0
102
RTVSPost2010Prop52
140
1.0
102
RTVSPost2010PropOp52
 70
     0
102
RTVSPost2010Prop53
 90
        2
102
RTVSPost2010PropOp53
 70
     0
102
RTVSPost2010Prop54
  1
strokes_ogs.tif
102
RTVSPost2010PropOp54
 70
     0
102
RTVSPost2010Prop55
280
     0
102
RTVSPost2010PropOp55
 70
     0
102
RTVSPost2010Prop56
140
1.0
102
RTVSPost2010PropOp56
 70
     0
102
RTVSPost2010Prop57
140
1.0
102
RTVSPost2010PropOp57
 70
     0
  0
XRECORD
  5
114
102
{ACAD_REACTORS
330
113
102
}
330
113
100
AcDbXrecord
280
     1
102
RTVSPost2010Prop28
280
     0
102
RTVSPost2010PropOp28
 70
     1
102
RTVSPost2010Prop29
280
     1
102
RTVSPost2010PropOp29
 70
     1
102
RTVSPost2010Prop30
280
     1
102
RTVSPost2010PropOp30
 70
     1
102
RTVSPost2010Prop31
280
     0
102
RTVSPost2010PropOp31
 70
     1
102
RTVSPost2010Prop32
280
     0
102
RTVSPost2010PropOp32
 70
     1
102
RTVSPost2010Prop33
280
     0
102
RTVSPost2010PropOp33
 70
     1
102
RTVSPost2010Prop34
280
     0
102
RTVSPost2010PropOp34
 70
     1
102
RTVSPost2010Prop35
280
     0
102
RTVSPost2010PropOp35
 70
     1
102
RTVSPost2010Prop36
280
     0
102
RTVSPost2010PropOp36
 70
     1
102
RTVSPost2010Prop37
 90
       50
102
RTVSPost2010PropOp37
 70
     1
102
RTVSPost2010Prop38
140
0.0
102
RTVSPost2010PropOp38
 70
     1
102
RTVSPost2010Prop39
140
1.0
102
RTVSPost2010PropOp39
 70
     1
102
RTVSPost2010Prop40
 90
        0
102
RTVSPost2010PropOp40
 70
     1
102
RTVSPost2010Prop41ColorIndex
 90
       18
102
RTVSPost2010Prop41ColorRGB
 90
        0
102
RTVSPost2010PropOp41
 70
     1
102
RTVSPost2010Prop42
 90
       50
102
RTVSPost2010PropOp42
 70
     1
102
RTVSPost2010Prop43
 90
        3
102
RTVSPost2010PropOp43
 70
     1
102
RTVSPost2010Prop44ColorIndex
 90
        5
102
RTVSPost2010Prop44ColorRGB
 90
      255
102
RTVSPost2010PropOp44
 70
     1
102
RTVSPost2010Prop45
280
     0
102
RTVSPost2010PropOp45
 70
     1
102
RTVSPost2010Prop46
 90
       50
102
RTVSPost2010PropOp46
 70
     1
102
RTVSPost2010Prop47
 90
       50
102
RTVSPost2010PropOp47
 70
     1
102
RTVSPost2010Prop48
 90
       50
102
RTVSPost2010PropOp48
 70
     1
102
RTVSPost2010Prop49
280
     0
102
RTVSPost2010PropOp49
 70
     1
102
RTVSPost2010Prop50
 90
       50
102
RTVSPost2010PropOp50
 70
     1
102
RTVSPost2010Prop51ColorIndex
 90
      256
102
RTVSPost2010Prop51ColorRGB
 90
-16777216
102
RTVSPost2010PropOp51
 70
     0
102
RTVSPost2010Prop52
140
1.0
102
RTVSPost2010PropOp52
 70
     0
102
RTVSPost2010Prop53
 90
        2
102
RTVSPost2010PropOp53
 70
     1
102
RTVSPost2010Prop54
  1
strokes_ogs.tif
102
RTVSPost2010PropOp54
 70
     1
102
RTVSPost2010Prop55
280
     0
102
RTVSPost2010PropOp55
 70
     1
102
RTVSPost2010Prop56
140
1.0
102
RTVSPost2010PropOp56
 70
     1
102
RTVSPost2010Prop57
140
1.0
102
RTVSPost2010PropOp57
 70
     1
  0
XRECORD
  5
132
102
{ACAD_REACTORS
330
131
102
}
330
131
100
AcDbXrecord
280
     1
102
RTVSPost2010Prop28
280
     0
102
RTVSPost2010PropOp28
 70
     1
102
RTVSPost2010Prop29
280
     1
102
RTVSPost2010PropOp29
 70
     1
102
RTVSPost2010Prop30
280
     1
102
RTVSPost2010PropOp30
 70
     1
102
RTVSPost2010Prop31
280
     0
102
RTVSPost2010PropOp31
 70
     1
102
RTVSPost2010Prop32
280
     0
102
RTVSPost2010PropOp32
 70
     1
102
RTVSPost2010Prop33
280
     0
102
RTVSPost2010PropOp33
 70
     1
102
RTVSPost2010Prop34
280
     0
102
RTVSPost2010PropOp34
 70
     1
102
RTVSPost2010Prop35
280
     0
102
RTVSPost2010PropOp35
 70
     1
102
RTVSPost2010Prop36
280
     0
102
RTVSPost2010PropOp36
 70
     1
102
RTVSPost2010Prop37
 90
       50
102
RTVSPost2010PropOp37
 70
     1
102
RTVSPost2010Prop38
140
0.0
102
RTVSPost2010PropOp38
 70
     1
102
RTVSPost2010Prop39
140
1.0
102
RTVSPost2010PropOp39
 70
     1
102
RTVSPost2010Prop40
 90
        0
102
RTVSPost2010PropOp40
 70
     1
102
RTVSPost2010Prop41ColorIndex
 90
       18
102
RTVSPost2010Prop41ColorRGB
 90
        0
102
RTVSPost2010PropOp41
 70
     1
102
RTVSPost2010Prop42
 90
       50
102
RTVSPost2010PropOp42
 70
     1
102
RTVSPost2010Prop43
 90
        3
102
RTVSPost2010PropOp43
 70
     1
102
RTVSPost2010Prop44ColorIndex
 90
        5
102
RTVSPost2010Prop44ColorRGB
 90
      255
102
RTVSPost2010PropOp44
 70
     1
102
RTVSPost2010Prop45
280
     0
102
RTVSPost2010PropOp45
 70
     1
102
RTVSPost2010Prop46
 90
       50
102
RTVSPost2010PropOp46
 70
     1
102
RTVSPost2010Prop47
 90
       50
102
RTVSPost2010PropOp47
 70
     1
102
RTVSPost2010Prop48
 90
       50
102
RTVSPost2010PropOp48
 70
     1
102
RTVSPost2010Prop49
280
     0
102
RTVSPost2010PropOp49
 70
     1
102
RTVSPost2010Prop50
 90
       50
102
RTVSPost2010PropOp50
 70
     1
102
RTVSPost2010Prop51ColorIndex
 90
      256
102
RTVSPost2010Prop51ColorRGB
 90
-16777216
102
RTVSPost2010PropOp51
 70
     0
102
RTVSPost2010Prop52
140
1.0
102
RTVSPost2010PropOp52
 70
     0
102
RTVSPost2010Prop53
 90
        2
102
RTVSPost2010PropOp53
 70
     1
102
RTVSPost2010Prop54
  1
strokes_ogs.tif
102
RTVSPost2010PropOp54
 70
     1
102
RTVSPost2010Prop55
280
     0
102
RTVSPost2010PropOp55
 70
     1
102
RTVSPost2010Prop56
140
1.0
102
RTVSPost2010PropOp56
 70
     1
102
RTVSPost2010Prop57
140
1.0
102
RTVSPost2010PropOp57
 70
     1
  0
XRECORD
  5
130
102
{ACAD_REACTORS
330
12F
102
}
330
12F
100
AcDbXrecord
280
     1
102
RTVSPost2010Prop28
280
     0
102
RTVSPost2010PropOp28
 70
     1
102
RTVSPost2010Prop29
280
     1
102
RTVSPost2010PropOp29
 70
     1
102
RTVSPost2010Prop30
280
     1
102
RTVSPost2010PropOp30
 70
     1
102
RTVSPost2010Prop31
280
     0
102
RTVSPost2010PropOp31
 70
     1
102
RTVSPost2010Prop32
280
     0
102
RTVSPost2010PropOp32
 70
     1
102
RTVSPost2010Prop33
280
     0
102
RTVSPost2010PropOp33
 70
     1
102
RTVSPost2010Prop34
280
     0
102
RTVSPost2010PropOp34
 70
     1
102
RTVSPost2010Prop35
280
     0
102
RTVSPost2010PropOp35
 70
     1
102
RTVSPost2010Prop36
280
     0
102
RTVSPost2010PropOp36
 70
     1
102
RTVSPost2010Prop37
 90
       50
102
RTVSPost2010PropOp37
 70
     1
102
RTVSPost2010Prop38
140
0.0
102
RTVSPost2010PropOp38
 70
     1
102
RTVSPost2010Prop39
140
1.0
102
RTVSPost2010PropOp39
 70
     1
102
RTVSPost2010Prop40
 90
        0
102
RTVSPost2010PropOp40
 70
     1
102
RTVSPost2010Prop41ColorIndex
 90
       18
102
RTVSPost2010Prop41ColorRGB
 90
        0
102
RTVSPost2010PropOp41
 70
     1
102
RTVSPost2010Prop42
 90
       50
102
RTVSPost2010PropOp42
 70
     1
102
RTVSPost2010Prop43
 90
        3
102
RTVSPost2010PropOp43
 70
     1
102
RTVSPost2010Prop44ColorIndex
 90
        5
102
RTVSPost2010Prop44ColorRGB
 90
      255
102
RTVSPost2010PropOp44
 70
     1
102
RTVSPost2010Prop45
280
     0
102
RTVSPost2010PropOp45
 70
     1
102
RTVSPost2010Prop46
 90
       50
102
RTVSPost2010PropOp46
 70
     1
102
RTVSPost2010Prop47
 90
       50
102
RTVSPost2010PropOp47
 70
     1
102
RTVSPost2010Prop48
 90
       50
102
RTVSPost2010PropOp48
 70
     1
102
RTVSPost2010Prop49
280
     0
102
RTVSPost2010PropOp49
 70
     1
102
RTVSPost2010Prop50
 90
       50
102
RTVSPost2010PropOp50
 70
     1
102
RTVSPost2010Prop51ColorIndex
 90
      256
102
RTVSPost2010Prop51ColorRGB
 90
-16777216
102
RTVSPost2010PropOp51
 70
     0
102
RTVSPost2010Prop52
140
1.0
102
RTVSPost2010PropOp52
 70
     0
102
RTVSPost2010Prop53
 90
        2
102
RTVSPost2010PropOp53
 70
     1
102
RTVSPost2010Prop54
  1
strokes_ogs.tif
102
RTVSPost2010PropOp54
 70
     1
102
RTVSPost2010Prop55
280
     0
102
RTVSPost2010PropOp55
 70
     1
102
RTVSPost2010Prop56
140
1.0
102
RTVSPost2010PropOp56
 70
     1
102
RTVSPost2010Prop57
140
1.0
102
RTVSPost2010PropOp57
 70
     1
  0
XRECORD
  5
12A
102
{ACAD_REACTORS
330
129
102
}
330
129
100
AcDbXrecord
280
     1
102
RTVSPost2010Prop28
280
     0
102
RTVSPost2010PropOp28
 70
     1
102
RTVSPost2010Prop29
280
     1
102
RTVSPost2010PropOp29
 70
     1
102
RTVSPost2010Prop30
280
     1
102
RTVSPost2010PropOp30
 70
     1
102
RTVSPost2010Prop31
280
     0
102
RTVSPost2010PropOp31
 70
     1
102
RTVSPost2010Prop32
280
     0
102
RTVSPost2010PropOp32
 70
     1
102
RTVSPost2010Prop33
280
     0
102
RTVSPost2010PropOp33
 70
     1
102
RTVSPost2010Prop34
280
     0
102
RTVSPost2010PropOp34
 70
     1
102
RTVSPost2010Prop35
280
     0
102
RTVSPost2010PropOp35
 70
     1
102
RTVSPost2010Prop36
280
     0
102
RTVSPost2010PropOp36
 70
     1
102
RTVSPost2010Prop37
 90
       50
102
RTVSPost2010PropOp37
 70
     1
102
RTVSPost2010Prop38
140
0.0
102
RTVSPost2010PropOp38
 70
     1
102
RTVSPost2010Prop39
140
1.0
102
RTVSPost2010PropOp39
 70
     1
102
RTVSPost2010Prop40
 90
        0
102
RTVSPost2010PropOp40
 70
     1
102
RTVSPost2010Prop41ColorIndex
 90
       18
102
RTVSPost2010Prop41ColorRGB
 90
        0
102
RTVSPost2010PropOp41
 70
     1
102
RTVSPost2010Prop42
 90
       50
102
RTVSPost2010PropOp42
 70
     1
102
RTVSPost2010Prop43
 90
        3
102
RTVSPost2010PropOp43
 70
     1
102
RTVSPost2010Prop44ColorIndex
 90
        5
102
RTVSPost2010Prop44ColorRGB
 90
      255
102
RTVSPost2010PropOp44
 70
     1
102
RTVSPost2010Prop45
280
     0
102
RTVSPost2010PropOp45
 70
     1
102
RTVSPost2010Prop46
 90
       50
102
RTVSPost2010PropOp46
 70
     1
102
RTVSPost2010Prop47
 90
       50
102
RTVSPost2010PropOp47
 70
     1
102
RTVSPost2010Prop48
 90
       50
102
RTVSPost2010PropOp48
 70
     1
102
RTVSPost2010Prop49
280
     0
102
RTVSPost2010PropOp49
 70
     1
102
RTVSPost2010Prop50
 90
       50
102
RTVSPost2010PropOp50
 70
     1
102
RTVSPost2010Prop51ColorIndex
 90
      256
102
RTVSPost2010Prop51ColorRGB
 90
-16777216
102
RTVSPost2010PropOp51
 70
     0
102
RTVSPost2010Prop52
140
1.0
102
RTVSPost2010PropOp52
 70
     0
102
RTVSPost2010Prop53
 90
        2
102
RTVSPost2010PropOp53
 70
     1
102
RTVSPost2010Prop54
  1
strokes_ogs.tif
102
RTVSPost2010PropOp54
 70
     1
102
RTVSPost2010Prop55
280
     0
102
RTVSPost2010PropOp55
 70
     1
102
RTVSPost2010Prop56
140
1.0
102
RTVSPost2010PropOp56
 70
     1
102
RTVSPost2010Prop57
140
1.0
102
RTVSPost2010PropOp57
 70
     1
  0
XRECORD
  5
12C
102
{ACAD_REACTORS
330
12B
102
}
330
12B
100
AcDbXrecord
280
     1
102
RTVSPost2010Prop28
280
     0
102
RTVSPost2010PropOp28
 70
     1
102
RTVSPost2010Prop29
280
     1
102
RTVSPost2010PropOp29
 70
     1
102
RTVSPost2010Prop30
280
     1
102
RTVSPost2010PropOp30
 70
     1
102
RTVSPost2010Prop31
280
     0
102
RTVSPost2010PropOp31
 70
     1
102
RTVSPost2010Prop32
280
     0
102
RTVSPost2010PropOp32
 70
     1
102
RTVSPost2010Prop33
280
     0
102
RTVSPost2010PropOp33
 70
     1
102
RTVSPost2010Prop34
280
     0
102
RTVSPost2010PropOp34
 70
     1
102
RTVSPost2010Prop35
280
     0
102
RTVSPost2010PropOp35
 70
     1
102
RTVSPost2010Prop36
280
     0
102
RTVSPost2010PropOp36
 70
     1
102
RTVSPost2010Prop37
 90
       50
102
RTVSPost2010PropOp37
 70
     1
102
RTVSPost2010Prop38
140
0.0
102
RTVSPost2010PropOp38
 70
     1
102
RTVSPost2010Prop39
140
1.0
102
RTVSPost2010PropOp39
 70
     1
102
RTVSPost2010Prop40
 90
        0
102
RTVSPost2010PropOp40
 70
     1
102
RTVSPost2010Prop41ColorIndex
 90
       18
102
RTVSPost2010Prop41ColorRGB
 90
        0
102
RTVSPost2010PropOp41
 70
     1
102
RTVSPost2010Prop42
 90
       50
102
RTVSPost2010PropOp42
 70
     1
102
RTVSPost2010Prop43
 90
        3
102
RTVSPost2010PropOp43
 70
     1
102
RTVSPost2010Prop44ColorIndex
 90
        5
102
RTVSPost2010Prop44ColorRGB
 90
      255
102
RTVSPost2010PropOp44
 70
     1
102
RTVSPost2010Prop45
280
     0
102
RTVSPost2010PropOp45
 70
     1
102
RTVSPost2010Prop46
 90
       50
102
RTVSPost2010PropOp46
 70
     1
102
RTVSPost2010Prop47
 90
       50
102
RTVSPost2010PropOp47
 70
     1
102
RTVSPost2010Prop48
 90
       50
102
RTVSPost2010PropOp48
 70
     1
102
RTVSPost2010Prop49
280
     0
102
RTVSPost2010PropOp49
 70
     1
102
RTVSPost2010Prop50
 90
       50
102
RTVSPost2010PropOp50
 70
     1
102
RTVSPost2010Prop51ColorIndex
 90
      256
102
RTVSPost2010Prop51ColorRGB
 90
-16777216
102
RTVSPost2010PropOp51
 70
     0
102
RTVSPost2010Prop52
140
1.0
102
RTVSPost2010PropOp52
 70
     0
102
RTVSPost2010Prop53
 90
        2
102
RTVSPost2010PropOp53
 70
     1
102
RTVSPost2010Prop54
  1
strokes_ogs.tif
102
RTVSPost2010PropOp54
 70
     1
102
RTVSPost2010Prop55
280
     0
102
RTVSPost2010PropOp55
 70
     1
102
RTVSPost2010Prop56
140
1.0
102
RTVSPost2010PropOp56
 70
     1
102
RTVSPost2010Prop57
140
1.0
102
RTVSPost2010PropOp57
 70
     1
  0
XRECORD
  5
11C
102
{ACAD_REACTORS
330
11B
102
}
330
11B
100
AcDbXrecord
280
     1
102
RTVSPost2010Prop28
280
     0
102
RTVSPost2010PropOp28
 70
     1
102
RTVSPost2010Prop29
280
     1
102
RTVSPost2010PropOp29
 70
     1
102
RTVSPost2010Prop30
280
     1
102
RTVSPost2010PropOp30
 70
     1
102
RTVSPost2010Prop31
280
     0
102
RTVSPost2010PropOp31
 70
     1
102
RTVSPost2010Prop32
280
     0
102
RTVSPost2010PropOp32
 70
     1
102
RTVSPost2010Prop33
280
     0
102
RTVSPost2010PropOp33
 70
     1
102
RTVSPost2010Prop34
280
     0
102
RTVSPost2010PropOp34
 70
     1
102
RTVSPost2010Prop35
280
     0
102
RTVSPost2010PropOp35
 70
     1
102
RTVSPost2010Prop36
280
     0
102
RTVSPost2010PropOp36
 70
     1
102
RTVSPost2010Prop37
 90
       50
102
RTVSPost2010PropOp37
 70
     1
102
RTVSPost2010Prop38
140
0.0
102
RTVSPost2010PropOp38
 70
     1
102
RTVSPost2010Prop39
140
1.0
102
RTVSPost2010PropOp39
 70
     1
102
RTVSPost2010Prop40
 90
        0
102
RTVSPost2010PropOp40
 70
     1
102
RTVSPost2010Prop41ColorIndex
 90
       18
102
RTVSPost2010Prop41ColorRGB
 90
        0
102
RTVSPost2010PropOp41
 70
     1
102
RTVSPost2010Prop42
 90
       50
102
RTVSPost2010PropOp42
 70
     1
102
RTVSPost2010Prop43
 90
        3
102
RTVSPost2010PropOp43
 70
     1
102
RTVSPost2010Prop44ColorIndex
 90
        5
102
RTVSPost2010Prop44ColorRGB
 90
      255
102
RTVSPost2010PropOp44
 70
     1
102
RTVSPost2010Prop45
280
     0
102
RTVSPost2010PropOp45
 70
     1
102
RTVSPost2010Prop46
 90
       50
102
RTVSPost2010PropOp46
 70
     1
102
RTVSPost2010Prop47
 90
       50
102
RTVSPost2010PropOp47
 70
     1
102
RTVSPost2010Prop48
 90
       50
102
RTVSPost2010PropOp48
 70
     1
102
RTVSPost2010Prop49
280
     0
102
RTVSPost2010PropOp49
 70
     1
102
RTVSPost2010Prop50
 90
       50
102
RTVSPost2010PropOp50
 70
     1
102
RTVSPost2010Prop51ColorIndex
 90
      256
102
RTVSPost2010Prop51ColorRGB
 90
-16777216
102
RTVSPost2010PropOp51
 70
     0
102
RTVSPost2010Prop52
140
1.0
102
RTVSPost2010PropOp52
 70
     0
102
RTVSPost2010Prop53
 90
        2
102
RTVSPost2010PropOp53
 70
     1
102
RTVSPost2010Prop54
  1
strokes_ogs.tif
102
RTVSPost2010PropOp54
 70
     1
102
RTVSPost2010Prop55
280
     0
102
RTVSPost2010PropOp55
 70
     1
102
RTVSPost2010Prop56
140
1.0
102
RTVSPost2010PropOp56
 70
     1
102
RTVSPost2010Prop57
140
1.0
102
RTVSPost2010PropOp57
 70
     1
  0
XRECORD
  5
10E
102
{ACAD_REACTORS
330
10D
102
}
330
10D
100
AcDbXrecord
280
     1
102
RTVSPost2010Prop28
280
     0
102
RTVSPost2010PropOp28
 70
     1
102
RTVSPost2010Prop29
280
     1
102
RTVSPost2010PropOp29
 70
     1
102
RTVSPost2010Prop30
280
     1
102
RTVSPost2010PropOp30
 70
     1
102
RTVSPost2010Prop31
280
     0
102
RTVSPost2010PropOp31
 70
     1
102
RTVSPost2010Prop32
280
     0
102
RTVSPost2010PropOp32
 70
     1
102
RTVSPost2010Prop33
280
     0
102
RTVSPost2010PropOp33
 70
     1
102
RTVSPost2010Prop34
280
     0
102
RTVSPost2010PropOp34
 70
     1
102
RTVSPost2010Prop35
280
     0
102
RTVSPost2010PropOp35
 70
     1
102
RTVSPost2010Prop36
280
     0
102
RTVSPost2010PropOp36
 70
     1
102
RTVSPost2010Prop37
 90
       50
102
RTVSPost2010PropOp37
 70
     1
102
RTVSPost2010Prop38
140
0.0
102
RTVSPost2010PropOp38
 70
     1
102
RTVSPost2010Prop39
140
1.0
102
RTVSPost2010PropOp39
 70
     1
102
RTVSPost2010Prop40
 90
        0
102
RTVSPost2010PropOp40
 70
     1
102
RTVSPost2010Prop41ColorIndex
 90
       18
102
RTVSPost2010Prop41ColorRGB
 90
        0
102
RTVSPost2010PropOp41
 70
     1
102
RTVSPost2010Prop42
 90
       50
102
RTVSPost2010PropOp42
 70
     1
102
RTVSPost2010Prop43
 90
        3
102
RTVSPost2010PropOp43
 70
     1
102
RTVSPost2010Prop44ColorIndex
 90
        5
102
RTVSPost2010Prop44ColorRGB
 90
      255
102
RTVSPost2010PropOp44
 70
     1
102
RTVSPost2010Prop45
280
     0
102
RTVSPost2010PropOp45
 70
     1
102
RTVSPost2010Prop46
 90
       50
102
RTVSPost2010PropOp46
 70
     1
102
RTVSPost2010Prop47
 90
       50
102
RTVSPost2010PropOp47
 70
     1
102
RTVSPost2010Prop48
 90
       50
102
RTVSPost2010PropOp48
 70
     1
102
RTVSPost2010Prop49
280
     0
102
RTVSPost2010PropOp49
 70
     1
102
RTVSPost2010Prop50
 90
       50
102
RTVSPost2010PropOp50
 70
     1
102
RTVSPost2010Prop51ColorIndex
 90
      256
102
RTVSPost2010Prop51ColorRGB
 90
-16777216
102
RTVSPost2010PropOp51
 70
     0
102
RTVSPost2010Prop52
140
1.0
102
RTVSPost2010PropOp52
 70
     0
102
RTVSPost2010Prop53
 90
        2
102
RTVSPost2010PropOp53
 70
     1
102
RTVSPost2010Prop54
  1
strokes_ogs.tif
102
RTVSPost2010PropOp54
 70
     1
102
RTVSPost2010Prop55
280
     0
102
RTVSPost2010PropOp55
 70
     1
102
RTVSPost2010Prop56
140
1.0
102
RTVSPost2010PropOp56
 70
     1
102
RTVSPost2010Prop57
140
1.0
102
RTVSPost2010PropOp57
 70
     1
  0
XRECORD
  5
12E
102
{ACAD_REACTORS
330
12D
102
}
330
12D
100
AcDbXrecord
280
     1
102
RTVSPost2010Prop28
280
     0
102
RTVSPost2010PropOp28
 70
     1
102
RTVSPost2010Prop29
280
     1
102
RTVSPost2010PropOp29
 70
     1
102
RTVSPost2010Prop30
280
     1
102
RTVSPost2010PropOp30
 70
     1
102
RTVSPost2010Prop31
280
     0
102
RTVSPost2010PropOp31
 70
     1
102
RTVSPost2010Prop32
280
     0
102
RTVSPost2010PropOp32
 70
     1
102
RTVSPost2010Prop33
280
     0
102
RTVSPost2010PropOp33
 70
     1
102
RTVSPost2010Prop34
280
     0
102
RTVSPost2010PropOp34
 70
     1
102
RTVSPost2010Prop35
280
     0
102
RTVSPost2010PropOp35
 70
     1
102
RTVSPost2010Prop36
280
     0
102
RTVSPost2010PropOp36
 70
     1
102
RTVSPost2010Prop37
 90
       50
102
RTVSPost2010PropOp37
 70
     1
102
RTVSPost2010Prop38
140
0.0
102
RTVSPost2010PropOp38
 70
     1
102
RTVSPost2010Prop39
140
1.0
102
RTVSPost2010PropOp39
 70
     1
102
RTVSPost2010Prop40
 90
        0
102
RTVSPost2010PropOp40
 70
     1
102
RTVSPost2010Prop41ColorIndex
 90
       18
102
RTVSPost2010Prop41ColorRGB
 90
        0
102
RTVSPost2010PropOp41
 70
     1
102
RTVSPost2010Prop42
 90
       50
102
RTVSPost2010PropOp42
 70
     1
102
RTVSPost2010Prop43
 90
        3
102
RTVSPost2010PropOp43
 70
     1
102
RTVSPost2010Prop44ColorIndex
 90
        5
102
RTVSPost2010Prop44ColorRGB
 90
      255
102
RTVSPost2010PropOp44
 70
     1
102
RTVSPost2010Prop45
280
     0
102
RTVSPost2010PropOp45
 70
     1
102
RTVSPost2010Prop46
 90
       50
102
RTVSPost2010PropOp46
 70
     1
102
RTVSPost2010Prop47
 90
       50
102
RTVSPost2010PropOp47
 70
     1
102
RTVSPost2010Prop48
 90
       50
102
RTVSPost2010PropOp48
 70
     1
102
RTVSPost2010Prop49
280
     0
102
RTVSPost2010PropOp49
 70
     1
102
RTVSPost2010Prop50
 90
       50
102
RTVSPost2010PropOp50
 70
     1
102
RTVSPost2010Prop51ColorIndex
 90
      256
102
RTVSPost2010Prop51ColorRGB
 90
-16777216
102
RTVSPost2010PropOp51
 70
     0
102
RTVSPost2010Prop52
140
1.0
102
RTVSPost2010PropOp52
 70
     0
102
RTVSPost2010Prop53
 90
        2
102
RTVSPost2010PropOp53
 70
     1
102
RTVSPost2010Prop54
  1
strokes_ogs.tif
102
RTVSPost2010PropOp54
 70
     1
102
RTVSPost2010Prop55
280
     0
102
RTVSPost2010PropOp55
 70
     1
102
RTVSPost2010Prop56
140
1.0
102
RTVSPost2010PropOp56
 70
     1
102
RTVSPost2010Prop57
140
1.0
102
RTVSPost2010PropOp57
 70
     1
  0
ENDSEC
  0
EOF